  0
SECTION
  2
HEADER
  9
$ACADVER
  1
AC1009
  9
$INSBASE
 10
0
 20
0
 30
0
  9
$EXTMIN
 10
0
 20
0
  9
$EXTMAX
 10
2940
 20
2079
  9
$LIMMIN
 10
0
 20
0
  9
$LIMMAX
 10
2940
 20
2079
  9
$LTSCALE
 40
7
  0
ENDSEC
  0
SECTION
  2
TABLES
  0
TABLE
  2
LTYPE
 70
     9
  0
LTYPE
  2
CONTINUOUS
 70
    64
  3
実線
 72
    65
 73
     0
 40
0.0
  0
LTYPE
  2
DASHED1
 70
    64
  3
--  --  --  --  --  --  --  --  
 72
    65
 73
     2
 40
2.5
 49
1.25
 49
-1.25
  0
LTYPE
  2
DASHED2
 70
    64
  3
----    ----    ----    ----    
 72
    65
 73
     2
 40
5.0
 49
2.5
 49
-2.5
  0
LTYPE
  2
DASHED3
 70
    64
  3
------  ------  ------  ------  
 72
    65
 73
     2
 40
5.0
 49
3.75
 49
-1.25
  0
LTYPE
  2
CENTER1
 70
    64
  3
----- - ----- - ----- - ----- - 
 72
    65
 73
     4
 40
10.0
 49
6.25
 49
-1.25
 49
1.25
 49
-1.25
  0
LTYPE
  2
CENTER2
 70
    64
  3
----------  --  ----------  --  
 72
    65
 73
     4
 40
20.0
 49
12.5
 49
-2.5
 49
2.5
 49
-2.5
  0
LTYPE
  2
PHANTOM1
 70
    64
  3
--- - - --- - - --- - - --- - - 
 72
    65
 73
     6
 40
10.0
 49
3.25
 49
-1.25
 49
1.25
 49
-1.25
 49
1.25
 49
-1.25
  0
LTYPE
  2
PHANTOM2
 70
    64
  3
--------  -  -  --------  -  -  
 72
    65
 73
     6
 40
20.0
 49
10.0
 49
-2.5
 49
1.25
 49
-2.5
 49
1.25
 49
-2.5
  0
LTYPE
  2
DOT
 70
    64
  3
-   -   -   -   -   -   -   -   
 72
    65
 73
     2
 40
2.5
 49
0.625
 49
-1.875
  0
LTYPE
  2
DUMMY
 70
    64
  3
ダミー
 72
    65
 73
     0
 40
0.0
  0
LTYPE
  2
RAND1
 70
    64
  3
ランダム線1
 72
    65
 73
     4
 40
10.0
 49
1.0
 49
-2.0
 49
3.0
 49
-4.0
  0
LTYPE
  2
RAND2
 70
    64
  3
ランダム線2
 72
    65
 73
     4
 40
14.0
 49
2.0
 49
-3.0
 49
4.0
 49
-5.0
  0
LTYPE
  2
RAND3
 70
    64
  3
ランダム線3
 72
    65
 73
     4
 40
18.0
 49
3.0
 49
-4.0
 49
5.0
 49
-6.0
  0
LTYPE
  2
RAND4
 70
    64
  3
ランダム線4
 72
    65
 73
     4
 40
22.0
 49
4.0
 49
-5.0
 49
6.0
 49
-7.0
  0
LTYPE
  2
RAND5
 70
    64
  3
ランダム線5
 72
    65
 73
     4
 40
26.0
 49
5.0
 49
-6.0
 49
7.0
 49
-8.0
  0
LTYPE
  2
LONG1
 70
    64
  3
----------  --  ----------  --  
 72
    65
 73
     4
 40
40.0
 49
32.5
 49
-2.5
 49
2.5
 49
-2.5
  0
LTYPE
  2
LONG2
 70
    64
  3
--------  -  -  --------  -  -  
 72
    65
 73
     6
 40
40.0
 49
30.0
 49
-2.5
 49
1.25
 49
-2.5
 49
1.25
 49
-2.5
  0
LTYPE
  2
LONG3
 70
    64
  3
+++++++++++++++..+++++++++++++++
 72
    65
 73
     2
 40
40.0
 49
37.5
 49
-2.5
  0
LTYPE
  2
LONG4
 70
    64
  3
+++++++++++++++..+++++++++++++++
 72
    65
 73
     2
 40
80.0
 49
75.0
 49
-5.0
  0
LTYPE
  2
LONG5
 70
    64
  3
----------  --  ----------  --  
 72
    65
 73
     4
 40
60.0
 49
37.5
 49
-7.5
 49
7.5
 49
-7.5
  0
LTYPE
  2
dashed
 70
   64
  3
-------   -------------   ------
 72
   65
 73
    2
 40
7.5
 49
6
 49
-1.5
  0
LTYPE
  2
dashed_spaced
 70
   64
  3
----        --------        ----
 72
   65
 73
    2
 40
12
 49
6
 49
-6
  0
LTYPE
  2
long_dashed_dotted
 70
   64
  3
------------- --- --------------
 72
   65
 73
    4
 40
15.25
 49
12
 49
-1.5
 49
0.25
 49
-1.5
  0
LTYPE
  2
long_dashed_double-dotted
 70
   64
  3
----------- --- --- ------------
 72
   65
 73
    6
 40
17
 49
12
 49
-1.5
 49
0.25
 49
-1.5
 49
0.25
 49
-1.5
  0
LTYPE
  2
long_dashed_triplicate-dotted
 70
   64
  3
--------- --- --- --- ----------
 72
   65
 73
    8
 40
18.75
 49
12
 49
-1.5
 49
0.25
 49
-1.5
 49
0.25
 49
-1.5
 49
0.25
 49
-1.5
  0
LTYPE
  2
dotted
 70
   64
  3
   -       -       -       -    
 72
   65
 73
    2
 40
1.75
 49
0.25
 49
-1.5
  0
LTYPE
  2
chain
 70
   64
  3
-------------- -- --------------
 72
   65
 73
    4
 40
18.5
 49
12
 49
-1.5
 49
3.5
 49
-1.5
  0
LTYPE
  2
chain_double_dash
 70
   64
  3
------------ -- -- -------------
 72
   65
 73
    6
 40
23.5
 49
12
 49
-1.5
 49
3.5
 49
-1.5
 49
3.5
 49
-1.5
  0
LTYPE
  2
dashed_dotted
 70
   64
  3
-----------     -     ----------
 72
   65
 73
    4
 40
9.25
 49
6
 49
-1.5
 49
0.25
 49
-1.5
  0
LTYPE
  2
double-dashed_dotted
 70
   64
  3
------   -----------   -   -----
 72
   65
 73
    6
 40
16.75
 49
6
 49
-1.5
 49
6
 49
-1.5
 49
0.25
 49
-1.5
  0
LTYPE
  2
dashed_double-dotted
 70
   64
  3
---------    -    -    ---------
 72
   65
 73
    6
 40
11
 49
6
 49
-1.5
 49
0.25
 49
-1.5
 49
0.25
 49
-1.5
  0
LTYPE
  2
double-dashed_double-dotted
 70
   64
  3
-----   ---------   -   -   ----
 72
   65
 73
    8
 40
18.5
 49
6
 49
-1.5
 49
6
 49
-1.5
 49
0.25
 49
-1.5
 49
0.25
 49
-1.5
  0
LTYPE
  2
dashed_triplicate-dotted
 70
   64
  3
-------    -    -    -    ------
 72
   65
 73
    8
 40
12.75
 49
6
 49
-1.5
 49
0.25
 49
-1.5
 49
0.25
 49
-1.5
 49
0.25
 49
-1.5
  0
LTYPE
  2
double-dashed_triplicate-dotted
 70
   64
  3
-----  ---------  -  -  -  -----
 72
   65
 73
   10
 40
20.25
 49
6
 49
-1.5
 49
6
 49
-1.5
 49
0.25
 49
-1.5
 49
0.25
 49
-1.5
 49
0.25
 49
-1.5
  0
LTYPE
  2
undefined
 70
   64
  3
--------------------------------
 72
   65
 73
    0
 40
0
  0
LTYPE
  2
破線-1
 70
   64
  3
----        --------        ----
 72
   65
 73
    2
 40
0.0833279999999999
 49
0.0416559999999999
 49
-0.041672
  0
LTYPE
  2
破線-2
 70
   64
  3
------     -----------     -----
 72
   65
 73
    2
 40
0.1388849999999999
 49
0.0972139999999999
 49
-0.041671
  0
LTYPE
  2
破線-3
 70
   64
  3
-------   -------------   ------
 72
   65
 73
    2
 40
0.25
 49
0.208328
 49
-0.041672
  0
LTYPE
  2
破線-4
 70
   64
  3
-------  --------------  -------
 72
   65
 73
    2
 40
0.3055419999999999
 49
0.2638849999999999
 49
-0.041657
  0
LTYPE
  2
破線-5
 70
   64
  3
---           -----           --
 72
   65
 73
    2
 40
0.0416559999999999
 49
0.013885
 49
-0.027771
  0
LTYPE
  2
破線-6
 70
   64
  3
----------      --    ----------
 72
   65
 73
    4
 40
0.208328
 49
0.125
 49
-0.0416559999999999
 49
0.013886
 49
-0.027786
  0
LTYPE
  2
破線-7
 70
   64
  3
-----    -----------    -  -----
 72
   65
 73
    6
 40
0.375
 49
0.125
 49
-0.0416559999999999
 49
0.125
 49
-0.041672
 49
0.013886
 49
-0.027786
  0
LTYPE
  2
破線-8
 70
   64
  3
--------     --    --    -------
 72
   65
 73
    6
 40
0.25
 49
0.125
 49
-0.0416559999999999
 49
0.013886
 49
-0.027786
 49
0.013886
 49
-0.027786
  0
LTYPE
  2
破線-9
 70
   64
  3
------------  ----  ------------
 72
   65
 73
    4
 40
1
 49
0.75
 49
-0.055557
 49
0.138886
 49
-0.055557
  0
LTYPE
  2
破線-10
 70
   64
  3
----------- ---- ---  ----------
 72
   65
 73
    6
 40
1.1875
 49
0.75
 49
-0.055557
 49
0.138886
 49
-0.055557
 49
0.125
 49
-0.0625
  0
LTYPE
  2
_
 70
   64
  3
                                
 72
   65
 73
    0
 40
0
  0
LTYPE
  2
__28
 70
   64
  3
                                
 72
   65
 73
    0
 40
0
  0
LTYPE
  2
__29
 70
   64
  3
                                
 72
   65
 73
    0
 40
0
  0
LTYPE
  2
__30
 70
   64
  3
                                
 72
   65
 73
    0
 40
0
  0
LTYPE
  2
__31
 70
   64
  3
                                
 72
   65
 73
    0
 40
0
  0
LTYPE
  2
__32
 70
   64
  3
                                
 72
   65
 73
    0
 40
0
  0
ENDTAB
  0
TABLE
  2
STYLE
  5
3
100
AcDbSymbolTable
 70
     1
  0
STYLE
  5
10
100
AcDbSymbolTableRecord
100
AcDbTextStyleTableRecord
  2
STANDARD
 70
     0
 40
0.0
 41
1.0
 50
0.0
 71
     0
 42
0.2
  3
txt
  4
bigfont.shx
  0
STYLE
  5
26
100
AcDbSymbolTableRecord
100
AcDbTextStyleTableRecord
  2
TATEGAKI
 70
    68
 40
0.0
 41
1.0
 50
0.0
 71
     0
 42
1.0
  3
txt
  4
bigfont.shx
  0
ENDTAB
  0
TABLE
  2
LAYER
 70
    5
  0
LAYER
  2
_0-0_0
 70
   64
 62
    7
  6
CONTINUOUS
  0
LAYER
  2
_0-1_用紙枠
 70
   64
 62
    7
  6
CONTINUOUS
  0
LAYER
  2
_0-2_寸法
 70
   64
 62
    7
  6
CONTINUOUS
  0
LAYER
  2
_0-3_tile
 70
   64
 62
    7
  6
CONTINUOUS
  0
LAYER
  2
ADD_LINE
 70
   64
 62
    7
  6
CONTINUOUS
  0
ENDTAB
  0
ENDSEC
  0
SECTION
  2
BLOCKS
  0
BLOCK
  2
-000-_DOT
 70
   64
 10
0
 20
0
 30
0
  0
CIRCLE
  8
_0-0_0
  6
CONTINUOUS
 62
    7
 10
0
 20
0
 40
0.25
  0
CIRCLE
  8
_0-0_0
  6
CONTINUOUS
 62
    7
 10
0
 20
-0
 40
0.25
  0
LINE
  8
_0-0_0
  6
CONTINUOUS
 62
    7
 10
-0.5
 20
0
 11
-1
 21
0
  0
ENDBLK
  0
BLOCK
  2
-001-_D1
 70
   64
 10
0
 20
0
 30
0
  0
LINE
  8
_0-2_寸法
  6
CONTINUOUS
 62
    7
 10
713.0394725994297
 20
1239.7494387088041
 11
713.0394725994297
 21
1300
  0
LINE
  8
_0-2_寸法
  6
CONTINUOUS
 62
    7
 10
-483.96052740057621
 20
1239.749438708805
 11
-483.96052740057621
 21
1300
  0
LINE
  8
_0-2_寸法
  6
CONTINUOUS
 62
    7
 10
708.0320263103672
 20
1295
 11
-478.95308111151371
 21
1295
  0
INSERT
  2
-000-_DOT
  8
_0-2_寸法
 10
713.0394725994297
 20
1295
 41
5.0074462890624991
 42
5.0074462890624991
 50
0
  0
INSERT
  2
-000-_DOT
  8
_0-2_寸法
 10
-483.96052740057621
 20
1295
 41
5.0074462890624991
 42
5.0074462890624991
 50
180
  0
TEXT
  8
_0-2_寸法
 62
    7
 10
90.106855411926702
 20
1300
 40
24.4326171875
 41
1
 50
0
  1
1197
  0
POINT
  8
_0-4_Defpoints
 62
    7
 10
713.0394725994297
 20
1223.849438708804
  0
POINT
  8
_0-4_Defpoints
 62
    7
 10
-483.96052740057621
 20
1223.8494387088051
  0
POINT
  8
_0-4_Defpoints
 62
    7
 10
-483.96052740057621
 20
1295
  0
ENDBLK
  0
BLOCK
  2
-002-_D2
 70
   64
 10
0
 20
0
 30
0
  0
LINE
  8
_0-2_寸法
  6
CONTINUOUS
 62
    7
 10
-502.86052740057443
 20
26.8494387088042
 11
-591.96052740057428
 21
26.8494387088042
  0
LINE
  8
_0-2_寸法
  6
CONTINUOUS
 62
    7
 10
-502.86052740057443
 20
1223.849438708804
 11
-591.96052740057439
 21
1223.849438708804
  0
LINE
  8
_0-2_寸法
  6
CONTINUOUS
 62
    7
 10
-586.96052740057428
 20
31.8568849978667
 11
-586.96052740057439
 21
1218.8419924197419
  0
INSERT
  2
-000-_DOT
  8
_0-2_寸法
 10
-586.96052740057428
 20
26.8494387088042
 41
5.0074462890624991
 42
5.0074462890624991
 50
270
  0
INSERT
  2
-000-_DOT
  8
_0-2_寸法
 10
-586.96052740057439
 20
1223.849438708804
 41
5.0074462890624991
 42
5.0074462890624991
 50
90.000000000000014
  0
TEXT
  8
_0-2_寸法
 62
    7
 10
-591.96052740057439
 20
600.9168215213042
 40
24.4326171875
 41
1
 50
90
  1
1197
  0
POINT
  8
_0-4_Defpoints
 62
    7
 10
-486.96052740057445
 20
26.8494387088042
  0
POINT
  8
_0-4_Defpoints
 62
    7
 10
-486.96052740057445
 20
1223.849438708804
  0
POINT
  8
_0-4_Defpoints
 62
    7
 10
-586.96052740057439
 20
1223.849438708804
  0
ENDBLK
  0
BLOCK
  2
-003-_D3
 70
   64
 10
0
 20
0
 30
0
  0
LINE
  8
_0-2_寸法
  6
CONTINUOUS
 62
    7
 10
-483.96052740057672
 20
10.949438708803861
 11
-483.96052740057672
 21
-85
  0
LINE
  8
_0-2_寸法
  6
CONTINUOUS
 62
    7
 10
-486.96052740057445
 20
7.9494387088048821
 11
-486.96052740057445
 21
-85
  0
LINE
  8
_0-2_寸法
  6
CONTINUOUS
 62
    7
 10
-483.96052740057672
 20
-80
 11
-486.96052740057445
 21
-80
  0
LINE
  8
_0-2_寸法
  6
CONTINUOUS
 62
    7
 10
-478.95308111151422
 20
-80
 11
-473.94563482245172
 21
-80
  0
LINE
  8
_0-2_寸法
  6
CONTINUOUS
 62
    7
 10
-491.96797368963689
 20
-80
 11
-496.97541997869939
 21
-80
  0
INSERT
  2
-000-_DOT
  8
_0-2_寸法
 10
-483.96052740057672
 20
-80
 41
5.0074462890624991
 42
5.0074462890624991
 50
180
  0
INSERT
  2
-000-_DOT
  8
_0-2_寸法
 10
-486.96052740057445
 20
-80
 41
5.0074462890624991
 42
5.0074462890624991
 50
0
  0
TEXT
  8
_0-2_寸法
 62
    7
 10
-491.56868169745042
 20
-75
 40
24.4326171875
 41
1
 50
0
  1
3
  0
POINT
  8
_0-4_Defpoints
 62
    7
 10
-483.96052740057672
 20
26.849438708803859
  0
POINT
  8
_0-4_Defpoints
 62
    7
 10
-486.96052740057445
 20
23.849438708804879
  0
POINT
  8
_0-4_Defpoints
 62
    7
 10
-486.96052740057445
 20
-80
  0
ENDBLK
  0
BLOCK
  2
-004-_D4
 70
   64
 10
0
 20
0
 30
0
  0
LINE
  8
_0-2_寸法
  6
CONTINUOUS
 62
    7
 10
-407.96052740057712
 20
10.949438708805109
 11
-407.96052740057712
 21
-85
  0
LINE
  8
_0-2_寸法
  6
CONTINUOUS
 62
    7
 10
-410.96052740057439
 20
10.949438708805109
 11
-410.96052740057439
 21
-85
  0
LINE
  8
_0-2_寸法
  6
CONTINUOUS
 62
    7
 10
-407.96052740057712
 20
-80
 11
-410.96052740057439
 21
-80
  0
LINE
  8
_0-2_寸法
  6
CONTINUOUS
 62
    7
 10
-402.95308111151462
 20
-80
 11
-397.94563482245212
 21
-80
  0
LINE
  8
_0-2_寸法
  6
CONTINUOUS
 62
    7
 10
-415.96797368963689
 20
-80
 11
-420.97541997869939
 21
-80
  0
INSERT
  2
-000-_DOT
  8
_0-2_寸法
 10
-407.96052740057712
 20
-80
 41
5.0074462890624991
 42
5.0074462890624991
 50
180
  0
INSERT
  2
-000-_DOT
  8
_0-2_寸法
 10
-410.96052740057439
 20
-80
 41
5.0074462890624991
 42
5.0074462890624991
 50
0
  0
TEXT
  8
_0-2_寸法
 62
    7
 10
-415.56868169745081
 20
-75
 40
24.4326171875
 41
1
 50
0
  1
3
  0
POINT
  8
_0-4_Defpoints
 62
    7
 10
-407.96052740057712
 20
26.84943870880511
  0
POINT
  8
_0-4_Defpoints
 62
    7
 10
-410.96052740057439
 20
26.84943870880511
  0
POINT
  8
_0-4_Defpoints
 62
    7
 10
-410.96052740057439
 20
-80
  0
ENDBLK
  0
BLOCK
  2
-005-_D5
 70
   64
 10
0
 20
0
 30
0
  0
LINE
  8
_0-2_寸法
  6
CONTINUOUS
 62
    7
 10
-186.96052740057351
 20
65.503556526250264
 11
-186.96052740057351
 21
54.603556526250259
  0
LINE
  8
_0-2_寸法
  6
CONTINUOUS
 62
    7
 10
-407.96052740057712
 20
65.503556526250264
 11
-407.96052740057712
 21
54.603556526250259
  0
LINE
  8
_0-2_寸法
  6
CONTINUOUS
 62
    7
 10
-191.96797368963601
 20
49.603556526250259
 11
-402.95308111151462
 21
49.603556526250259
  0
INSERT
  2
-000-_DOT
  8
_0-2_寸法
 10
-186.96052740057351
 20
49.603556526250259
 41
5.0074462890624991
 42
5.0074462890624991
 50
0
  0
INSERT
  2
-000-_DOT
  8
_0-2_寸法
 10
-407.96052740057712
 20
49.603556526250259
 41
5.0074462890624991
 42
5.0074462890624991
 50
180
  0
TEXT
  8
_0-2_寸法
 62
    7
 10
-315.7849902912003
 20
54.603556526250259
 40
24.4326171875
 41
1
 50
0
  1
221
  0
POINT
  8
_0-4_Defpoints
 62
    7
 10
-186.96052740057351
 20
49.603556526250259
  0
POINT
  8
_0-4_Defpoints
 62
    7
 10
-407.96052740057712
 20
49.603556526250259
  0
POINT
  8
_0-4_Defpoints
 62
    7
 10
-407.96052740057712
 20
49.603556526250259
  0
ENDBLK
  0
BLOCK
  2
-006-_D6
 70
   64
 10
0
 20
0
 30
0
  0
LINE
  8
_0-2_寸法
  6
CONTINUOUS
 62
    7
 10
-332.16738181122179
 20
102.8494387088048
 11
-343.06738181122182
 21
102.8494387088048
  0
LINE
  8
_0-2_寸法
  6
CONTINUOUS
 62
    7
 10
-332.16738181122179
 20
252.84943870880642
 11
-343.06738181122182
 21
252.84943870880642
  0
LINE
  8
_0-2_寸法
  6
CONTINUOUS
 62
    7
 10
-348.06738181122182
 20
107.8568849978673
 11
-348.06738181122182
 21
247.84199241974386
  0
INSERT
  2
-000-_DOT
  8
_0-2_寸法
 10
-348.06738181122182
 20
102.8494387088048
 41
5.0074462890624991
 42
5.0074462890624991
 50
270
  0
INSERT
  2
-000-_DOT
  8
_0-2_寸法
 10
-348.06738181122182
 20
252.84943870880642
 41
5.0074462890624991
 42
5.0074462890624991
 50
90
  0
TEXT
  8
_0-2_寸法
 62
    7
 10
-353.06738181122182
 20
159.52497581818059
 40
24.4326171875
 41
1
 50
90
  1
150
  0
POINT
  8
_0-4_Defpoints
 62
    7
 10
-348.06738181122182
 20
102.8494387088048
  0
POINT
  8
_0-4_Defpoints
 62
    7
 10
-348.06738181122182
 20
252.84943870880642
  0
POINT
  8
_0-4_Defpoints
 62
    7
 10
-348.06738181122182
 20
252.84943870880642
  0
ENDBLK
  0
BLOCK
  2
-007-_D7
 70
   64
 10
0
 20
0
 30
0
  0
LINE
  8
_0-2_寸法
  6
CONTINUOUS
 62
    7
 10
-332.16738181122179
 20
255.84943870880932
 11
-342.91107906365511
 21
255.84943870880733
  0
LINE
  8
_0-2_寸法
  6
CONTINUOUS
 62
    7
 10
-332.01107906365507
 20
473.8494387088079
 11
-342.91107906365511
 21
473.84943870880591
  0
LINE
  8
_0-2_寸法
  6
CONTINUOUS
 62
    7
 10
-347.91107906365511
 20
260.85688499786892
 11
-347.91107906365511
 21
468.8419924197425
  0
INSERT
  2
-000-_DOT
  8
_0-2_寸法
 10
-347.91107906365511
 20
255.84943870880636
 41
5.0074462890624991
 42
5.0074462890624991
 50
270
  0
INSERT
  2
-000-_DOT
  8
_0-2_寸法
 10
-347.91107906365511
 20
473.849438708805
 41
5.0074462890624991
 42
5.0074462890624991
 50
90
  0
TEXT
  8
_0-2_寸法
 62
    7
 10
-352.91107906365511
 20
346.52497581818062
 40
24.4326171875
 41
1
 50
90
  1
218
  0
POINT
  8
_0-4_Defpoints
 62
    7
 10
-348.06738181122182
 20
255.84943870880636
  0
POINT
  8
_0-4_Defpoints
 62
    7
 10
-347.91107906365511
 20
473.849438708805
  0
POINT
  8
_0-4_Defpoints
 62
    7
 10
-347.91107906365511
 20
473.849438708805
  0
ENDBLK
  0
ENDSEC
  0
SECTION
  2
ENTITIES
  0
LINE
  8
_0-1_用紙枠
  6
CONTINUOUS
 62
    7
 10
35
 20
2036.4696969697018
 11
2905
 21
2036.4696969697018
  0
LINE
  8
_0-1_用紙枠
  6
CONTINUOUS
 62
    7
 10
2905
 20
2036.4696969697018
 11
2905
 21
42.53030303029837
  0
LINE
  8
_0-1_用紙枠
  6
CONTINUOUS
 62
    7
 10
2905
 20
42.53030303029837
 11
35
 21
42.53030303029837
  0
LINE
  8
_0-1_用紙枠
  6
CONTINUOUS
 62
    7
 10
35
 20
42.53030303029837
 11
35
 21
2036.4696969697018
  0
LINE
  8
_0-1_用紙枠
  6
CONTINUOUS
 62
    7
 10
35
 20
192.5303030302984
 11
2905
 21
192.5303030302984
  0
LINE
  8
_0-1_用紙枠
  6
CONTINUOUS
 62
    7
 10
783.86400732844777
 20
192.5303030302984
 11
783.86400732844777
 21
42.53030303029837
  0
LINE
  8
_0-1_用紙枠
  6
CONTINUOUS
 62
    7
 10
783.86400732844777
 20
117.53030303029843
 11
1213.8640073284478
 21
117.53030303029843
  0
LINE
  8
_0-1_用紙枠
  6
CONTINUOUS
 62
    7
 10
1213.8640073284478
 20
192.5303030302984
 11
1213.8640073284478
 21
42.53030303029837
  0
TEXT
  8
_0-1_用紙枠
 62
    7
 10
1253.8640073284478
 20
92.41555693654837
 40
27.147352430555561
 41
1
 50
0
  1
必要枚数：43.9枚/㎡　入数：26枚/箱
  0
INSERT
  2
-001-_D1
  8
_0-2_寸法
 10
802.88640073284478
 20
411.13170137622768
 41
1
 42
1
 50
0
  0
INSERT
  2
-002-_D2
  8
_0-2_寸法
 10
802.88640073284478
 20
411.13170137622768
 41
1
 42
1
 50
0
  0
INSERT
  2
-003-_D3
  8
_0-2_寸法
 10
802.88640073284478
 20
411.13170137622768
 41
1
 42
1
 50
0
  0
INSERT
  2
-004-_D4
  8
_0-2_寸法
 10
802.88640073284478
 20
411.13170137622768
 41
1
 42
1
 50
0
  0
INSERT
  2
-005-_D5
  8
_0-2_寸法
 10
802.88640073284478
 20
411.13170137622768
 41
1
 42
1
 50
0
  0
INSERT
  2
-006-_D6
  8
_0-2_寸法
 10
802.88640073284478
 20
411.13170137622768
 41
1
 42
1
 50
0
  0
INSERT
  2
-007-_D7
  8
_0-2_寸法
 10
802.88640073284478
 20
411.13170137622768
 41
1
 42
1
 50
0
  0
LINE
  8
_0-3_tile
  6
CONTINUOUS
 62
    7
 10
394.92587333226766
 20
1634.9811400850331
 11
615.92587333227129
 21
1634.9811400850331
  0
LINE
  8
_0-3_tile
  6
CONTINUOUS
 62
    7
 10
615.92587333227129
 20
1634.9811400850331
 11
615.92587333227129
 21
1561.9811400850328
  0
LINE
  8
_0-3_tile
  6
CONTINUOUS
 62
    7
 10
615.92587333227129
 20
1561.9811400850328
 11
394.92587333226766
 21
1561.9811400850328
  0
LINE
  8
_0-3_tile
  6
CONTINUOUS
 62
    7
 10
394.92587333226766
 20
1561.9811400850328
 11
394.92587333226766
 21
1634.9811400850331
  0
LINE
  8
_0-3_tile
  6
CONTINUOUS
 62
    7
 10
618.92587333228221
 20
1634.9811400850317
 11
915.92587333227391
 21
1634.9811400850317
  0
LINE
  8
_0-3_tile
  6
CONTINUOUS
 62
    7
 10
915.92587333227391
 20
1634.9811400850317
 11
915.92587333227391
 21
1561.9811400850328
  0
LINE
  8
_0-3_tile
  6
CONTINUOUS
 62
    7
 10
915.92587333227391
 20
1561.9811400850328
 11
618.92587333228221
 21
1561.9811400850328
  0
LINE
  8
_0-3_tile
  6
CONTINUOUS
 62
    7
 10
618.92587333228221
 20
1561.9811400850328
 11
618.92587333228221
 21
1634.9811400850317
  0
LINE
  8
_0-3_tile
  6
CONTINUOUS
 62
    7
 10
1218.9258733322713
 20
1634.9811400850331
 11
1439.9258733322749
 21
1634.9811400850331
  0
LINE
  8
_0-3_tile
  6
CONTINUOUS
 62
    7
 10
1439.9258733322749
 20
1634.9811400850331
 11
1439.9258733322749
 21
1561.9811400850328
  0
LINE
  8
_0-3_tile
  6
CONTINUOUS
 62
    7
 10
1439.9258733322749
 20
1561.9811400850328
 11
1218.9258733322713
 21
1561.9811400850328
  0
LINE
  8
_0-3_tile
  6
CONTINUOUS
 62
    7
 10
1218.9258733322713
 20
1561.9811400850328
 11
1218.9258733322713
 21
1634.9811400850331
  0
LINE
  8
_0-3_tile
  6
CONTINUOUS
 62
    7
 10
918.92587333226845
 20
1634.9811400850317
 11
1215.9258733322604
 21
1634.9811400850317
  0
LINE
  8
_0-3_tile
  6
CONTINUOUS
 62
    7
 10
1215.9258733322604
 20
1634.9811400850317
 11
1215.9258733322604
 21
1561.9811400850328
  0
LINE
  8
_0-3_tile
  6
CONTINUOUS
 62
    7
 10
1215.9258733322604
 20
1561.9811400850328
 11
918.92587333226845
 21
1561.9811400850328
  0
LINE
  8
_0-3_tile
  6
CONTINUOUS
 62
    7
 10
918.92587333226845
 20
1561.9811400850328
 11
918.92587333226845
 21
1634.9811400850317
  0
LINE
  8
_0-3_tile
  6
CONTINUOUS
 62
    7
 10
1442.925873332269
 20
1634.9811400850317
 11
1515.9258733322745
 21
1634.9811400850317
  0
LINE
  8
_0-3_tile
  6
CONTINUOUS
 62
    7
 10
1515.9258733322745
 20
1634.9811400850317
 11
1515.9258733322745
 21
1337.9811400850317
  0
LINE
  8
_0-3_tile
  6
CONTINUOUS
 62
    7
 10
1515.9258733322745
 20
1337.9811400850317
 11
1442.925873332269
 21
1337.9811400850317
  0
LINE
  8
_0-3_tile
  6
CONTINUOUS
 62
    7
 10
1442.925873332269
 20
1337.9811400850317
 11
1442.925873332269
 21
1634.9811400850317
  0
LINE
  8
_0-3_tile
  6
CONTINUOUS
 62
    7
 10
1442.925873332269
 20
1334.9811400850319
 11
1515.9258733322745
 21
1334.9811400850319
  0
LINE
  8
_0-3_tile
  6
CONTINUOUS
 62
    7
 10
1515.9258733322745
 20
1334.9811400850319
 11
1515.9258733322745
 21
1037.9811400850317
  0
LINE
  8
_0-3_tile
  6
CONTINUOUS
 62
    7
 10
1515.9258733322745
 20
1037.9811400850317
 11
1442.925873332269
 21
1037.9811400850317
  0
LINE
  8
_0-3_tile
  6
CONTINUOUS
 62
    7
 10
1442.925873332269
 20
1037.9811400850317
 11
1442.925873332269
 21
1334.9811400850319
  0
LINE
  8
_0-3_tile
  6
CONTINUOUS
 62
    7
 10
1442.925873332269
 20
1034.9811400850319
 11
1515.9258733322745
 21
1034.9811400850319
  0
LINE
  8
_0-3_tile
  6
CONTINUOUS
 62
    7
 10
1515.9258733322745
 20
1034.9811400850319
 11
1515.9258733322745
 21
737.9811400850316
  0
LINE
  8
_0-3_tile
  6
CONTINUOUS
 62
    7
 10
1515.9258733322745
 20
737.9811400850316
 11
1442.925873332269
 21
737.9811400850316
  0
LINE
  8
_0-3_tile
  6
CONTINUOUS
 62
    7
 10
1442.925873332269
 20
737.9811400850316
 11
1442.925873332269
 21
1034.9811400850319
  0
LINE
  8
_0-3_tile
  6
CONTINUOUS
 62
    7
 10
1442.925873332269
 20
734.98114008503194
 11
1515.9258733322745
 21
734.98114008503194
  0
LINE
  8
_0-3_tile
  6
CONTINUOUS
 62
    7
 10
1515.9258733322745
 20
734.98114008503194
 11
1515.9258733322745
 21
437.9811400850316
  0
LINE
  8
_0-3_tile
  6
CONTINUOUS
 62
    7
 10
1515.9258733322745
 20
437.9811400850316
 11
1442.925873332269
 21
437.9811400850316
  0
LINE
  8
_0-3_tile
  6
CONTINUOUS
 62
    7
 10
1442.925873332269
 20
437.9811400850316
 11
1442.925873332269
 21
734.98114008503194
  0
LINE
  8
_0-3_tile
  6
CONTINUOUS
 62
    7
 10
318.92587333226822
 20
1634.9811400850317
 11
391.92587333227345
 21
1634.9811400850317
  0
LINE
  8
_0-3_tile
  6
CONTINUOUS
 62
    7
 10
391.92587333227345
 20
1634.9811400850317
 11
391.92587333227345
 21
1337.9811400850317
  0
LINE
  8
_0-3_tile
  6
CONTINUOUS
 62
    7
 10
391.92587333227345
 20
1337.9811400850317
 11
318.92587333226822
 21
1337.9811400850317
  0
LINE
  8
_0-3_tile
  6
CONTINUOUS
 62
    7
 10
318.92587333226822
 20
1337.9811400850317
 11
318.92587333226822
 21
1634.9811400850317
  0
LINE
  8
_0-3_tile
  6
CONTINUOUS
 62
    7
 10
318.92587333226822
 20
1334.9811400850319
 11
391.92587333227345
 21
1334.9811400850319
  0
LINE
  8
_0-3_tile
  6
CONTINUOUS
 62
    7
 10
391.92587333227345
 20
1334.9811400850319
 11
391.92587333227345
 21
1037.9811400850317
  0
LINE
  8
_0-3_tile
  6
CONTINUOUS
 62
    7
 10
391.92587333227345
 20
1037.9811400850317
 11
318.92587333226822
 21
1037.9811400850317
  0
LINE
  8
_0-3_tile
  6
CONTINUOUS
 62
    7
 10
318.92587333226822
 20
1037.9811400850317
 11
318.92587333226822
 21
1334.9811400850319
  0
LINE
  8
_0-3_tile
  6
CONTINUOUS
 62
    7
 10
318.92587333226822
 20
1034.9811400850319
 11
391.92587333227345
 21
1034.9811400850319
  0
LINE
  8
_0-3_tile
  6
CONTINUOUS
 62
    7
 10
391.92587333227345
 20
1034.9811400850319
 11
391.92587333227345
 21
737.9811400850316
  0
LINE
  8
_0-3_tile
  6
CONTINUOUS
 62
    7
 10
391.92587333227345
 20
737.9811400850316
 11
318.92587333226822
 21
737.9811400850316
  0
LINE
  8
_0-3_tile
  6
CONTINUOUS
 62
    7
 10
318.92587333226822
 20
737.9811400850316
 11
318.92587333226822
 21
1034.9811400850319
  0
LINE
  8
_0-3_tile
  6
CONTINUOUS
 62
    7
 10
318.92587333226822
 20
734.98114008503194
 11
391.92587333227345
 21
734.98114008503194
  0
LINE
  8
_0-3_tile
  6
CONTINUOUS
 62
    7
 10
391.92587333227345
 20
734.98114008503194
 11
391.92587333227345
 21
437.9811400850316
  0
LINE
  8
_0-3_tile
  6
CONTINUOUS
 62
    7
 10
391.92587333227345
 20
437.9811400850316
 11
318.92587333226822
 21
437.9811400850316
  0
LINE
  8
_0-3_tile
  6
CONTINUOUS
 62
    7
 10
318.92587333226822
 20
437.9811400850316
 11
318.92587333226822
 21
734.98114008503194
  0
LINE
  8
_0-3_tile
  6
CONTINUOUS
 62
    7
 10
394.92587333226766
 20
1558.9811400850338
 11
467.92587333226953
 21
1558.9811400850338
  0
LINE
  8
_0-3_tile
  6
CONTINUOUS
 62
    7
 10
467.92587333226953
 20
1558.9811400850338
 11
467.92587333226953
 21
1408.9811400850319
  0
LINE
  8
_0-3_tile
  6
CONTINUOUS
 62
    7
 10
467.92587333226953
 20
1408.9811400850319
 11
394.92587333226766
 21
1408.9811400850319
  0
LINE
  8
_0-3_tile
  6
CONTINUOUS
 62
    7
 10
394.92587333226766
 20
1408.9811400850319
 11
394.92587333226766
 21
1558.9811400850338
  0
LINE
  8
_0-3_tile
  6
CONTINUOUS
 62
    7
 10
394.92587333226766
 20
1405.9811400850317
 11
467.92587333226953
 21
1405.9811400850317
  0
LINE
  8
_0-3_tile
  6
CONTINUOUS
 62
    7
 10
467.92587333226953
 20
1405.9811400850317
 11
467.92587333226953
 21
1187.9811400850328
  0
LINE
  8
_0-3_tile
  6
CONTINUOUS
 62
    7
 10
467.92587333226953
 20
1187.9811400850328
 11
394.92587333226766
 21
1187.9811400850328
  0
LINE
  8
_0-3_tile
  6
CONTINUOUS
 62
    7
 10
394.92587333226766
 20
1187.9811400850328
 11
394.92587333226766
 21
1405.9811400850317
  0
LINE
  8
_0-3_tile
  6
CONTINUOUS
 62
    7
 10
394.92587333226766
 20
1184.9811400850328
 11
467.92587333226953
 21
1184.9811400850328
  0
LINE
  8
_0-3_tile
  6
CONTINUOUS
 62
    7
 10
467.92587333226953
 20
1184.9811400850328
 11
467.92587333226953
 21
887.98114008503285
  0
LINE
  8
_0-3_tile
  6
CONTINUOUS
 62
    7
 10
467.92587333226953
 20
887.98114008503285
 11
394.92587333226766
 21
887.98114008503285
  0
LINE
  8
_0-3_tile
  6
CONTINUOUS
 62
    7
 10
394.92587333226766
 20
887.98114008503285
 11
394.92587333226766
 21
1184.9811400850328
  0
LINE
  8
_0-3_tile
  6
CONTINUOUS
 62
    7
 10
394.92587333226766
 20
884.98114008503342
 11
467.92587333226953
 21
884.98114008503342
  0
LINE
  8
_0-3_tile
  6
CONTINUOUS
 62
    7
 10
467.92587333226953
 20
884.98114008503342
 11
467.92587333226953
 21
666.9811400850341
  0
LINE
  8
_0-3_tile
  6
CONTINUOUS
 62
    7
 10
467.92587333226953
 20
666.9811400850341
 11
394.92587333226766
 21
666.9811400850341
  0
LINE
  8
_0-3_tile
  6
CONTINUOUS
 62
    7
 10
394.92587333226766
 20
666.9811400850341
 11
394.92587333226766
 21
884.98114008503342
  0
LINE
  8
_0-3_tile
  6
CONTINUOUS
 62
    7
 10
394.92587333226766
 20
663.9811400850341
 11
467.92587333226953
 21
663.9811400850341
  0
LINE
  8
_0-3_tile
  6
CONTINUOUS
 62
    7
 10
467.92587333226953
 20
663.9811400850341
 11
467.92587333226953
 21
513.98114008503251
  0
LINE
  8
_0-3_tile
  6
CONTINUOUS
 62
    7
 10
467.92587333226953
 20
513.98114008503251
 11
394.92587333226766
 21
513.98114008503251
  0
LINE
  8
_0-3_tile
  6
CONTINUOUS
 62
    7
 10
394.92587333226766
 20
513.98114008503251
 11
394.92587333226766
 21
663.9811400850341
  0
LINE
  8
_0-3_tile
  6
CONTINUOUS
 62
    7
 10
394.92587333226766
 20
510.98114008503256
 11
615.92587333227129
 21
510.98114008503256
  0
LINE
  8
_0-3_tile
  6
CONTINUOUS
 62
    7
 10
615.92587333227129
 20
510.98114008503256
 11
615.92587333227129
 21
437.98114008503285
  0
LINE
  8
_0-3_tile
  6
CONTINUOUS
 62
    7
 10
615.92587333227129
 20
437.98114008503285
 11
394.92587333226766
 21
437.98114008503285
  0
LINE
  8
_0-3_tile
  6
CONTINUOUS
 62
    7
 10
394.92587333226766
 20
437.98114008503285
 11
394.92587333226766
 21
510.98114008503256
  0
LINE
  8
_0-3_tile
  6
CONTINUOUS
 62
    7
 10
618.92587333228221
 20
510.98114008503097
 11
915.92587333227391
 21
510.98114008503097
  0
LINE
  8
_0-3_tile
  6
CONTINUOUS
 62
    7
 10
915.92587333227391
 20
510.98114008503097
 11
915.92587333227391
 21
437.98114008503148
  0
LINE
  8
_0-3_tile
  6
CONTINUOUS
 62
    7
 10
915.92587333227391
 20
437.98114008503148
 11
618.92587333228221
 21
437.98114008503148
  0
LINE
  8
_0-3_tile
  6
CONTINUOUS
 62
    7
 10
618.92587333228221
 20
437.98114008503148
 11
618.92587333228221
 21
510.98114008503097
  0
LINE
  8
_0-3_tile
  6
CONTINUOUS
 62
    7
 10
1218.9258733322713
 20
510.98114008503171
 11
1439.9258733322749
 21
510.98114008503171
  0
LINE
  8
_0-3_tile
  6
CONTINUOUS
 62
    7
 10
1439.9258733322749
 20
510.98114008503171
 11
1439.9258733322749
 21
437.98114008503217
  0
LINE
  8
_0-3_tile
  6
CONTINUOUS
 62
    7
 10
1439.9258733322749
 20
437.98114008503217
 11
1218.9258733322713
 21
437.98114008503217
  0
LINE
  8
_0-3_tile
  6
CONTINUOUS
 62
    7
 10
1218.9258733322713
 20
437.98114008503217
 11
1218.9258733322713
 21
510.98114008503171
  0
LINE
  8
_0-3_tile
  6
CONTINUOUS
 62
    7
 10
918.92587333226845
 20
510.98114008503097
 11
1215.9258733322604
 21
510.98114008503097
  0
LINE
  8
_0-3_tile
  6
CONTINUOUS
 62
    7
 10
1215.9258733322604
 20
510.98114008503097
 11
1215.9258733322604
 21
437.98114008503148
  0
LINE
  8
_0-3_tile
  6
CONTINUOUS
 62
    7
 10
1215.9258733322604
 20
437.98114008503148
 11
918.92587333226845
 21
437.98114008503148
  0
LINE
  8
_0-3_tile
  6
CONTINUOUS
 62
    7
 10
918.92587333226845
 20
437.98114008503148
 11
918.92587333226845
 21
510.98114008503097
  0
LINE
  8
_0-3_tile
  6
CONTINUOUS
 62
    7
 10
1366.9258733322731
 20
1558.9811400850338
 11
1439.9258733322749
 21
1558.9811400850338
  0
LINE
  8
_0-3_tile
  6
CONTINUOUS
 62
    7
 10
1439.9258733322749
 20
1558.9811400850338
 11
1439.9258733322749
 21
1408.9811400850319
  0
LINE
  8
_0-3_tile
  6
CONTINUOUS
 62
    7
 10
1439.9258733322749
 20
1408.9811400850319
 11
1366.9258733322731
 21
1408.9811400850319
  0
LINE
  8
_0-3_tile
  6
CONTINUOUS
 62
    7
 10
1366.9258733322731
 20
1408.9811400850319
 11
1366.9258733322731
 21
1558.9811400850338
  0
LINE
  8
_0-3_tile
  6
CONTINUOUS
 62
    7
 10
1366.9258733322731
 20
1405.9811400850317
 11
1439.9258733322749
 21
1405.9811400850317
  0
LINE
  8
_0-3_tile
  6
CONTINUOUS
 62
    7
 10
1439.9258733322749
 20
1405.9811400850317
 11
1439.9258733322749
 21
1187.9811400850328
  0
LINE
  8
_0-3_tile
  6
CONTINUOUS
 62
    7
 10
1439.9258733322749
 20
1187.9811400850328
 11
1366.9258733322731
 21
1187.9811400850328
  0
LINE
  8
_0-3_tile
  6
CONTINUOUS
 62
    7
 10
1366.9258733322731
 20
1187.9811400850328
 11
1366.9258733322731
 21
1405.9811400850317
  0
LINE
  8
_0-3_tile
  6
CONTINUOUS
 62
    7
 10
1366.9258733322731
 20
1184.9811400850328
 11
1439.9258733322749
 21
1184.9811400850328
  0
LINE
  8
_0-3_tile
  6
CONTINUOUS
 62
    7
 10
1439.9258733322749
 20
1184.9811400850328
 11
1439.9258733322749
 21
887.98114008503285
  0
LINE
  8
_0-3_tile
  6
CONTINUOUS
 62
    7
 10
1439.9258733322749
 20
887.98114008503285
 11
1366.9258733322731
 21
887.98114008503285
  0
LINE
  8
_0-3_tile
  6
CONTINUOUS
 62
    7
 10
1366.9258733322731
 20
887.98114008503285
 11
1366.9258733322731
 21
1184.9811400850328
  0
LINE
  8
_0-3_tile
  6
CONTINUOUS
 62
    7
 10
1366.9258733322731
 20
884.98114008503342
 11
1439.9258733322749
 21
884.98114008503342
  0
LINE
  8
_0-3_tile
  6
CONTINUOUS
 62
    7
 10
1439.9258733322749
 20
884.98114008503342
 11
1439.9258733322749
 21
666.9811400850341
  0
LINE
  8
_0-3_tile
  6
CONTINUOUS
 62
    7
 10
1439.9258733322749
 20
666.9811400850341
 11
1366.9258733322731
 21
666.9811400850341
  0
LINE
  8
_0-3_tile
  6
CONTINUOUS
 62
    7
 10
1366.9258733322731
 20
666.9811400850341
 11
1366.9258733322731
 21
884.98114008503342
  0
LINE
  8
_0-3_tile
  6
CONTINUOUS
 62
    7
 10
1366.9258733322731
 20
663.9811400850341
 11
1439.9258733322749
 21
663.9811400850341
  0
LINE
  8
_0-3_tile
  6
CONTINUOUS
 62
    7
 10
1439.9258733322749
 20
663.9811400850341
 11
1439.9258733322749
 21
513.98114008503251
  0
LINE
  8
_0-3_tile
  6
CONTINUOUS
 62
    7
 10
1439.9258733322749
 20
513.98114008503251
 11
1366.9258733322731
 21
513.98114008503251
  0
LINE
  8
_0-3_tile
  6
CONTINUOUS
 62
    7
 10
1366.9258733322731
 20
513.98114008503251
 11
1366.9258733322731
 21
663.9811400850341
  0
LINE
  8
_0-3_tile
  6
CONTINUOUS
 62
    7
 10
315.9258733322705
 20
1637.9811400850328
 11
1518.9258733322717
 21
1637.9811400850328
  0
LINE
  8
_0-3_tile
  6
CONTINUOUS
 62
    7
 10
1518.9258733322717
 20
1637.9811400850328
 11
1518.9258733322717
 21
434.98114008503262
  0
LINE
  8
_0-3_tile
  6
CONTINUOUS
 62
    7
 10
1518.9258733322717
 20
434.98114008503262
 11
315.9258733322705
 21
434.98114008503262
  0
LINE
  8
_0-3_tile
  6
CONTINUOUS
 62
    7
 10
315.9258733322705
 20
434.98114008503262
 11
315.9258733322705
 21
1637.9811400850328
  0
LINE
  8
_0-3_tile
  6
CONTINUOUS
 62
    7
 10
768.9258733322813
 20
1558.9811400850338
 11
1065.9258733322731
 21
1558.9811400850338
  0
LINE
  8
_0-3_tile
  6
CONTINUOUS
 62
    7
 10
1065.9258733322731
 20
1558.9811400850338
 11
1065.9258733322731
 21
1485.9811400850338
  0
LINE
  8
_0-3_tile
  6
CONTINUOUS
 62
    7
 10
1065.9258733322731
 20
1485.9811400850338
 11
768.9258733322813
 21
1485.9811400850338
  0
LINE
  8
_0-3_tile
  6
CONTINUOUS
 62
    7
 10
768.9258733322813
 20
1485.9811400850338
 11
768.9258733322813
 21
1558.9811400850338
  0
LINE
  8
_0-3_tile
  6
CONTINUOUS
 62
    7
 10
470.92587333227044
 20
1558.9811400850338
 11
765.92587333227038
 21
1558.9811400850338
  0
LINE
  8
_0-3_tile
  6
CONTINUOUS
 62
    7
 10
765.92587333227038
 20
1558.9811400850338
 11
765.92587333227038
 21
1485.9811400850338
  0
LINE
  8
_0-3_tile
  6
CONTINUOUS
 62
    7
 10
765.92587333227038
 20
1485.9811400850338
 11
470.92587333227044
 21
1485.9811400850338
  0
LINE
  8
_0-3_tile
  6
CONTINUOUS
 62
    7
 10
470.92587333227044
 20
1485.9811400850338
 11
470.92587333227044
 21
1558.9811400850338
  0
LINE
  8
_0-3_tile
  6
CONTINUOUS
 62
    7
 10
1068.9258733322818
 20
1558.9811400850338
 11
1363.9258733322827
 21
1558.9811400850338
  0
LINE
  8
_0-3_tile
  6
CONTINUOUS
 62
    7
 10
1363.9258733322827
 20
1558.9811400850338
 11
1363.9258733322827
 21
1485.9811400850338
  0
LINE
  8
_0-3_tile
  6
CONTINUOUS
 62
    7
 10
1363.9258733322827
 20
1485.9811400850338
 11
1068.9258733322818
 21
1485.9811400850338
  0
LINE
  8
_0-3_tile
  6
CONTINUOUS
 62
    7
 10
1068.9258733322818
 20
1485.9811400850338
 11
1068.9258733322818
 21
1558.9811400850338
  0
LINE
  8
_0-3_tile
  6
CONTINUOUS
 62
    7
 10
768.9258733322813
 20
586.9811400850316
 11
1065.9258733322731
 21
586.9811400850316
  0
LINE
  8
_0-3_tile
  6
CONTINUOUS
 62
    7
 10
1065.9258733322731
 20
586.9811400850316
 11
1065.9258733322731
 21
513.98114008503205
  0
LINE
  8
_0-3_tile
  6
CONTINUOUS
 62
    7
 10
1065.9258733322731
 20
513.98114008503205
 11
768.9258733322813
 21
513.98114008503205
  0
LINE
  8
_0-3_tile
  6
CONTINUOUS
 62
    7
 10
768.9258733322813
 20
513.98114008503205
 11
768.9258733322813
 21
586.9811400850316
  0
LINE
  8
_0-3_tile
  6
CONTINUOUS
 62
    7
 10
470.92587333227044
 20
586.9811400850316
 11
765.92587333227038
 21
586.9811400850316
  0
LINE
  8
_0-3_tile
  6
CONTINUOUS
 62
    7
 10
765.92587333227038
 20
586.9811400850316
 11
765.92587333227038
 21
513.98114008503205
  0
LINE
  8
_0-3_tile
  6
CONTINUOUS
 62
    7
 10
765.92587333227038
 20
513.98114008503205
 11
470.92587333227044
 21
513.98114008503205
  0
LINE
  8
_0-3_tile
  6
CONTINUOUS
 62
    7
 10
470.92587333227044
 20
513.98114008503205
 11
470.92587333227044
 21
586.9811400850316
  0
LINE
  8
_0-3_tile
  6
CONTINUOUS
 62
    7
 10
1068.9258733322818
 20
586.9811400850316
 11
1363.9258733322827
 21
586.9811400850316
  0
LINE
  8
_0-3_tile
  6
CONTINUOUS
 62
    7
 10
1363.9258733322827
 20
586.9811400850316
 11
1363.9258733322827
 21
513.98114008503205
  0
LINE
  8
_0-3_tile
  6
CONTINUOUS
 62
    7
 10
1363.9258733322827
 20
513.98114008503205
 11
1068.9258733322818
 21
513.98114008503205
  0
LINE
  8
_0-3_tile
  6
CONTINUOUS
 62
    7
 10
1068.9258733322818
 20
513.98114008503205
 11
1068.9258733322818
 21
586.9811400850316
  0
LINE
  8
_0-3_tile
  6
CONTINUOUS
 62
    7
 10
716.53168283667753
 20
589.9811400850341
 11
747.79611048610423
 21
589.9811400850341
  0
LINE
  8
_0-3_tile
  6
CONTINUOUS
 62
    7
 10
747.79611048610423
 20
589.9811400850341
 11
942.17461067378986
 21
784.35964027271962
  0
LINE
  8
_0-3_tile
  6
CONTINUOUS
 62
    7
 10
942.17461067378986
 20
784.35964027271962
 11
890.55581564717227
 21
835.97843529933721
  0
LINE
  8
_0-3_tile
  6
CONTINUOUS
 62
    7
 10
890.55581564717227
 20
835.97843529933721
 11
680.54510163477335
 21
625.96772128693851
  0
LINE
  8
_0-3_tile
  6
CONTINUOUS
 62
    7
 10
680.54510163477335
 20
625.96772128693851
 11
716.53168283667753
 21
589.9811400850341
  0
LINE
  8
_0-3_tile
  6
CONTINUOUS
 62
    7
 10
470.92587333227044
 20
840.61256169636022
 11
470.92587333227044
 21
835.58694958943579
  0
LINE
  8
_0-3_tile
  6
CONTINUOUS
 62
    7
 10
470.92587333227044
 20
835.58694958943579
 11
678.42378129120698
 21
628.08904163049897
  0
LINE
  8
_0-3_tile
  6
CONTINUOUS
 62
    7
 10
678.42378129120698
 20
628.08904163049897
 11
730.04257631782468
 21
679.70783665711656
  0
LINE
  8
_0-3_tile
  6
CONTINUOUS
 62
    7
 10
730.04257631782468
 20
679.70783665711656
 11
520.03186230542588
 21
889.71855066951559
  0
LINE
  8
_0-3_tile
  6
CONTINUOUS
 62
    7
 10
520.03186230542588
 20
889.71855066951559
 11
470.92587333227044
 21
840.61256169636022
  0
LINE
  8
_0-3_tile
  6
CONTINUOUS
 62
    7
 10
680.5451016347788
 20
733.44795202729324
 11
890.55581564717761
 21
943.45866603969193
  0
LINE
  8
_0-3_tile
  6
CONTINUOUS
 62
    7
 10
890.55581564717761
 20
943.45866603969193
 11
942.1746106737952
 21
891.83987101307434
  0
LINE
  8
_0-3_tile
  6
CONTINUOUS
 62
    7
 10
942.1746106737952
 20
891.83987101307434
 11
732.16389666139639
 21
681.82915700067554
  0
LINE
  8
_0-3_tile
  6
CONTINUOUS
 62
    7
 10
732.16389666139639
 20
681.82915700067554
 11
680.5451016347788
 21
733.44795202729324
  0
LINE
  8
_0-3_tile
  6
CONTINUOUS
 62
    7
 10
470.92587333227044
 20
948.09279243670949
 11
470.92587333227044
 21
943.06718032979586
  0
LINE
  8
_0-3_tile
  6
CONTINUOUS
 62
    7
 10
470.92587333227044
 20
943.06718032979586
 11
678.42378129121244
 21
735.56927237085392
  0
LINE
  8
_0-3_tile
  6
CONTINUOUS
 62
    7
 10
678.42378129121244
 20
735.56927237085392
 11
730.04257631783003
 21
787.18806739747151
  0
LINE
  8
_0-3_tile
  6
CONTINUOUS
 62
    7
 10
730.04257631783003
 20
787.18806739747151
 11
520.0318623054311
 21
997.19878140987032
  0
LINE
  8
_0-3_tile
  6
CONTINUOUS
 62
    7
 10
520.0318623054311
 20
997.19878140987032
 11
470.92587333227044
 21
948.09279243670949
  0
LINE
  8
_0-3_tile
  6
CONTINUOUS
 62
    7
 10
680.5451016347788
 20
840.92818276764865
 11
890.55581564717761
 21
1050.9388967800476
  0
LINE
  8
_0-3_tile
  6
CONTINUOUS
 62
    7
 10
890.55581564717761
 20
1050.9388967800476
 11
942.1746106737952
 21
999.32010175342987
  0
LINE
  8
_0-3_tile
  6
CONTINUOUS
 62
    7
 10
942.1746106737952
 20
999.32010175342987
 11
732.16389666139639
 21
789.30938774103106
  0
LINE
  8
_0-3_tile
  6
CONTINUOUS
 62
    7
 10
732.16389666139639
 20
789.30938774103106
 11
680.5451016347788
 21
840.92818276764865
  0
LINE
  8
_0-3_tile
  6
CONTINUOUS
 62
    7
 10
470.92587333227044
 20
1055.5730231770651
 11
470.92587333227044
 21
1050.5474110701514
  0
LINE
  8
_0-3_tile
  6
CONTINUOUS
 62
    7
 10
470.92587333227044
 20
1050.5474110701514
 11
678.42378129121244
 21
843.04950311120933
  0
LINE
  8
_0-3_tile
  6
CONTINUOUS
 62
    7
 10
678.42378129121244
 20
843.04950311120933
 11
730.04257631783003
 21
894.66829813782704
  0
LINE
  8
_0-3_tile
  6
CONTINUOUS
 62
    7
 10
730.04257631783003
 20
894.66829813782704
 11
520.0318623054311
 21
1104.6790121502258
  0
LINE
  8
_0-3_tile
  6
CONTINUOUS
 62
    7
 10
520.0318623054311
 20
1104.6790121502258
 11
470.92587333227044
 21
1055.5730231770651
  0
LINE
  8
_0-3_tile
  6
CONTINUOUS
 62
    7
 10
680.5451016347788
 20
948.4084135080044
 11
890.55581564717761
 21
1158.4191275204034
  0
LINE
  8
_0-3_tile
  6
CONTINUOUS
 62
    7
 10
890.55581564717761
 20
1158.4191275204034
 11
942.1746106737952
 21
1106.8003324937858
  0
LINE
  8
_0-3_tile
  6
CONTINUOUS
 62
    7
 10
942.1746106737952
 20
1106.8003324937858
 11
732.16389666139639
 21
896.78961848138692
  0
LINE
  8
_0-3_tile
  6
CONTINUOUS
 62
    7
 10
732.16389666139639
 20
896.78961848138692
 11
680.5451016347788
 21
948.4084135080044
  0
LINE
  8
_0-3_tile
  6
CONTINUOUS
 62
    7
 10
470.92587333227044
 20
1163.053253917421
 11
470.92587333227044
 21
1158.0276418105072
  0
LINE
  8
_0-3_tile
  6
CONTINUOUS
 62
    7
 10
470.92587333227044
 20
1158.0276418105072
 11
678.42378129121244
 21
950.5297338515652
  0
LINE
  8
_0-3_tile
  6
CONTINUOUS
 62
    7
 10
678.42378129121244
 20
950.5297338515652
 11
730.04257631783003
 21
1002.148528878183
  0
LINE
  8
_0-3_tile
  6
CONTINUOUS
 62
    7
 10
730.04257631783003
 20
1002.148528878183
 11
520.0318623054311
 21
1212.1592428905817
  0
LINE
  8
_0-3_tile
  6
CONTINUOUS
 62
    7
 10
520.0318623054311
 20
1212.1592428905817
 11
470.92587333227044
 21
1163.053253917421
  0
LINE
  8
_0-3_tile
  6
CONTINUOUS
 62
    7
 10
680.5451016347788
 20
1055.8886442483595
 11
890.55581564717761
 21
1265.8993582607582
  0
LINE
  8
_0-3_tile
  6
CONTINUOUS
 62
    7
 10
890.55581564717761
 20
1265.8993582607582
 11
942.1746106737952
 21
1214.2805632341406
  0
LINE
  8
_0-3_tile
  6
CONTINUOUS
 62
    7
 10
942.1746106737952
 20
1214.2805632341406
 11
732.16389666139639
 21
1004.2698492217417
  0
LINE
  8
_0-3_tile
  6
CONTINUOUS
 62
    7
 10
732.16389666139639
 20
1004.2698492217417
 11
680.5451016347788
 21
1055.8886442483595
  0
LINE
  8
_0-3_tile
  6
CONTINUOUS
 62
    7
 10
470.92587333227044
 20
1270.5334846577755
 11
470.92587333227044
 21
1265.507872550862
  0
LINE
  8
_0-3_tile
  6
CONTINUOUS
 62
    7
 10
470.92587333227044
 20
1265.507872550862
 11
678.42378129121244
 21
1058.0099645919202
  0
LINE
  8
_0-3_tile
  6
CONTINUOUS
 62
    7
 10
678.42378129121244
 20
1058.0099645919202
 11
730.04257631783003
 21
1109.6287596185377
  0
LINE
  8
_0-3_tile
  6
CONTINUOUS
 62
    7
 10
730.04257631783003
 20
1109.6287596185377
 11
520.0318623054311
 21
1319.6394736309362
  0
LINE
  8
_0-3_tile
  6
CONTINUOUS
 62
    7
 10
520.0318623054311
 20
1319.6394736309362
 11
470.92587333227044
 21
1270.5334846577755
  0
LINE
  8
_0-3_tile
  6
CONTINUOUS
 62
    7
 10
680.5451016347788
 20
1163.3688749887142
 11
890.55581564717761
 21
1373.3795890011129
  0
LINE
  8
_0-3_tile
  6
CONTINUOUS
 62
    7
 10
890.55581564717761
 20
1373.3795890011129
 11
942.1746106737952
 21
1321.7607939744953
  0
LINE
  8
_0-3_tile
  6
CONTINUOUS
 62
    7
 10
942.1746106737952
 20
1321.7607939744953
 11
732.16389666139639
 21
1111.7500799620964
  0
LINE
  8
_0-3_tile
  6
CONTINUOUS
 62
    7
 10
732.16389666139639
 20
1111.7500799620964
 11
680.5451016347788
 21
1163.3688749887142
  0
LINE
  8
_0-3_tile
  6
CONTINUOUS
 62
    7
 10
470.92587333227044
 20
1378.0137153981304
 11
470.92587333227044
 21
1372.9881032912167
  0
LINE
  8
_0-3_tile
  6
CONTINUOUS
 62
    7
 10
470.92587333227044
 20
1372.9881032912167
 11
678.42378129121244
 21
1165.4901953322749
  0
LINE
  8
_0-3_tile
  6
CONTINUOUS
 62
    7
 10
678.42378129121244
 20
1165.4901953322749
 11
730.04257631783003
 21
1217.1089903588925
  0
LINE
  8
_0-3_tile
  6
CONTINUOUS
 62
    7
 10
730.04257631783003
 20
1217.1089903588925
 11
520.0318623054311
 21
1427.1197043712918
  0
LINE
  8
_0-3_tile
  6
CONTINUOUS
 62
    7
 10
520.0318623054311
 20
1427.1197043712918
 11
470.92587333227044
 21
1378.0137153981304
  0
LINE
  8
_0-3_tile
  6
CONTINUOUS
 62
    7
 10
680.5451016347788
 20
1270.8491057290698
 11
890.55581564717761
 21
1480.8598197414688
  0
LINE
  8
_0-3_tile
  6
CONTINUOUS
 62
    7
 10
890.55581564717761
 20
1480.8598197414688
 11
942.1746106737952
 21
1429.2410247148507
  0
LINE
  8
_0-3_tile
  6
CONTINUOUS
 62
    7
 10
942.1746106737952
 20
1429.2410247148507
 11
732.16389666139639
 21
1219.2303107024522
  0
LINE
  8
_0-3_tile
  6
CONTINUOUS
 62
    7
 10
732.16389666139639
 20
1219.2303107024522
 11
680.5451016347788
 21
1270.8491057290698
  0
LINE
  8
_0-3_tile
  6
CONTINUOUS
 62
    7
 10
470.92587333227044
 20
1482.9811400850297
 11
470.92587333227044
 21
1480.4683340315728
  0
LINE
  8
_0-3_tile
  6
CONTINUOUS
 62
    7
 10
470.92587333227044
 20
1480.4683340315728
 11
678.42378129121244
 21
1272.9704260726305
  0
LINE
  8
_0-3_tile
  6
CONTINUOUS
 62
    7
 10
678.42378129121244
 20
1272.9704260726305
 11
730.04257631782991
 21
1324.5892210992481
  0
LINE
  8
_0-3_tile
  6
CONTINUOUS
 62
    7
 10
730.04257631782991
 20
1324.5892210992481
 11
571.65065733204472
 21
1482.9811400850328
  0
LINE
  8
_0-3_tile
  6
CONTINUOUS
 62
    7
 10
571.65065733204472
 20
1482.9811400850328
 11
470.92587333227044
 21
1482.9811400850297
  0
LINE
  8
_0-3_tile
  6
CONTINUOUS
 62
    7
 10
888.43449530362273
 20
1482.9811400850328
 11
785.19690525038743
 21
1482.9811400850328
  0
LINE
  8
_0-3_tile
  6
CONTINUOUS
 62
    7
 10
785.19690525038743
 20
1482.9811400850328
 11
680.54510163477869
 21
1378.3293364694246
  0
LINE
  8
_0-3_tile
  6
CONTINUOUS
 62
    7
 10
680.54510163477869
 20
1378.3293364694246
 11
732.16389666139651
 21
1326.710541442807
  0
LINE
  8
_0-3_tile
  6
CONTINUOUS
 62
    7
 10
732.16389666139651
 20
1326.710541442807
 11
888.43449530362273
 21
1482.9811400850328
  0
LINE
  8
_0-3_tile
  6
CONTINUOUS
 62
    7
 10
679.13088807239978
 20
1482.9811400850328
 11
575.89329801916449
 21
1482.9811400850328
  0
LINE
  8
_0-3_tile
  6
CONTINUOUS
 62
    7
 10
575.89329801916449
 20
1482.9811400850328
 11
678.42378129121244
 21
1380.4506568129852
  0
LINE
  8
_0-3_tile
  6
CONTINUOUS
 62
    7
 10
678.42378129121244
 20
1380.4506568129852
 11
730.04257631783003
 21
1432.0694518396026
  0
LINE
  8
_0-3_tile
  6
CONTINUOUS
 62
    7
 10
730.04257631783003
 20
1432.0694518396026
 11
679.13088807239978
 21
1482.9811400850328
  0
LINE
  8
_0-3_tile
  6
CONTINUOUS
 62
    7
 10
780.95426456326732
 20
1482.9811400850338
 11
683.37352875952558
 21
1482.9811400850338
  0
LINE
  8
_0-3_tile
  6
CONTINUOUS
 62
    7
 10
683.37352875952558
 20
1482.9811400850338
 11
732.16389666139651
 21
1434.1907721831626
  0
LINE
  8
_0-3_tile
  6
CONTINUOUS
 62
    7
 10
732.16389666139651
 20
1434.1907721831626
 11
780.95426456326732
 21
1482.9811400850338
  0
LINE
  8
_0-3_tile
  6
CONTINUOUS
 62
    7
 10
1102.6878500031276
 20
628.08904163049897
 11
892.67713599072874
 21
838.099755642898
  0
LINE
  8
_0-3_tile
  6
CONTINUOUS
 62
    7
 10
892.67713599072874
 20
838.099755642898
 11
944.29593101734633
 21
889.71855066951559
  0
LINE
  8
_0-3_tile
  6
CONTINUOUS
 62
    7
 10
944.29593101734633
 20
889.71855066951559
 11
1154.3066450297451
 21
679.70783665711667
  0
LINE
  8
_0-3_tile
  6
CONTINUOUS
 62
    7
 10
1154.3066450297451
 20
679.70783665711667
 11
1102.6878500031276
 21
628.08904163049897
  0
LINE
  8
_0-3_tile
  6
CONTINUOUS
 62
    7
 10
1363.9258733322727
 20
889.32706495963123
 11
1363.9258733322727
 21
894.35267706651746
  0
LINE
  8
_0-3_tile
  6
CONTINUOUS
 62
    7
 10
1363.9258733322727
 20
894.35267706651746
 11
1314.8198843590981
 21
943.45866603969193
  0
LINE
  8
_0-3_tile
  6
CONTINUOUS
 62
    7
 10
1314.8198843590981
 20
943.45866603969193
 11
1104.8091703466991
 21
733.44795202729324
  0
LINE
  8
_0-3_tile
  6
CONTINUOUS
 62
    7
 10
1104.8091703466991
 20
733.44795202729324
 11
1156.427965373317
 21
681.82915700067542
  0
LINE
  8
_0-3_tile
  6
CONTINUOUS
 62
    7
 10
1156.427965373317
 20
681.82915700067542
 11
1363.9258733322727
 21
889.32706495963123
  0
LINE
  8
_0-3_tile
  6
CONTINUOUS
 62
    7
 10
1102.687850003133
 20
735.56927237085392
 11
892.6771359907342
 21
945.57998638325273
  0
LINE
  8
_0-3_tile
  6
CONTINUOUS
 62
    7
 10
892.6771359907342
 20
945.57998638325273
 11
944.2959310173519
 21
997.19878140987032
  0
LINE
  8
_0-3_tile
  6
CONTINUOUS
 62
    7
 10
944.2959310173519
 20
997.19878140987032
 11
1154.3066450297506
 21
787.18806739747151
  0
LINE
  8
_0-3_tile
  6
CONTINUOUS
 62
    7
 10
1154.3066450297506
 20
787.18806739747151
 11
1102.687850003133
 21
735.56927237085392
  0
LINE
  8
_0-3_tile
  6
CONTINUOUS
 62
    7
 10
1363.9258733322727
 20
996.80729569998675
 11
1363.9258733322727
 21
1001.832907806873
  0
LINE
  8
_0-3_tile
  6
CONTINUOUS
 62
    7
 10
1363.9258733322727
 20
1001.832907806873
 11
1314.8198843590981
 21
1050.9388967800476
  0
LINE
  8
_0-3_tile
  6
CONTINUOUS
 62
    7
 10
1314.8198843590981
 20
1050.9388967800476
 11
1104.8091703466991
 21
840.92818276764865
  0
LINE
  8
_0-3_tile
  6
CONTINUOUS
 62
    7
 10
1104.8091703466991
 20
840.92818276764865
 11
1156.427965373317
 21
789.30938774103106
  0
LINE
  8
_0-3_tile
  6
CONTINUOUS
 62
    7
 10
1156.427965373317
 20
789.30938774103106
 11
1363.9258733322727
 21
996.80729569998675
  0
LINE
  8
_0-3_tile
  6
CONTINUOUS
 62
    7
 10
1102.687850003133
 20
843.04950311120945
 11
892.6771359907342
 21
1053.0602171236083
  0
LINE
  8
_0-3_tile
  6
CONTINUOUS
 62
    7
 10
892.6771359907342
 20
1053.0602171236083
 11
944.2959310173519
 21
1104.6790121502258
  0
LINE
  8
_0-3_tile
  6
CONTINUOUS
 62
    7
 10
944.2959310173519
 20
1104.6790121502258
 11
1154.3066450297506
 21
894.66829813782704
  0
LINE
  8
_0-3_tile
  6
CONTINUOUS
 62
    7
 10
1154.3066450297506
 20
894.66829813782704
 11
1102.687850003133
 21
843.04950311120945
  0
LINE
  8
_0-3_tile
  6
CONTINUOUS
 62
    7
 10
1363.9258733322727
 20
1104.2875264403426
 11
1363.9258733322727
 21
1109.3131385472288
  0
LINE
  8
_0-3_tile
  6
CONTINUOUS
 62
    7
 10
1363.9258733322727
 20
1109.3131385472288
 11
1314.8198843590981
 21
1158.4191275204034
  0
LINE
  8
_0-3_tile
  6
CONTINUOUS
 62
    7
 10
1314.8198843590981
 20
1158.4191275204034
 11
1104.8091703466991
 21
948.4084135080044
  0
LINE
  8
_0-3_tile
  6
CONTINUOUS
 62
    7
 10
1104.8091703466991
 20
948.4084135080044
 11
1156.427965373317
 21
896.78961848138692
  0
LINE
  8
_0-3_tile
  6
CONTINUOUS
 62
    7
 10
1156.427965373317
 20
896.78961848138692
 11
1363.9258733322727
 21
1104.2875264403426
  0
LINE
  8
_0-3_tile
  6
CONTINUOUS
 62
    7
 10
1102.687850003133
 20
950.52973385156531
 11
892.6771359907342
 21
1160.5404478639641
  0
LINE
  8
_0-3_tile
  6
CONTINUOUS
 62
    7
 10
892.6771359907342
 20
1160.5404478639641
 11
944.2959310173519
 21
1212.1592428905817
  0
LINE
  8
_0-3_tile
  6
CONTINUOUS
 62
    7
 10
944.2959310173519
 20
1212.1592428905817
 11
1154.3066450297506
 21
1002.148528878183
  0
LINE
  8
_0-3_tile
  6
CONTINUOUS
 62
    7
 10
1154.3066450297506
 20
1002.148528878183
 11
1102.687850003133
 21
950.52973385156531
  0
LINE
  8
_0-3_tile
  6
CONTINUOUS
 62
    7
 10
1363.9258733322727
 20
1211.7677571806971
 11
1363.9258733322727
 21
1216.7933692875836
  0
LINE
  8
_0-3_tile
  6
CONTINUOUS
 62
    7
 10
1363.9258733322727
 20
1216.7933692875836
 11
1314.8198843590981
 21
1265.8993582607582
  0
LINE
  8
_0-3_tile
  6
CONTINUOUS
 62
    7
 10
1314.8198843590981
 20
1265.8993582607582
 11
1104.8091703466991
 21
1055.8886442483595
  0
LINE
  8
_0-3_tile
  6
CONTINUOUS
 62
    7
 10
1104.8091703466991
 20
1055.8886442483595
 11
1156.427965373317
 21
1004.2698492217417
  0
LINE
  8
_0-3_tile
  6
CONTINUOUS
 62
    7
 10
1156.427965373317
 20
1004.2698492217417
 11
1363.9258733322727
 21
1211.7677571806971
  0
LINE
  8
_0-3_tile
  6
CONTINUOUS
 62
    7
 10
1102.687850003133
 20
1058.0099645919202
 11
892.6771359907342
 21
1268.0206786043188
  0
LINE
  8
_0-3_tile
  6
CONTINUOUS
 62
    7
 10
892.6771359907342
 20
1268.0206786043188
 11
944.2959310173519
 21
1319.6394736309362
  0
LINE
  8
_0-3_tile
  6
CONTINUOUS
 62
    7
 10
944.2959310173519
 20
1319.6394736309362
 11
1154.3066450297506
 21
1109.6287596185377
  0
LINE
  8
_0-3_tile
  6
CONTINUOUS
 62
    7
 10
1154.3066450297506
 20
1109.6287596185377
 11
1102.687850003133
 21
1058.0099645919202
  0
LINE
  8
_0-3_tile
  6
CONTINUOUS
 62
    7
 10
1363.9258733322727
 20
1319.2479879210518
 11
1363.9258733322727
 21
1324.2736000279385
  0
LINE
  8
_0-3_tile
  6
CONTINUOUS
 62
    7
 10
1363.9258733322727
 20
1324.2736000279385
 11
1314.8198843590981
 21
1373.3795890011129
  0
LINE
  8
_0-3_tile
  6
CONTINUOUS
 62
    7
 10
1314.8198843590981
 20
1373.3795890011129
 11
1104.8091703466991
 21
1163.3688749887142
  0
LINE
  8
_0-3_tile
  6
CONTINUOUS
 62
    7
 10
1104.8091703466991
 20
1163.3688749887142
 11
1156.427965373317
 21
1111.7500799620964
  0
LINE
  8
_0-3_tile
  6
CONTINUOUS
 62
    7
 10
1156.427965373317
 20
1111.7500799620964
 11
1363.9258733322727
 21
1319.2479879210518
  0
LINE
  8
_0-3_tile
  6
CONTINUOUS
 62
    7
 10
1102.687850003133
 20
1165.4901953322749
 11
892.6771359907342
 21
1375.5009093446736
  0
LINE
  8
_0-3_tile
  6
CONTINUOUS
 62
    7
 10
892.6771359907342
 20
1375.5009093446736
 11
944.2959310173519
 21
1427.1197043712918
  0
LINE
  8
_0-3_tile
  6
CONTINUOUS
 62
    7
 10
944.2959310173519
 20
1427.1197043712918
 11
1154.3066450297506
 21
1217.1089903588925
  0
LINE
  8
_0-3_tile
  6
CONTINUOUS
 62
    7
 10
1154.3066450297506
 20
1217.1089903588925
 11
1102.687850003133
 21
1165.4901953322749
  0
LINE
  8
_0-3_tile
  6
CONTINUOUS
 62
    7
 10
752.03875117323105
 20
589.9811400850341
 11
855.27634122646623
 21
589.9811400850341
  0
LINE
  8
_0-3_tile
  6
CONTINUOUS
 62
    7
 10
855.27634122646623
 20
589.9811400850341
 11
942.17461067380191
 21
676.87940953237012
  0
LINE
  8
_0-3_tile
  6
CONTINUOUS
 62
    7
 10
942.17461067380191
 20
676.87940953237012
 11
890.55581564718455
 21
728.49820455898748
  0
LINE
  8
_0-3_tile
  6
CONTINUOUS
 62
    7
 10
890.55581564718455
 20
728.49820455898748
 11
752.03875117323105
 21
589.9811400850341
  0
LINE
  8
_0-3_tile
  6
CONTINUOUS
 62
    7
 10
1033.3155208082553
 20
589.9811400850341
 11
1136.5531108614903
 21
589.9811400850341
  0
LINE
  8
_0-3_tile
  6
CONTINUOUS
 62
    7
 10
1136.5531108614903
 20
589.9811400850341
 11
944.29593101735873
 21
782.23831992916587
  0
LINE
  8
_0-3_tile
  6
CONTINUOUS
 62
    7
 10
944.29593101735873
 20
782.23831992916587
 11
892.67713599074102
 21
730.61952490254816
  0
LINE
  8
_0-3_tile
  6
CONTINUOUS
 62
    7
 10
892.67713599074102
 20
730.61952490254816
 11
1033.3155208082553
 21
589.9811400850341
  0
LINE
  8
_0-3_tile
  6
CONTINUOUS
 62
    7
 10
859.518981913586
 20
589.9811400850341
 11
921.59264938078286
 21
589.9811400850341
  0
LINE
  8
_0-3_tile
  6
CONTINUOUS
 62
    7
 10
921.59264938078286
 20
589.9811400850341
 11
890.55581564718455
 21
621.01797381863253
  0
LINE
  8
_0-3_tile
  6
CONTINUOUS
 62
    7
 10
890.55581564718455
 20
621.01797381863253
 11
859.518981913586
 21
589.9811400850341
  0
LINE
  8
_0-3_tile
  6
CONTINUOUS
 62
    7
 10
925.83529006790013
 20
589.9811400850341
 11
1029.0728801211355
 21
589.9811400850341
  0
LINE
  8
_0-3_tile
  6
CONTINUOUS
 62
    7
 10
1029.0728801211355
 20
589.9811400850341
 11
944.29593101735873
 21
674.75808918881091
  0
LINE
  8
_0-3_tile
  6
CONTINUOUS
 62
    7
 10
944.29593101735873
 20
674.75808918881091
 11
892.67713599074102
 21
623.13929416219321
  0
LINE
  8
_0-3_tile
  6
CONTINUOUS
 62
    7
 10
892.67713599074102
 20
623.13929416219321
 11
925.83529006790013
 21
589.9811400850341
  0
LINE
  8
_0-3_tile
  6
CONTINUOUS
 62
    7
 10
1363.9258733322727
 20
1426.7282186614036
 11
1363.9258733322727
 21
1431.7538307682989
  0
LINE
  8
_0-3_tile
  6
CONTINUOUS
 62
    7
 10
1363.9258733322727
 20
1431.7538307682989
 11
1314.8198843591024
 21
1480.8598197414688
  0
LINE
  8
_0-3_tile
  6
CONTINUOUS
 62
    7
 10
1314.8198843591024
 20
1480.8598197414688
 11
1104.8091703467032
 21
1270.8491057290698
  0
LINE
  8
_0-3_tile
  6
CONTINUOUS
 62
    7
 10
1104.8091703467032
 20
1270.8491057290698
 11
1156.4279653733211
 21
1219.2303107024522
  0
LINE
  8
_0-3_tile
  6
CONTINUOUS
 62
    7
 10
1156.4279653733211
 20
1219.2303107024522
 11
1363.9258733322727
 21
1426.7282186614036
  0
LINE
  8
_0-3_tile
  6
CONTINUOUS
 62
    7
 10
995.91472604396893
 20
1482.9811400850338
 11
892.67713599073829
 21
1482.9811400850288
  0
LINE
  8
_0-3_tile
  6
CONTINUOUS
 62
    7
 10
892.67713599073829
 20
1482.9811400850288
 11
1102.6878500031371
 21
1272.9704260726305
  0
LINE
  8
_0-3_tile
  6
CONTINUOUS
 62
    7
 10
1102.6878500031371
 20
1272.9704260726305
 11
1154.3066450297547
 21
1324.5892210992481
  0
LINE
  8
_0-3_tile
  6
CONTINUOUS
 62
    7
 10
1154.3066450297547
 20
1324.5892210992481
 11
995.91472604396893
 21
1482.9811400850338
  0
LINE
  8
_0-3_tile
  6
CONTINUOUS
 62
    7
 10
1312.6985640155481
 20
1482.9811400850338
 11
1209.4609739623129
 21
1482.9811400850338
  0
LINE
  8
_0-3_tile
  6
CONTINUOUS
 62
    7
 10
1209.4609739623129
 20
1482.9811400850338
 11
1104.8091703467032
 21
1378.3293364694246
  0
LINE
  8
_0-3_tile
  6
CONTINUOUS
 62
    7
 10
1104.8091703467032
 20
1378.3293364694246
 11
1156.4279653733211
 21
1326.710541442807
  0
LINE
  8
_0-3_tile
  6
CONTINUOUS
 62
    7
 10
1156.4279653733211
 20
1326.710541442807
 11
1312.6985640155481
 21
1482.9811400850338
  0
LINE
  8
_0-3_tile
  6
CONTINUOUS
 62
    7
 10
1103.3949567843238
 20
1482.9811400850338
 11
1000.1573667310886
 21
1482.9811400850338
  0
LINE
  8
_0-3_tile
  6
CONTINUOUS
 62
    7
 10
1000.1573667310886
 20
1482.9811400850338
 11
1102.6878500031371
 21
1380.4506568129852
  0
LINE
  8
_0-3_tile
  6
CONTINUOUS
 62
    7
 10
1102.6878500031371
 20
1380.4506568129852
 11
1154.3066450297547
 21
1432.0694518396026
  0
LINE
  8
_0-3_tile
  6
CONTINUOUS
 62
    7
 10
1154.3066450297547
 20
1432.0694518396026
 11
1103.3949567843238
 21
1482.9811400850338
  0
LINE
  8
_0-3_tile
  6
CONTINUOUS
 62
    7
 10
1205.218333275192
 20
1482.9811400850338
 11
1107.6375974714501
 21
1482.9811400850338
  0
LINE
  8
_0-3_tile
  6
CONTINUOUS
 62
    7
 10
1107.6375974714501
 20
1482.9811400850338
 11
1156.4279653733211
 21
1434.1907721831626
  0
LINE
  8
_0-3_tile
  6
CONTINUOUS
 62
    7
 10
1156.4279653733211
 20
1434.1907721831626
 11
1205.218333275192
 21
1482.9811400850338
  0
LINE
  8
_0-3_tile
  6
CONTINUOUS
 62
    7
 10
1363.9258733322727
 20
1435.9964714554317
 11
1363.9258733322727
 21
1482.9811400850338
  0
LINE
  8
_0-3_tile
  6
CONTINUOUS
 62
    7
 10
1363.9258733322727
 20
1482.9811400850338
 11
1316.9412047026706
 21
1482.9811400850338
  0
LINE
  8
_0-3_tile
  6
CONTINUOUS
 62
    7
 10
1316.9412047026706
 20
1482.9811400850338
 11
1363.9258733322727
 21
1435.9964714554317
  0
LINE
  8
_0-3_tile
  6
CONTINUOUS
 62
    7
 10
470.92587333227044
 20
1476.2256933444478
 11
470.92587333227044
 21
1382.2563560852666
  0
LINE
  8
_0-3_tile
  6
CONTINUOUS
 62
    7
 10
470.92587333227044
 20
1382.2563560852666
 11
517.91054196186087
 21
1429.2410247148568
  0
LINE
  8
_0-3_tile
  6
CONTINUOUS
 62
    7
 10
517.91054196186087
 20
1429.2410247148568
 11
470.92587333227044
 21
1476.2256933444478
  0
LINE
  8
_0-3_tile
  6
CONTINUOUS
 62
    7
 10
470.92587333227044
 20
1368.7454626040815
 11
470.92587333227044
 21
1274.7761253449005
  0
LINE
  8
_0-3_tile
  6
CONTINUOUS
 62
    7
 10
470.92587333227044
 20
1274.7761253449005
 11
517.91054196186087
 21
1321.7607939744912
  0
LINE
  8
_0-3_tile
  6
CONTINUOUS
 62
    7
 10
517.91054196186087
 20
1321.7607939744912
 11
470.92587333227044
 21
1368.7454626040815
  0
LINE
  8
_0-3_tile
  6
CONTINUOUS
 62
    7
 10
470.92587333227044
 20
1261.2652318637258
 11
470.92587333227044
 21
1167.2958946045451
  0
LINE
  8
_0-3_tile
  6
CONTINUOUS
 62
    7
 10
470.92587333227044
 20
1167.2958946045451
 11
517.91054196186087
 21
1214.2805632341356
  0
LINE
  8
_0-3_tile
  6
CONTINUOUS
 62
    7
 10
517.91054196186087
 20
1214.2805632341356
 11
470.92587333227044
 21
1261.2652318637258
  0
LINE
  8
_0-3_tile
  6
CONTINUOUS
 62
    7
 10
470.92587333227044
 20
1153.7850011233927
 11
470.92587333227044
 21
1059.8156638642117
  0
LINE
  8
_0-3_tile
  6
CONTINUOUS
 62
    7
 10
470.92587333227044
 20
1059.8156638642117
 11
517.91054196186087
 21
1106.8003324938022
  0
LINE
  8
_0-3_tile
  6
CONTINUOUS
 62
    7
 10
517.91054196186087
 20
1106.8003324938022
 11
470.92587333227044
 21
1153.7850011233927
  0
LINE
  8
_0-3_tile
  6
CONTINUOUS
 62
    7
 10
470.92587333227044
 20
1046.3047703830366
 11
470.92587333227044
 21
952.33543312385564
  0
LINE
  8
_0-3_tile
  6
CONTINUOUS
 62
    7
 10
470.92587333227044
 20
952.33543312385564
 11
517.91054196186087
 21
999.32010175344612
  0
LINE
  8
_0-3_tile
  6
CONTINUOUS
 62
    7
 10
517.91054196186087
 20
999.32010175344612
 11
470.92587333227044
 21
1046.3047703830366
  0
LINE
  8
_0-3_tile
  6
CONTINUOUS
 62
    7
 10
470.92587333227044
 20
938.82453964268188
 11
470.92587333227044
 21
844.85520238350102
  0
LINE
  8
_0-3_tile
  6
CONTINUOUS
 62
    7
 10
470.92587333227044
 20
844.85520238350102
 11
517.91054196186087
 21
891.8398710130914
  0
LINE
  8
_0-3_tile
  6
CONTINUOUS
 62
    7
 10
517.91054196186087
 20
891.8398710130914
 11
470.92587333227044
 21
938.82453964268188
  0
LINE
  8
_0-3_tile
  6
CONTINUOUS
 62
    7
 10
470.92587333227044
 20
831.34430890230487
 11
470.92587333227044
 21
737.37497164312413
  0
LINE
  8
_0-3_tile
  6
CONTINUOUS
 62
    7
 10
470.92587333227044
 20
737.37497164312413
 11
517.91054196186087
 21
784.3596402727145
  0
LINE
  8
_0-3_tile
  6
CONTINUOUS
 62
    7
 10
517.91054196186087
 20
784.3596402727145
 11
470.92587333227044
 21
831.34430890230487
  0
LINE
  8
_0-3_tile
  6
CONTINUOUS
 62
    7
 10
609.05145209631758
 20
589.9811400850341
 11
712.28904214955287
 21
589.9811400850341
  0
LINE
  8
_0-3_tile
  6
CONTINUOUS
 62
    7
 10
712.28904214955287
 20
589.9811400850341
 11
520.03186230542588
 21
782.23831992916132
  0
LINE
  8
_0-3_tile
  6
CONTINUOUS
 62
    7
 10
520.03186230542588
 20
782.23831992916132
 11
470.92587333227044
 21
733.13233095600572
  0
LINE
  8
_0-3_tile
  6
CONTINUOUS
 62
    7
 10
470.92587333227044
 20
733.13233095600572
 11
470.92587333227044
 21
728.1067188490814
  0
LINE
  8
_0-3_tile
  6
CONTINUOUS
 62
    7
 10
470.92587333227044
 20
728.1067188490814
 11
609.05145209631758
 21
589.9811400850341
  0
LINE
  8
_0-3_tile
  6
CONTINUOUS
 62
    7
 10
470.92587333227044
 20
840.61256169636022
 11
470.92587333227044
 21
835.58694958943579
  0
LINE
  8
_0-3_tile
  6
CONTINUOUS
 62
    7
 10
470.92587333227044
 20
835.58694958943579
 11
678.42378129120698
 21
628.08904163049897
  0
LINE
  8
_0-3_tile
  6
CONTINUOUS
 62
    7
 10
678.42378129120698
 20
628.08904163049897
 11
730.04257631782468
 21
679.70783665711656
  0
LINE
  8
_0-3_tile
  6
CONTINUOUS
 62
    7
 10
730.04257631782468
 20
679.70783665711656
 11
520.03186230542588
 21
889.71855066951559
  0
LINE
  8
_0-3_tile
  6
CONTINUOUS
 62
    7
 10
520.03186230542588
 20
889.71855066951559
 11
470.92587333227044
 21
840.61256169636022
  0
LINE
  8
_0-3_tile
  6
CONTINUOUS
 62
    7
 10
501.57122135597228
 20
589.9811400850341
 11
604.80881140920769
 21
589.9811400850341
  0
LINE
  8
_0-3_tile
  6
CONTINUOUS
 62
    7
 10
604.80881140920769
 20
589.9811400850341
 11
520.03186230543065
 21
674.75808918881091
  0
LINE
  8
_0-3_tile
  6
CONTINUOUS
 62
    7
 10
520.03186230543065
 20
674.75808918881091
 11
470.92587333227539
 21
625.65210021565554
  0
LINE
  8
_0-3_tile
  6
CONTINUOUS
 62
    7
 10
470.92587333227539
 20
625.65210021565554
 11
470.92587333227539
 21
620.626488108731
  0
LINE
  8
_0-3_tile
  6
CONTINUOUS
 62
    7
 10
470.92587333227539
 20
620.626488108731
 11
501.57122135597228
 21
589.9811400850341
  0
LINE
  8
_0-3_tile
  6
CONTINUOUS
 62
    7
 10
470.92587333227044
 20
723.86407816197141
 11
470.92587333227044
 21
629.89474090279043
  0
LINE
  8
_0-3_tile
  6
CONTINUOUS
 62
    7
 10
470.92587333227044
 20
629.89474090279043
 11
517.91054196186087
 21
676.87940953238092
  0
LINE
  8
_0-3_tile
  6
CONTINUOUS
 62
    7
 10
517.91054196186087
 20
676.87940953238092
 11
470.92587333227044
 21
723.86407816197141
  0
LINE
  8
_0-3_tile
  6
CONTINUOUS
 62
    7
 10
470.92587333227044
 20
589.9811400850341
 11
497.32858066885206
 21
589.9811400850341
  0
LINE
  8
_0-3_tile
  6
CONTINUOUS
 62
    7
 10
497.32858066885206
 20
589.9811400850341
 11
470.92587333227044
 21
616.38384742161566
  0
LINE
  8
_0-3_tile
  6
CONTINUOUS
 62
    7
 10
470.92587333227044
 20
616.38384742161566
 11
470.92587333227044
 21
589.9811400850341
  0
LINE
  8
_0-3_tile
  6
CONTINUOUS
 62
    7
 10
1140.7957515485953
 20
589.9811400850341
 11
1172.0601791980387
 21
589.9811400850341
  0
LINE
  8
_0-3_tile
  6
CONTINUOUS
 62
    7
 10
1172.0601791980387
 20
589.9811400850341
 11
1363.9258733322727
 21
781.8468342192682
  0
LINE
  8
_0-3_tile
  6
CONTINUOUS
 62
    7
 10
1363.9258733322727
 20
781.8468342192682
 11
1363.9258733322727
 21
786.87244632615432
  0
LINE
  8
_0-3_tile
  6
CONTINUOUS
 62
    7
 10
1363.9258733322727
 20
786.87244632615432
 11
1314.8198843590981
 21
835.97843529932891
  0
LINE
  8
_0-3_tile
  6
CONTINUOUS
 62
    7
 10
1314.8198843590981
 20
835.97843529932891
 11
1104.8091703466991
 21
625.9677212869301
  0
LINE
  8
_0-3_tile
  6
CONTINUOUS
 62
    7
 10
1104.8091703466991
 20
625.9677212869301
 11
1140.7957515485953
 21
589.9811400850341
  0
LINE
  8
_0-3_tile
  6
CONTINUOUS
 62
    7
 10
1363.9258733322727
 20
1328.5162407150779
 11
1363.9258733322727
 21
1422.4855779742809
  0
LINE
  8
_0-3_tile
  6
CONTINUOUS
 62
    7
 10
1363.9258733322727
 20
1422.4855779742809
 11
1316.9412047026713
 21
1375.5009093446793
  0
LINE
  8
_0-3_tile
  6
CONTINUOUS
 62
    7
 10
1316.9412047026713
 20
1375.5009093446793
 11
1363.9258733322727
 21
1328.5162407150779
  0
LINE
  8
_0-3_tile
  6
CONTINUOUS
 62
    7
 10
1363.9258733322727
 20
1221.0360099747238
 11
1363.9258733322727
 21
1315.0053472339266
  0
LINE
  8
_0-3_tile
  6
CONTINUOUS
 62
    7
 10
1363.9258733322727
 20
1315.0053472339266
 11
1316.9412047026713
 21
1268.0206786043252
  0
LINE
  8
_0-3_tile
  6
CONTINUOUS
 62
    7
 10
1316.9412047026713
 20
1268.0206786043252
 11
1363.9258733322727
 21
1221.0360099747238
  0
LINE
  8
_0-3_tile
  6
CONTINUOUS
 62
    7
 10
1363.9258733322727
 20
1113.5557792343675
 11
1363.9258733322727
 21
1207.5251164935703
  0
LINE
  8
_0-3_tile
  6
CONTINUOUS
 62
    7
 10
1363.9258733322727
 20
1207.5251164935703
 11
1316.9412047026713
 21
1160.5404478639689
  0
LINE
  8
_0-3_tile
  6
CONTINUOUS
 62
    7
 10
1316.9412047026713
 20
1160.5404478639689
 11
1363.9258733322727
 21
1113.5557792343675
  0
LINE
  8
_0-3_tile
  6
CONTINUOUS
 62
    7
 10
1363.9258733322727
 20
1006.0755484940127
 11
1363.9258733322727
 21
1100.0448857532156
  0
LINE
  8
_0-3_tile
  6
CONTINUOUS
 62
    7
 10
1363.9258733322727
 20
1100.0448857532156
 11
1316.9412047026713
 21
1053.0602171236139
  0
LINE
  8
_0-3_tile
  6
CONTINUOUS
 62
    7
 10
1316.9412047026713
 20
1053.0602171236139
 11
1363.9258733322727
 21
1006.0755484940127
  0
LINE
  8
_0-3_tile
  6
CONTINUOUS
 62
    7
 10
1363.9258733322727
 20
898.59531775365679
 11
1363.9258733322727
 21
992.56465501285936
  0
LINE
  8
_0-3_tile
  6
CONTINUOUS
 62
    7
 10
1363.9258733322727
 20
992.56465501285936
 11
1316.9412047026713
 21
945.57998638325807
  0
LINE
  8
_0-3_tile
  6
CONTINUOUS
 62
    7
 10
1316.9412047026713
 20
945.57998638325807
 11
1363.9258733322727
 21
898.59531775365679
  0
LINE
  8
_0-3_tile
  6
CONTINUOUS
 62
    7
 10
1363.9258733322727
 20
791.11508701330263
 11
1363.9258733322727
 21
885.08442427250543
  0
LINE
  8
_0-3_tile
  6
CONTINUOUS
 62
    7
 10
1363.9258733322727
 20
885.08442427250543
 11
1316.9412047026713
 21
838.09975564290403
  0
LINE
  8
_0-3_tile
  6
CONTINUOUS
 62
    7
 10
1316.9412047026713
 20
838.09975564290403
 11
1363.9258733322727
 21
791.11508701330263
  0
LINE
  8
_0-3_tile
  6
CONTINUOUS
 62
    7
 10
1176.302819885158
 20
589.9811400850341
 11
1279.5404099383934
 21
589.9811400850341
  0
LINE
  8
_0-3_tile
  6
CONTINUOUS
 62
    7
 10
1279.5404099383934
 20
589.9811400850341
 11
1363.9258733322727
 21
674.36660347891336
  0
LINE
  8
_0-3_tile
  6
CONTINUOUS
 62
    7
 10
1363.9258733322727
 20
674.36660347891336
 11
1363.9258733322727
 21
679.39221558582767
  0
LINE
  8
_0-3_tile
  6
CONTINUOUS
 62
    7
 10
1363.9258733322727
 20
679.39221558582767
 11
1314.8198843591122
 21
728.49820455898816
  0
LINE
  8
_0-3_tile
  6
CONTINUOUS
 62
    7
 10
1314.8198843591122
 20
728.49820455898816
 11
1176.302819885158
 21
589.9811400850341
  0
LINE
  8
_0-3_tile
  6
CONTINUOUS
 62
    7
 10
1363.9258733322727
 20
683.63485627294654
 11
1363.9258733322727
 21
777.60419353214934
  0
LINE
  8
_0-3_tile
  6
CONTINUOUS
 62
    7
 10
1363.9258733322727
 20
777.60419353214934
 11
1316.9412047026713
 21
730.61952490254794
  0
LINE
  8
_0-3_tile
  6
CONTINUOUS
 62
    7
 10
1316.9412047026713
 20
730.61952490254794
 11
1363.9258733322727
 21
683.63485627294654
  0
LINE
  8
_0-3_tile
  6
CONTINUOUS
 62
    7
 10
1350.09935877983
 20
589.9811400850341
 11
1363.9258733322727
 21
589.9811400850341
  0
LINE
  8
_0-3_tile
  6
CONTINUOUS
 62
    7
 10
1363.9258733322727
 20
589.9811400850341
 11
1363.9258733322727
 21
670.12396279179438
  0
LINE
  8
_0-3_tile
  6
CONTINUOUS
 62
    7
 10
1363.9258733322727
 20
670.12396279179438
 11
1316.9412047026713
 21
623.1392941621931
  0
LINE
  8
_0-3_tile
  6
CONTINUOUS
 62
    7
 10
1316.9412047026713
 20
623.1392941621931
 11
1350.09935877983
 21
589.9811400850341
  0
LINE
  8
_0-3_tile
  6
CONTINUOUS
 62
    7
 10
1283.7830506255139
 20
589.9811400850341
 11
1345.8567180927105
 21
589.9811400850341
  0
LINE
  8
_0-3_tile
  6
CONTINUOUS
 62
    7
 10
1345.8567180927105
 20
589.9811400850341
 11
1314.8198843591122
 21
621.01797381863241
  0
LINE
  8
_0-3_tile
  6
CONTINUOUS
 62
    7
 10
1314.8198843591122
 20
621.01797381863241
 11
1283.7830506255139
 21
589.9811400850341
  0
TEXT
  8
_0-1_用紙枠
 62
    7
 10
193.86400732844771
 20
1812.7230743682946
 40
54.294704861111107
 41
1
 50
0
  1
【カタログ　施工写真　タイル割図】
  0
TEXT
  8
_0-1_用紙枠
 62
    7
 10
793.86400732844777
 20
171.80916587752063
 40
10.85894097222222
 41
1
 50
0
  1
シリーズ名：
  0
TEXT
  8
_0-1_用紙枠
 62
    7
 10
793.86400732844777
 20
91.809165877520712
 40
10.85894097222222
 41
1
 50
0
  1
品番：
  0
TEXT
  8
_0-1_用紙枠
 62
    7
 10
913.86400732844777
 20
150.27607125946497
 40
27.147352430555561
 41
1
 50
0
  1
Nolita（ノリタ）
  0
TEXT
  8
_0-1_用紙枠
 62
    7
 10
913.86400732844777
 20
70.276071259465056
 40
27.147352430555561
 41
1
 50
0
  1
NOL-730B
  0
TEXT
  8
_0-0_0
 62
    7
 10
1350.6476438188495
 20
136.13661260709932
 40
27.147352430555561
 41
1
 50
0
  1
　
  0
TEXT
  8
_0-1_用紙枠
 62
    7
 10
1253.8640073284478
 20
133.13658558238171
 40
27.147352430555561
 41
1
 50
0
  1
サイズ：73×297×10mm
  0
TEXT
  8
_0-1_用紙枠
 62
    7
 10
1968.5050234798259
 20
93.119411032579791
 40
27.147352430555561
 41
1
 50
0
  1
設計価格：￥9,800/㎡
  0
ENDSEC
  0
EOF
