  0
SECTION
  2
HEADER
  9
$ACADVER
  1
AC1009
  9
$INSBASE
 10
0
 20
0
 30
0
  9
$EXTMIN
 10
0
 20
0
  9
$EXTMAX
 10
891
 20
630
  9
$LIMMIN
 10
0
 20
0
  9
$LIMMAX
 10
891
 20
630
  9
$LTSCALE
 40
3
  0
ENDSEC
  0
SECTION
  2
TABLES
  0
TABLE
  2
LTYPE
 70
     9
  0
LTYPE
  2
CONTINUOUS
 70
    64
  3
実線
 72
    65
 73
     0
 40
0.0
  0
LTYPE
  2
DASHED1
 70
    64
  3
--  --  --  --  --  --  --  --  
 72
    65
 73
     2
 40
2.5
 49
1.25
 49
-1.25
  0
LTYPE
  2
DASHED2
 70
    64
  3
----    ----    ----    ----    
 72
    65
 73
     2
 40
5.0
 49
2.5
 49
-2.5
  0
LTYPE
  2
DASHED3
 70
    64
  3
------  ------  ------  ------  
 72
    65
 73
     2
 40
5.0
 49
3.75
 49
-1.25
  0
LTYPE
  2
CENTER1
 70
    64
  3
----- - ----- - ----- - ----- - 
 72
    65
 73
     4
 40
10.0
 49
6.25
 49
-1.25
 49
1.25
 49
-1.25
  0
LTYPE
  2
CENTER2
 70
    64
  3
----------  --  ----------  --  
 72
    65
 73
     4
 40
20.0
 49
12.5
 49
-2.5
 49
2.5
 49
-2.5
  0
LTYPE
  2
PHANTOM1
 70
    64
  3
--- - - --- - - --- - - --- - - 
 72
    65
 73
     6
 40
10.0
 49
3.25
 49
-1.25
 49
1.25
 49
-1.25
 49
1.25
 49
-1.25
  0
LTYPE
  2
PHANTOM2
 70
    64
  3
--------  -  -  --------  -  -  
 72
    65
 73
     6
 40
20.0
 49
10.0
 49
-2.5
 49
1.25
 49
-2.5
 49
1.25
 49
-2.5
  0
LTYPE
  2
DOT
 70
    64
  3
-   -   -   -   -   -   -   -   
 72
    65
 73
     2
 40
2.5
 49
0.625
 49
-1.875
  0
LTYPE
  2
DUMMY
 70
    64
  3
ダミー
 72
    65
 73
     0
 40
0.0
  0
LTYPE
  2
RAND1
 70
    64
  3
ランダム線1
 72
    65
 73
     4
 40
10.0
 49
1.0
 49
-2.0
 49
3.0
 49
-4.0
  0
LTYPE
  2
RAND2
 70
    64
  3
ランダム線2
 72
    65
 73
     4
 40
14.0
 49
2.0
 49
-3.0
 49
4.0
 49
-5.0
  0
LTYPE
  2
RAND3
 70
    64
  3
ランダム線3
 72
    65
 73
     4
 40
18.0
 49
3.0
 49
-4.0
 49
5.0
 49
-6.0
  0
LTYPE
  2
RAND4
 70
    64
  3
ランダム線4
 72
    65
 73
     4
 40
22.0
 49
4.0
 49
-5.0
 49
6.0
 49
-7.0
  0
LTYPE
  2
RAND5
 70
    64
  3
ランダム線5
 72
    65
 73
     4
 40
26.0
 49
5.0
 49
-6.0
 49
7.0
 49
-8.0
  0
LTYPE
  2
LONG1
 70
    64
  3
----------  --  ----------  --  
 72
    65
 73
     4
 40
40.0
 49
32.5
 49
-2.5
 49
2.5
 49
-2.5
  0
LTYPE
  2
LONG2
 70
    64
  3
--------  -  -  --------  -  -  
 72
    65
 73
     6
 40
40.0
 49
30.0
 49
-2.5
 49
1.25
 49
-2.5
 49
1.25
 49
-2.5
  0
LTYPE
  2
LONG3
 70
    64
  3
+++++++++++++++..+++++++++++++++
 72
    65
 73
     2
 40
40.0
 49
37.5
 49
-2.5
  0
LTYPE
  2
LONG4
 70
    64
  3
+++++++++++++++..+++++++++++++++
 72
    65
 73
     2
 40
80.0
 49
75.0
 49
-5.0
  0
LTYPE
  2
LONG5
 70
    64
  3
----------  --  ----------  --  
 72
    65
 73
     4
 40
60.0
 49
37.5
 49
-7.5
 49
7.5
 49
-7.5
  0
LTYPE
  2
dashed
 70
   64
  3
-------   -------------   ------
 72
   65
 73
    2
 40
7.5
 49
6
 49
-1.5
  0
LTYPE
  2
dashed_spaced
 70
   64
  3
----        --------        ----
 72
   65
 73
    2
 40
12
 49
6
 49
-6
  0
LTYPE
  2
long_dashed_dotted
 70
   64
  3
------------- --- --------------
 72
   65
 73
    4
 40
15.25
 49
12
 49
-1.5
 49
0.25
 49
-1.5
  0
LTYPE
  2
long_dashed_double-dotted
 70
   64
  3
----------- --- --- ------------
 72
   65
 73
    6
 40
17
 49
12
 49
-1.5
 49
0.25
 49
-1.5
 49
0.25
 49
-1.5
  0
LTYPE
  2
long_dashed_triplicate-dotted
 70
   64
  3
--------- --- --- --- ----------
 72
   65
 73
    8
 40
18.75
 49
12
 49
-1.5
 49
0.25
 49
-1.5
 49
0.25
 49
-1.5
 49
0.25
 49
-1.5
  0
LTYPE
  2
dotted
 70
   64
  3
   -       -       -       -    
 72
   65
 73
    2
 40
1.75
 49
0.25
 49
-1.5
  0
LTYPE
  2
chain
 70
   64
  3
-------------- -- --------------
 72
   65
 73
    4
 40
18.5
 49
12
 49
-1.5
 49
3.5
 49
-1.5
  0
LTYPE
  2
chain_double_dash
 70
   64
  3
------------ -- -- -------------
 72
   65
 73
    6
 40
23.5
 49
12
 49
-1.5
 49
3.5
 49
-1.5
 49
3.5
 49
-1.5
  0
LTYPE
  2
dashed_dotted
 70
   64
  3
-----------     -     ----------
 72
   65
 73
    4
 40
9.25
 49
6
 49
-1.5
 49
0.25
 49
-1.5
  0
LTYPE
  2
double-dashed_dotted
 70
   64
  3
------   -----------   -   -----
 72
   65
 73
    6
 40
16.75
 49
6
 49
-1.5
 49
6
 49
-1.5
 49
0.25
 49
-1.5
  0
LTYPE
  2
dashed_double-dotted
 70
   64
  3
---------    -    -    ---------
 72
   65
 73
    6
 40
11
 49
6
 49
-1.5
 49
0.25
 49
-1.5
 49
0.25
 49
-1.5
  0
LTYPE
  2
double-dashed_double-dotted
 70
   64
  3
-----   ---------   -   -   ----
 72
   65
 73
    8
 40
18.5
 49
6
 49
-1.5
 49
6
 49
-1.5
 49
0.25
 49
-1.5
 49
0.25
 49
-1.5
  0
LTYPE
  2
dashed_triplicate-dotted
 70
   64
  3
-------    -    -    -    ------
 72
   65
 73
    8
 40
12.75
 49
6
 49
-1.5
 49
0.25
 49
-1.5
 49
0.25
 49
-1.5
 49
0.25
 49
-1.5
  0
LTYPE
  2
double-dashed_triplicate-dotted
 70
   64
  3
-----  ---------  -  -  -  -----
 72
   65
 73
   10
 40
20.25
 49
6
 49
-1.5
 49
6
 49
-1.5
 49
0.25
 49
-1.5
 49
0.25
 49
-1.5
 49
0.25
 49
-1.5
  0
LTYPE
  2
undefined
 70
   64
  3
--------------------------------
 72
   65
 73
    0
 40
0
  0
LTYPE
  2
破線-1
 70
   64
  3
----        --------        ----
 72
   65
 73
    2
 40
0.0833279999999999
 49
0.0416559999999999
 49
-0.041672
  0
LTYPE
  2
破線-2
 70
   64
  3
------     -----------     -----
 72
   65
 73
    2
 40
0.1388849999999999
 49
0.0972139999999999
 49
-0.041671
  0
LTYPE
  2
破線-3
 70
   64
  3
-------   -------------   ------
 72
   65
 73
    2
 40
0.25
 49
0.208328
 49
-0.041672
  0
LTYPE
  2
破線-4
 70
   64
  3
-------  --------------  -------
 72
   65
 73
    2
 40
0.3055419999999999
 49
0.2638849999999999
 49
-0.041657
  0
LTYPE
  2
破線-5
 70
   64
  3
---           -----           --
 72
   65
 73
    2
 40
0.0416559999999999
 49
0.013885
 49
-0.027771
  0
LTYPE
  2
破線-6
 70
   64
  3
----------      --    ----------
 72
   65
 73
    4
 40
0.208328
 49
0.125
 49
-0.0416559999999999
 49
0.013886
 49
-0.027786
  0
LTYPE
  2
破線-7
 70
   64
  3
-----    -----------    -  -----
 72
   65
 73
    6
 40
0.375
 49
0.125
 49
-0.0416559999999999
 49
0.125
 49
-0.041672
 49
0.013886
 49
-0.027786
  0
LTYPE
  2
破線-8
 70
   64
  3
--------     --    --    -------
 72
   65
 73
    6
 40
0.25
 49
0.125
 49
-0.0416559999999999
 49
0.013886
 49
-0.027786
 49
0.013886
 49
-0.027786
  0
LTYPE
  2
破線-9
 70
   64
  3
------------  ----  ------------
 72
   65
 73
    4
 40
1
 49
0.75
 49
-0.055557
 49
0.138886
 49
-0.055557
  0
LTYPE
  2
破線-10
 70
   64
  3
----------- ---- ---  ----------
 72
   65
 73
    6
 40
1.1875
 49
0.75
 49
-0.055557
 49
0.138886
 49
-0.055557
 49
0.125
 49
-0.0625
  0
LTYPE
  2
_
 70
   64
  3
                                
 72
   65
 73
    0
 40
0
  0
LTYPE
  2
__28
 70
   64
  3
                                
 72
   65
 73
    0
 40
0
  0
LTYPE
  2
__29
 70
   64
  3
                                
 72
   65
 73
    0
 40
0
  0
LTYPE
  2
__30
 70
   64
  3
                                
 72
   65
 73
    0
 40
0
  0
LTYPE
  2
__31
 70
   64
  3
                                
 72
   65
 73
    0
 40
0
  0
LTYPE
  2
__32
 70
   64
  3
                                
 72
   65
 73
    0
 40
0
  0
ENDTAB
  0
TABLE
  2
STYLE
  5
3
100
AcDbSymbolTable
 70
     1
  0
STYLE
  5
10
100
AcDbSymbolTableRecord
100
AcDbTextStyleTableRecord
  2
STANDARD
 70
     0
 40
0.0
 41
1.0
 50
0.0
 71
     0
 42
0.2
  3
txt
  4
bigfont.shx
  0
STYLE
  5
26
100
AcDbSymbolTableRecord
100
AcDbTextStyleTableRecord
  2
TATEGAKI
 70
    68
 40
0.0
 41
1.0
 50
0.0
 71
     0
 42
1.0
  3
txt
  4
bigfont.shx
  0
ENDTAB
  0
TABLE
  2
LAYER
 70
    4
  0
LAYER
  2
_0-1_一般
 70
   64
 62
    7
  6
CONTINUOUS
  0
LAYER
  2
_0-2_寸法
 70
   64
 62
    7
  6
CONTINUOUS
  0
LAYER
  2
_0-a_
 70
   64
 62
    7
  6
CONTINUOUS
  0
LAYER
  2
ADD_LINE
 70
   64
 62
    7
  6
CONTINUOUS
  0
ENDTAB
  0
ENDSEC
  0
SECTION
  2
BLOCKS
  0
BLOCK
  2
-000-_DOT
 70
   64
 10
0
 20
0
 30
0
  0
CIRCLE
  8
_0-0_0
  6
CONTINUOUS
 62
    7
 10
0
 20
0
 40
0.25
  0
CIRCLE
  8
_0-0_0
  6
CONTINUOUS
 62
    7
 10
0
 20
-0
 40
0.25
  0
LINE
  8
_0-0_0
  6
CONTINUOUS
 62
    7
 10
-0.5
 20
0
 11
-1
 21
0
  0
ENDBLK
  0
BLOCK
  2
-001-_D1
 70
   64
 10
0
 20
0
 30
0
  0
LINE
  8
_0-2_寸法
  6
CONTINUOUS
 62
    7
 10
1009.2453260318259
 20
780.25655732791165
 11
1007.1074081008931
 21
782.73086671046576
  0
LINE
  8
_0-2_寸法
  6
CONTINUOUS
 62
    7
 10
933.58130306712849
 20
714.87933628866438
 11
931.44338513619573
 21
717.3536456712186
  0
LINE
  8
_0-2_寸法
  6
CONTINUOUS
 62
    7
 10
1004.990017184349
 20
782.8837142061725
 11
931.59938345555361
 21
719.47080678335999
  0
INSERT
  2
-000-_DOT
  8
_0-2_寸法
 10
1006.1267118023
 20
783.86587101439
 41
1.5022338867187499
 42
1.5022338867187499
 50
40.828535260019912
  0
INSERT
  2
-000-_DOT
  8
_0-2_寸法
 10
930.46268883760285
 20
718.48864997514261
 41
1.5022338867187499
 42
1.5022338867187499
 50
220.82853526001989
  0
TEXT
  8
_0-2_寸法
 62
    7
 10
961.76776558267852
 20
747.5200578536386
 40
9.7730703214171371
 41
1
 50
40.828535260020629
  1
100
  0
POINT
  8
_0-c_Defpoints
 62
    7
 10
1006.1267118023
 20
783.86587101439
  0
POINT
  8
_0-c_Defpoints
 62
    7
 10
930.46268883760285
 20
718.48864997514261
  0
POINT
  8
_0-c_Defpoints
 62
    7
 10
930.46268883760285
 20
718.48864997514261
  0
ENDBLK
  0
BLOCK
  2
-002-_D2
 70
   64
 10
0
 20
0
 30
0
  0
LINE
  8
_0-2_寸法
  6
CONTINUOUS
 62
    7
 10
939.27711148889148
 20
792.03893813609943
 11
993.4840437211318
 21
845.87106568527201
  0
LINE
  8
_0-2_寸法
  6
CONTINUOUS
 62
    7
 10
1009.7420589940962
 20
721.08338040389049
 11
1063.9489912263359
 21
774.91550795306318
  0
LINE
  8
_0-2_寸法
  6
CONTINUOUS
 62
    7
 10
993.47825867483061
 20
843.74817303993052
 11
1061.826109540671
 21
774.92445217324848
  0
INSERT
  2
-000-_DOT
  8
_0-2_寸法
 10
992.41971035514871
 20
844.81409147269392
 41
1.5022338867187499
 42
1.5022338867187499
 50
134.8012326247964
  0
INSERT
  2
-000-_DOT
  8
_0-2_寸法
 10
1062.8846578603529
 20
773.85853374048509
 41
1.5022338867187499
 42
1.5022338867187499
 50
314.80123262479628
  0
TEXT
  8
_0-2_寸法
 62
    7
 10
1023.5515758200088
 20
815.59418923475937
 40
9.7730703214171371
 41
1
 50
-45.198767375202351
  1
100
  0
POINT
  8
_0-c_Defpoints
 62
    7
 10
935.89253138506524
 20
788.6777601401011
  0
POINT
  8
_0-c_Defpoints
 62
    7
 10
1006.357478890269
 20
717.72220240789227
  0
POINT
  8
_0-c_Defpoints
 62
    7
 10
1062.8846578603529
 20
773.85853374048509
  0
ENDBLK
  0
ENDSEC
  0
SECTION
  2
ENTITIES
  0
LINE
  8
_0-1_一般
  6
CONTINUOUS
 62
    7
 10
15.000000000000085
 20
614.09090909091037
 11
876
 21
614.09090909091037
  0
LINE
  8
_0-1_一般
  6
CONTINUOUS
 62
    7
 10
876
 20
614.09090909091037
 11
876
 21
15.909090909089443
  0
LINE
  8
_0-1_一般
  6
CONTINUOUS
 62
    7
 10
876
 20
15.909090909089443
 11
15.000000000000085
 21
15.909090909089443
  0
LINE
  8
_0-1_一般
  6
CONTINUOUS
 62
    7
 10
15.000000000000085
 20
15.909090909089443
 11
15.000000000000085
 21
614.09090909091037
  0
LINE
  8
_0-1_一般
  6
CONTINUOUS
 62
    7
 10
15.000000000000085
 20
60.909090909089443
 11
876
 21
60.909090909089443
  0
LINE
  8
_0-1_一般
  6
CONTINUOUS
 62
    7
 10
149.6592021985345
 20
60.909090909089443
 11
149.6592021985345
 21
15.909090909089443
  0
LINE
  8
_0-1_一般
  6
CONTINUOUS
 62
    7
 10
149.6592021985345
 20
38.409090909089443
 11
278.6592021985345
 21
38.409090909089443
  0
LINE
  8
_0-1_一般
  6
CONTINUOUS
 62
    7
 10
278.6592021985345
 20
60.909090909089443
 11
278.6592021985345
 21
15.909090909089443
  0
TEXT
  8
_0-1_一般
 62
    7
 10
290.65920219853444
 20
30.874667080964443
 40
8.1442057291666679
 41
1
 50
0
  1
必要枚数：149.2/㎡　入数：120枚/箱
  0
INSERT
  2
-001-_D1
  8
_0-2_寸法
 10
-225.11359926715511
 20
-311.24708650256355
 41
1
 42
1
 50
0
  0
INSERT
  2
-002-_D2
  8
_0-2_寸法
 10
-225.11359926715511
 20
-311.24708650256355
 41
1
 42
1
 50
0
  0
POINT
  8
_0-a_
 62
    7
 10
115.8510142218352
 20
439.04483930527135
  0
ARC
  8
_0-a_
  6
CONTINUOUS
 62
    7
 10
155.35101422183538
 20
353.70718233710215
 40
53.000000000000028
 50
92.647105066265041
 51
138.18341386622961
  0
ARC
  8
_0-a_
  6
CONTINUOUS
 62
    7
 10
115.8510142218352
 20
439.04483930527135
 40
50.000000000000028
 50
41.332809078174769
 51
220.32426144186499
  0
ARC
  8
_0-a_
  6
CONTINUOUS
 62
    7
 10
76.351014221835399
 20
353.70718233710215
 40
52.999999999999972
 50
41.816586133770407
 51
88.507675308094818
  0
ARC
  8
_0-a_
  6
CONTINUOUS
 62
    7
 10
194.85101422183561
 20
439.04483930527135
 40
53.000000000000043
 50
141.46088081048021
 51
217.67715637560019
  0
POINT
  8
_0-a_
 62
    7
 10
194.85101422183521
 20
439.04483930527135
  0
ARC
  8
_0-a_
  6
CONTINUOUS
 62
    7
 10
234.3510142218355
 20
353.70718233710215
 40
53.000000000000028
 50
92.64710506626497
 51
138.18341386622961
  0
ARC
  8
_0-a_
  6
CONTINUOUS
 62
    7
 10
194.85101422183521
 20
439.04483930527135
 40
50.000000000000028
 50
41.332809078174769
 51
220.32426144186499
  0
ARC
  8
_0-a_
  6
CONTINUOUS
 62
    7
 10
155.35101422183538
 20
353.70718233710215
 40
52.999999999999972
 50
41.816586133770407
 51
88.507675308094818
  0
ARC
  8
_0-a_
  6
CONTINUOUS
 62
    7
 10
273.85101422183561
 20
439.04483930527135
 40
53
 50
141.46088081048021
 51
217.67715637560019
  0
POINT
  8
_0-a_
 62
    7
 10
273.85101422183527
 20
439.04483930527135
  0
ARC
  8
_0-a_
  6
CONTINUOUS
 62
    7
 10
313.3510142218355
 20
353.70718233710215
 40
53.000000000000028
 50
92.64710506626497
 51
138.18341386622961
  0
ARC
  8
_0-a_
  6
CONTINUOUS
 62
    7
 10
273.85101422183527
 20
439.04483930527135
 40
50.000000000000028
 50
41.332809078174769
 51
220.32426144186499
  0
ARC
  8
_0-a_
  6
CONTINUOUS
 62
    7
 10
234.3510142218355
 20
353.70718233710215
 40
52.999999999999972
 50
41.816586133770407
 51
88.507675308094747
  0
ARC
  8
_0-a_
  6
CONTINUOUS
 62
    7
 10
352.85101422183573
 20
439.04483930527135
 40
53
 50
141.46088081048021
 51
217.67715637560019
  0
POINT
  8
_0-a_
 62
    7
 10
352.8510142218355
 20
439.04483930527135
  0
ARC
  8
_0-a_
  6
CONTINUOUS
 62
    7
 10
392.3510142218355
 20
353.70718233710215
 40
53.000000000000028
 50
92.64710506626497
 51
138.18341386622961
  0
ARC
  8
_0-a_
  6
CONTINUOUS
 62
    7
 10
352.8510142218355
 20
439.04483930527135
 40
50
 50
41.332809078174783
 51
220.32426144186499
  0
ARC
  8
_0-a_
  6
CONTINUOUS
 62
    7
 10
313.3510142218355
 20
353.70718233710215
 40
52.999999999999972
 50
41.816586133770407
 51
88.507675308094747
  0
ARC
  8
_0-a_
  6
CONTINUOUS
 62
    7
 10
431.85101422183561
 20
439.04483930527135
 40
53
 50
141.46088081048021
 51
217.67715637560019
  0
POINT
  8
_0-a_
 62
    7
 10
431.85101422183538
 20
439.04483930527135
  0
ARC
  8
_0-a_
  6
CONTINUOUS
 62
    7
 10
471.35101422183561
 20
353.70718233710215
 40
53.000000000000028
 50
92.647105066265041
 51
138.18341386622961
  0
ARC
  8
_0-a_
  6
CONTINUOUS
 62
    7
 10
431.85101422183538
 20
439.04483930527135
 40
50.000000000000028
 50
41.332809078174769
 51
220.32426144186499
  0
ARC
  8
_0-a_
  6
CONTINUOUS
 62
    7
 10
392.3510142218355
 20
353.70718233710215
 40
52.999999999999972
 50
41.816586133770407
 51
88.507675308094747
  0
ARC
  8
_0-a_
  6
CONTINUOUS
 62
    7
 10
510.85101422183573
 20
439.04483930527135
 40
53
 50
141.46088081048021
 51
217.67715637560019
  0
POINT
  8
_0-a_
 62
    7
 10
510.85101422183538
 20
439.04483930527135
  0
ARC
  8
_0-a_
  6
CONTINUOUS
 62
    7
 10
550.35101422183573
 20
353.70718233710215
 40
53.000000000000028
 50
92.647105066265041
 51
138.18341386622961
  0
ARC
  8
_0-a_
  6
CONTINUOUS
 62
    7
 10
510.85101422183538
 20
439.04483930527135
 40
50.000000000000028
 50
41.332809078174762
 51
220.32426144186499
  0
ARC
  8
_0-a_
  6
CONTINUOUS
 62
    7
 10
471.35101422183561
 20
353.70718233710215
 40
52.999999999999972
 50
41.816586133770407
 51
88.507675308094818
  0
ARC
  8
_0-a_
  6
CONTINUOUS
 62
    7
 10
589.85101422183595
 20
439.04483930527135
 40
53
 50
141.46088081048021
 51
217.67715637560019
  0
POINT
  8
_0-a_
 62
    7
 10
155.35101422183521
 20
353.70483930527132
  0
ARC
  8
_0-a_
  6
CONTINUOUS
 62
    7
 10
194.85101422183521
 20
268.36718233710201
 40
52.999999999999957
 50
92.64710506626497
 51
138.1834138662297
  0
ARC
  8
_0-a_
  6
CONTINUOUS
 62
    7
 10
155.35101422183521
 20
353.70483930527132
 40
49.999999999999943
 50
41.332809078174847
 51
220.32426144186499
  0
ARC
  8
_0-a_
  6
CONTINUOUS
 62
    7
 10
115.8510142218352
 20
268.36718233710201
 40
53
 50
41.816586133770457
 51
88.507675308094818
  0
ARC
  8
_0-a_
  6
CONTINUOUS
 62
    7
 10
234.3510142218355
 20
353.70483930527132
 40
53
 50
141.46088081048021
 51
217.67715637560019
  0
POINT
  8
_0-a_
 62
    7
 10
194.85101422183499
 20
268.3648393052714
  0
ARC
  8
_0-a_
  6
CONTINUOUS
 62
    7
 10
234.35101422183521
 20
183.02718233710203
 40
53.000000000000028
 50
92.64710506626497
 51
138.18341386622961
  0
ARC
  8
_0-a_
  6
CONTINUOUS
 62
    7
 10
194.85101422183499
 20
268.3648393052714
 40
50.000000000000028
 50
41.332809078174769
 51
220.32426144186499
  0
ARC
  8
_0-a_
  6
CONTINUOUS
 62
    7
 10
155.35101422183521
 20
183.02718233710203
 40
52.999999999999929
 50
41.816586133770457
 51
88.507675308094818
  0
ARC
  8
_0-a_
  6
CONTINUOUS
 62
    7
 10
273.85101422183527
 20
268.3648393052714
 40
53
 50
141.46088081048021
 51
217.67715637560011
  0
POINT
  8
_0-a_
 62
    7
 10
234.35101422183487
 20
183.02483930527126
  0
ARC
  8
_0-a_
  6
CONTINUOUS
 62
    7
 10
273.85101422183493
 20
97.687182337102158
 40
53.000000000000028
 50
92.64710506626497
 51
138.18341386622961
  0
ARC
  8
_0-a_
  6
CONTINUOUS
 62
    7
 10
234.35101422183487
 20
183.02483930527126
 40
50.000000000000028
 50
41.332809078174769
 51
220.32426144186499
  0
ARC
  8
_0-a_
  6
CONTINUOUS
 62
    7
 10
194.85101422183499
 20
97.687182337102158
 40
52.999999999999972
 50
41.816586133770407
 51
88.507675308094747
  0
ARC
  8
_0-a_
  6
CONTINUOUS
 62
    7
 10
313.35101422183527
 20
183.02483930527126
 40
53
 50
141.46088081048021
 51
217.67715637560011
  0
POINT
  8
_0-a_
 62
    7
 10
234.35101422183521
 20
353.70483930527132
  0
ARC
  8
_0-a_
  6
CONTINUOUS
 62
    7
 10
273.85101422183527
 20
268.36718233710201
 40
52.999999999999957
 50
92.64710506626497
 51
138.1834138662297
  0
ARC
  8
_0-a_
  6
CONTINUOUS
 62
    7
 10
234.35101422183521
 20
353.70483930527132
 40
50.000000000000028
 50
41.332809078174769
 51
220.32426144186499
  0
ARC
  8
_0-a_
  6
CONTINUOUS
 62
    7
 10
194.85101422183521
 20
268.36718233710201
 40
53
 50
41.816586133770457
 51
88.507675308094747
  0
ARC
  8
_0-a_
  6
CONTINUOUS
 62
    7
 10
313.3510142218355
 20
353.70483930527132
 40
53
 50
141.46088081048021
 51
217.67715637560019
  0
POINT
  8
_0-a_
 62
    7
 10
313.35101422183527
 20
353.70483930527132
  0
ARC
  8
_0-a_
  6
CONTINUOUS
 62
    7
 10
352.8510142218355
 20
268.36718233710201
 40
52.999999999999957
 50
92.64710506626497
 51
138.1834138662297
  0
ARC
  8
_0-a_
  6
CONTINUOUS
 62
    7
 10
313.35101422183527
 20
353.70483930527132
 40
50.000000000000028
 50
41.332809078174769
 51
220.32426144186499
  0
ARC
  8
_0-a_
  6
CONTINUOUS
 62
    7
 10
273.85101422183527
 20
268.36718233710201
 40
53
 50
41.816586133770457
 51
88.507675308094747
  0
ARC
  8
_0-a_
  6
CONTINUOUS
 62
    7
 10
392.3510142218355
 20
353.70483930527132
 40
53
 50
141.46088081048009
 51
217.67715637560011
  0
POINT
  8
_0-a_
 62
    7
 10
392.35101422183516
 20
353.70483930527132
  0
ARC
  8
_0-a_
  6
CONTINUOUS
 62
    7
 10
431.85101422183538
 20
268.36718233710201
 40
52.999999999999957
 50
92.647105066265041
 51
138.1834138662297
  0
ARC
  8
_0-a_
  6
CONTINUOUS
 62
    7
 10
392.35101422183516
 20
353.70483930527132
 40
50.000000000000028
 50
41.332809078174769
 51
220.32426144186499
  0
ARC
  8
_0-a_
  6
CONTINUOUS
 62
    7
 10
352.8510142218355
 20
268.36718233710201
 40
53
 50
41.816586133770457
 51
88.507675308094747
  0
ARC
  8
_0-a_
  6
CONTINUOUS
 62
    7
 10
471.35101422183561
 20
353.70483930527132
 40
53
 50
141.46088081048021
 51
217.67715637560019
  0
POINT
  8
_0-a_
 62
    7
 10
471.35101422183527
 20
353.70483930527132
  0
ARC
  8
_0-a_
  6
CONTINUOUS
 62
    7
 10
510.85101422183538
 20
268.36718233710201
 40
52.999999999999957
 50
92.647105066265041
 51
138.18341386622961
  0
ARC
  8
_0-a_
  6
CONTINUOUS
 62
    7
 10
471.35101422183527
 20
353.70483930527132
 40
50.000000000000028
 50
41.332809078174769
 51
220.32426144186499
  0
ARC
  8
_0-a_
  6
CONTINUOUS
 62
    7
 10
431.85101422183538
 20
268.36718233710201
 40
53
 50
41.816586133770457
 51
88.507675308094818
  0
ARC
  8
_0-a_
  6
CONTINUOUS
 62
    7
 10
550.35101422183573
 20
353.70483930527132
 40
53
 50
141.46088081048021
 51
217.67715637560011
  0
POINT
  8
_0-a_
 62
    7
 10
550.3510142218355
 20
353.70483930527132
  0
ARC
  8
_0-a_
  6
CONTINUOUS
 62
    7
 10
589.8510142218355
 20
268.36718233710201
 40
52.999999999999957
 50
92.647105066265041
 51
138.18341386622961
  0
ARC
  8
_0-a_
  6
CONTINUOUS
 62
    7
 10
550.3510142218355
 20
353.70483930527132
 40
50.000000000000028
 50
41.332809078174769
 51
220.32426144186499
  0
ARC
  8
_0-a_
  6
CONTINUOUS
 62
    7
 10
510.85101422183538
 20
268.36718233710201
 40
53
 50
41.816586133770457
 51
88.507675308094818
  0
ARC
  8
_0-a_
  6
CONTINUOUS
 62
    7
 10
629.35101422183573
 20
353.70483930527132
 40
53
 50
141.46088081048021
 51
217.67715637560019
  0
POINT
  8
_0-a_
 62
    7
 10
273.85101422183493
 20
268.3648393052714
  0
ARC
  8
_0-a_
  6
CONTINUOUS
 62
    7
 10
352.8510142218355
 20
268.3648393052714
 40
53
 50
141.46088081048021
 51
217.67715637560011
  0
ARC
  8
_0-a_
  6
CONTINUOUS
 62
    7
 10
313.35101422183527
 20
183.02718233710203
 40
53.000000000000028
 50
92.64710506626497
 51
138.18341386622961
  0
ARC
  8
_0-a_
  6
CONTINUOUS
 62
    7
 10
234.35101422183521
 20
183.02718233710203
 40
52.999999999999972
 50
41.816586133770407
 51
88.507675308094747
  0
ARC
  8
_0-a_
  6
CONTINUOUS
 62
    7
 10
273.85101422183493
 20
268.3648393052714
 40
50.000000000000028
 50
41.332809078174769
 51
220.32426144186499
  0
POINT
  8
_0-a_
 62
    7
 10
352.85101422183504
 20
268.3648393052714
  0
ARC
  8
_0-a_
  6
CONTINUOUS
 62
    7
 10
431.85101422183538
 20
268.3648393052714
 40
53
 50
141.46088081048021
 51
217.67715637560011
  0
ARC
  8
_0-a_
  6
CONTINUOUS
 62
    7
 10
392.35101422183516
 20
183.02718233710203
 40
53.000000000000028
 50
92.64710506626497
 51
138.18341386622961
  0
ARC
  8
_0-a_
  6
CONTINUOUS
 62
    7
 10
313.35101422183527
 20
183.02718233710203
 40
52.999999999999972
 50
41.816586133770407
 51
88.507675308094747
  0
ARC
  8
_0-a_
  6
CONTINUOUS
 62
    7
 10
352.85101422183504
 20
268.3648393052714
 40
50
 50
41.332809078174783
 51
220.32426144186499
  0
POINT
  8
_0-a_
 62
    7
 10
431.85101422183516
 20
268.3648393052714
  0
ARC
  8
_0-a_
  6
CONTINUOUS
 62
    7
 10
510.85101422183538
 20
268.3648393052714
 40
53
 50
141.46088081048021
 51
217.67715637560011
  0
ARC
  8
_0-a_
  6
CONTINUOUS
 62
    7
 10
471.35101422183527
 20
183.02718233710203
 40
53.000000000000028
 50
92.647105066265041
 51
138.18341386622961
  0
ARC
  8
_0-a_
  6
CONTINUOUS
 62
    7
 10
392.35101422183516
 20
183.02718233710203
 40
52.999999999999972
 50
41.816586133770407
 51
88.507675308094747
  0
ARC
  8
_0-a_
  6
CONTINUOUS
 62
    7
 10
431.85101422183516
 20
268.3648393052714
 40
50.000000000000028
 50
41.332809078174769
 51
220.32426144186499
  0
POINT
  8
_0-a_
 62
    7
 10
510.85101422183516
 20
268.3648393052714
  0
ARC
  8
_0-a_
  6
CONTINUOUS
 62
    7
 10
589.8510142218355
 20
268.3648393052714
 40
53
 50
141.46088081048021
 51
217.67715637560011
  0
ARC
  8
_0-a_
  6
CONTINUOUS
 62
    7
 10
550.3510142218355
 20
183.02718233710203
 40
53.000000000000028
 50
92.647105066265041
 51
138.18341386622961
  0
ARC
  8
_0-a_
  6
CONTINUOUS
 62
    7
 10
471.35101422183527
 20
183.02718233710203
 40
52.999999999999972
 50
41.816586133770407
 51
88.507675308094818
  0
ARC
  8
_0-a_
  6
CONTINUOUS
 62
    7
 10
510.85101422183516
 20
268.3648393052714
 40
50.000000000000028
 50
41.332809078174762
 51
220.32426144186499
  0
POINT
  8
_0-a_
 62
    7
 10
589.85101422183527
 20
268.3648393052714
  0
ARC
  8
_0-a_
  6
CONTINUOUS
 62
    7
 10
668.85101422183584
 20
268.3648393052714
 40
53
 50
141.46088081048021
 51
217.67715637560011
  0
ARC
  8
_0-a_
  6
CONTINUOUS
 62
    7
 10
629.3510142218355
 20
183.02718233710203
 40
53.000000000000028
 50
92.647105066265041
 51
138.18341386622961
  0
ARC
  8
_0-a_
  6
CONTINUOUS
 62
    7
 10
550.3510142218355
 20
183.02718233710203
 40
52.999999999999972
 50
41.816586133770407
 51
88.507675308094818
  0
ARC
  8
_0-a_
  6
CONTINUOUS
 62
    7
 10
589.85101422183527
 20
268.3648393052714
 40
50.000000000000028
 50
41.332809078174769
 51
220.32426144186499
  0
ARC
  8
_0-a_
  6
CONTINUOUS
 62
    7
 10
313.35101422183504
 20
183.02483930527126
 40
50.000000000000028
 50
41.332809078174769
 51
220.32426144186499
  0
POINT
  8
_0-a_
 62
    7
 10
313.35101422183504
 20
183.02483930527126
  0
ARC
  8
_0-a_
  6
CONTINUOUS
 62
    7
 10
392.35101422183516
 20
183.02483930527126
 40
53
 50
141.46088081048009
 51
217.67715637560011
  0
ARC
  8
_0-a_
  6
CONTINUOUS
 62
    7
 10
352.85101422183504
 20
97.687182337102158
 40
53.000000000000028
 50
92.64710506626497
 51
138.18341386622961
  0
ARC
  8
_0-a_
  6
CONTINUOUS
 62
    7
 10
273.85101422183493
 20
97.687182337102158
 40
52.999999999999972
 50
41.816586133770407
 51
88.507675308094747
  0
ARC
  8
_0-a_
  6
CONTINUOUS
 62
    7
 10
392.35101422183493
 20
183.02483930527126
 40
50.000000000000028
 50
41.332809078174769
 51
220.32426144186499
  0
POINT
  8
_0-a_
 62
    7
 10
392.35101422183493
 20
183.02483930527126
  0
ARC
  8
_0-a_
  6
CONTINUOUS
 62
    7
 10
471.35101422183527
 20
183.02483930527126
 40
53
 50
141.46088081048021
 51
217.67715637560011
  0
ARC
  8
_0-a_
  6
CONTINUOUS
 62
    7
 10
431.85101422183516
 20
97.687182337102158
 40
53.000000000000028
 50
92.647105066265041
 51
138.18341386622961
  0
ARC
  8
_0-a_
  6
CONTINUOUS
 62
    7
 10
352.85101422183504
 20
97.687182337102158
 40
52.999999999999957
 50
41.816586133770421
 51
88.507675308094747
  0
ARC
  8
_0-a_
  6
CONTINUOUS
 62
    7
 10
471.35101422183493
 20
183.02483930527126
 40
50.000000000000028
 50
41.332809078174769
 51
220.32426144186499
  0
POINT
  8
_0-a_
 62
    7
 10
471.35101422183493
 20
183.02483930527126
  0
ARC
  8
_0-a_
  6
CONTINUOUS
 62
    7
 10
550.3510142218355
 20
183.02483930527126
 40
53
 50
141.46088081048021
 51
217.67715637559999
  0
ARC
  8
_0-a_
  6
CONTINUOUS
 62
    7
 10
510.85101422183516
 20
97.687182337102158
 40
53.000000000000028
 50
92.647105066265041
 51
138.18341386622961
  0
ARC
  8
_0-a_
  6
CONTINUOUS
 62
    7
 10
431.85101422183516
 20
97.687182337102158
 40
52.999999999999972
 50
41.816586133770407
 51
88.507675308094818
  0
ARC
  8
_0-a_
  6
CONTINUOUS
 62
    7
 10
550.35101422183504
 20
183.02483930527126
 40
50.000000000000028
 50
41.332809078174769
 51
220.32426144186499
  0
POINT
  8
_0-a_
 62
    7
 10
550.35101422183504
 20
183.02483930527126
  0
ARC
  8
_0-a_
  6
CONTINUOUS
 62
    7
 10
629.3510142218355
 20
183.02483930527126
 40
53
 50
141.46088081048021
 51
217.67715637560011
  0
ARC
  8
_0-a_
  6
CONTINUOUS
 62
    7
 10
589.85101422183527
 20
97.687182337102158
 40
53.000000000000028
 50
92.647105066265041
 51
138.18341386622961
  0
ARC
  8
_0-a_
  6
CONTINUOUS
 62
    7
 10
510.85101422183516
 20
97.687182337102158
 40
52.999999999999972
 50
41.816586133770407
 51
88.507675308094818
  0
ARC
  8
_0-a_
  6
CONTINUOUS
 62
    7
 10
629.35101422183527
 20
183.02483930527126
 40
50.000000000000028
 50
41.332809078174769
 51
220.32426144186499
  0
POINT
  8
_0-a_
 62
    7
 10
629.35101422183527
 20
183.02483930527126
  0
ARC
  8
_0-a_
  6
CONTINUOUS
 62
    7
 10
708.3510142218355
 20
183.02483930527126
 40
53
 50
141.46088081048021
 51
217.67715637560011
  0
ARC
  8
_0-a_
  6
CONTINUOUS
 62
    7
 10
668.85101422183527
 20
97.687182337102158
 40
53.000000000000028
 50
92.647105066265041
 51
138.18341386622961
  0
ARC
  8
_0-a_
  6
CONTINUOUS
 62
    7
 10
589.85101422183527
 20
97.687182337102158
 40
52.999999999999972
 50
41.816586133770407
 51
88.507675308094818
  0
TEXT
  8
_0-a_
 62
    7
 10
61.166217246606237
 20
551.71624683076971
 40
16.288411458333329
 41
1
 50
0
  1
ＭＳ ゴシック|b0|i0|c128|p0;【カタログ　施工写真　タイル割図】
  0
POINT
  8
_0-a_
 62
    7
 10
743.46880873767691
 20
439.59719684007132
  0
ARC
  8
_0-a_
  6
CONTINUOUS
 62
    7
 10
782.96880873767691
 20
354.25953987190212
 40
53.000000000000028
 50
92.647105066265041
 51
138.18341386622961
  0
ARC
  8
_0-a_
  6
CONTINUOUS
 62
    7
 10
743.46880873767691
 20
439.59719684007132
 40
49.999999999999943
 50
41.332809078174847
 51
220.32426144186499
  0
ARC
  8
_0-a_
  6
CONTINUOUS
 62
    7
 10
703.96880873767714
 20
354.25953987190212
 40
52.999999999999972
 50
41.816586133770407
 51
88.507675308094818
  0
ARC
  8
_0-a_
  6
CONTINUOUS
 62
    7
 10
822.46880873767668
 20
439.59719684007132
 40
53.000000000000085
 50
141.46088081048021
 51
217.67715637560011
  0
TEXT
  8
_0-1_一般
 62
    7
 10
152.6592021985345
 20
54.692749763256145
 40
3.2576822916666668
 41
1
 50
0
  1
シリーズ名
  0
TEXT
  8
_0-1_一般
 62
    7
 10
152.6592021985345
 20
30.692749763256145
 40
3.2576822916666668
 41
1
 50
0
  1
品番
  0
TEXT
  8
_0-1_一般
 62
    7
 10
188.6592021985345
 20
48.232821377839457
 40
8.1442057291666679
 41
1
 50
0
  1
Suui（スーイ）
  0
TEXT
  8
_0-1_一般
 62
    7
 10
188.6592021985345
 20
24.232821377839457
 40
8.1442057291666679
 41
1
 50
0
  1
SUI-S
  0
TEXT
  8
_0-1_一般
 62
    7
 10
290.65920219853444
 20
43.090975674714429
 40
8.1442057291666679
 41
1
 50
0
  1
サイズ：100×100×6～21mm
  0
TEXT
  8
_0-1_一般
 62
    7
 10
505.05150704394771
 20
31.085823309773843
 40
8.1442057291666679
 41
1
 50
0
  1
設計価格：￥39,800/㎡
  0
ENDSEC
  0
EOF
