  0
SECTION
  2
HEADER
  9
$ACADVER
  1
AC1021
  9
$ACADMAINTVER
 70
    25
  9
$DWGCODEPAGE
  3
ANSI_936
  9
$LASTSAVEDBY
  1
KennethW
  9
$INSBASE
 10
0.0
 20
0.0
 30
0.0
  9
$EXTMIN
 10
-526.4919033873166
 20
-251.1773297153068
 30
0.0
  9
$EXTMAX
 10
298.7951618467833
 20
289.2185283351131
 30
0.0
  9
$LIMMIN
 10
0.0
 20
0.0
  9
$LIMMAX
 10
22.0
 20
17.0
  9
$ORTHOMODE
 70
     1
  9
$REGENMODE
 70
     1
  9
$FILLMODE
 70
     1
  9
$QTEXTMODE
 70
     0
  9
$MIRRTEXT
 70
     0
  9
$LTSCALE
 40
1.21
  9
$ATTMODE
 70
     1
  9
$TEXTSIZE
 40
0.2
  9
$TRACEWID
 40
0.05
  9
$TEXTSTYLE
  7
Standard
  9
$CLAYER
  8
0
  9
$CELTYPE
  6
ByLayer
  9
$CECOLOR
 62
   256
  9
$CELTSCALE
 40
1.0
  9
$DISPSILH
 70
     0
  9
$DIMSCALE
 40
1.0
  9
$DIMASZ
 40
0.1875
  9
$DIMEXO
 40
0.1375
  9
$DIMDLI
 40
0.836
  9
$DIMRND
 40
0.0
  9
$DIMDLE
 40
0.0
  9
$DIMEXE
 40
0.396
  9
$DIMTP
 40
0.0
  9
$DIMTM
 40
0.0
  9
$DIMTXT
 40
0.15625
  9
$DIMCEN
 40
0.198
  9
$DIMTSZ
 40
0.0
  9
$DIMTOL
 70
     0
  9
$DIMLIM
 70
     0
  9
$DIMTIH
 70
     1
  9
$DIMTOH
 70
     1
  9
$DIMSE1
 70
     0
  9
$DIMSE2
 70
     0
  9
$DIMTAD
 70
     0
  9
$DIMZIN
 70
     0
  9
$DIMBLK
  1

  9
$DIMASO
 70
     1
  9
$DIMSHO
 70
     1
  9
$DIMPOST
  1

  9
$DIMAPOST
  1

  9
$DIMALT
 70
     0
  9
$DIMALTD
 70
     2
  9
$DIMALTF
 40
25.4
  9
$DIMLFAC
 40
1.0
  9
$DIMTOFL
 70
     0
  9
$DIMTVP
 40
0.0
  9
$DIMTIX
 70
     0
  9
$DIMSOXD
 70
     0
  9
$DIMSAH
 70
     0
  9
$DIMBLK1
  1

  9
$DIMBLK2
  1

  9
$DIMSTYLE
  2
Standard
  9
$DIMCLRD
 70
     0
  9
$DIMCLRE
 70
     0
  9
$DIMCLRT
 70
     0
  9
$DIMTFAC
 40
1.0
  9
$DIMGAP
 40
0.09
  9
$DIMJUST
 70
     0
  9
$DIMSD1
 70
     0
  9
$DIMSD2
 70
     0
  9
$DIMTOLJ
 70
     1
  9
$DIMTZIN
 70
     0
  9
$DIMALTZ
 70
     0
  9
$DIMALTTZ
 70
     0
  9
$DIMUPT
 70
     0
  9
$DIMDEC
 70
     4
  9
$DIMTDEC
 70
     4
  9
$DIMALTU
 70
     2
  9
$DIMALTTD
 70
     2
  9
$DIMTXSTY
  7
Standard
  9
$DIMAUNIT
 70
     0
  9
$DIMADEC
 70
     0
  9
$DIMALTRND
 40
0.0
  9
$DIMAZIN
 70
     0
  9
$DIMDSEP
 70
    46
  9
$DIMATFIT
 70
     3
  9
$DIMFRAC
 70
     0
  9
$DIMLDRBLK
  1

  9
$DIMLUNIT
 70
     2
  9
$DIMLWD
 70
    -2
  9
$DIMLWE
 70
    -2
  9
$DIMTMOVE
 70
     0
  9
$DIMFXL
 40
1.0
  9
$DIMFXLON
 70
     0
  9
$DIMJOGANG
 40
0.7853981633974483
  9
$DIMTFILL
 70
     0
  9
$DIMTFILLCLR
 70
     0
  9
$DIMARCSYM
 70
     0
  9
$DIMLTYPE
  6

  9
$DIMLTEX1
  6

  9
$DIMLTEX2
  6

  9
$LUNITS
 70
     2
  9
$LUPREC
 70
     4
  9
$SKETCHINC
 40
0.1
  9
$FILLETRAD
 40
0.0
  9
$AUNITS
 70
     0
  9
$AUPREC
 70
     0
  9
$MENU
  1
.
  9
$ELEVATION
 40
0.0
  9
$PELEVATION
 40
0.0
  9
$THICKNESS
 40
0.0
  9
$LIMCHECK
 70
     0
  9
$CHAMFERA
 40
0.0
  9
$CHAMFERB
 40
0.0
  9
$CHAMFERC
 40
0.0
  9
$CHAMFERD
 40
0.0
  9
$SKPOLY
 70
     0
  9
$TDCREATE
 40
2453353.800459155
  9
$TDUCREATE
 40
2453353.717125822
  9
$TDUPDATE
 40
2457038.376452546
  9
$TDUUPDATE
 40
2457038.293119213
  9
$TDINDWG
 40
0.0428868171
  9
$TDUSRTIMER
 40
0.0428868171
  9
$USRTIMER
 70
     1
  9
$ANGBASE
 50
0.0
  9
$ANGDIR
 70
     0
  9
$PDMODE
 70
     3
  9
$PDSIZE
 40
0.3125
  9
$PLINEWID
 40
0.0
  9
$SPLFRAME
 70
     0
  9
$SPLINETYPE
 70
     6
  9
$SPLINESEGS
 70
     8
  9
$HANDSEED
  5
936
  9
$SURFTAB1
 70
     6
  9
$SURFTAB2
 70
     6
  9
$SURFTYPE
 70
     6
  9
$SURFU
 70
     6
  9
$SURFV
 70
     6
  9
$UCSBASE
  2

  9
$UCSNAME
  2

  9
$UCSORG
 10
0.0
 20
0.0
 30
0.0
  9
$UCSXDIR
 10
1.0
 20
0.0
 30
0.0
  9
$UCSYDIR
 10
0.0
 20
1.0
 30
0.0
  9
$UCSORTHOREF
  2

  9
$UCSORTHOVIEW
 70
     0
  9
$UCSORGTOP
 10
0.0
 20
0.0
 30
0.0
  9
$UCSORGBOTTOM
 10
0.0
 20
0.0
 30
0.0
  9
$UCSORGLEFT
 10
0.0
 20
0.0
 30
0.0
  9
$UCSORGRIGHT
 10
0.0
 20
0.0
 30
0.0
  9
$UCSORGFRONT
 10
0.0
 20
0.0
 30
0.0
  9
$UCSORGBACK
 10
0.0
 20
0.0
 30
0.0
  9
$PUCSBASE
  2

  9
$PUCSNAME
  2

  9
$PUCSORG
 10
0.0
 20
0.0
 30
0.0
  9
$PUCSXDIR
 10
1.0
 20
0.0
 30
0.0
  9
$PUCSYDIR
 10
0.0
 20
1.0
 30
0.0
  9
$PUCSORTHOREF
  2

  9
$PUCSORTHOVIEW
 70
     0
  9
$PUCSORGTOP
 10
0.0
 20
0.0
 30
0.0
  9
$PUCSORGBOTTOM
 10
0.0
 20
0.0
 30
0.0
  9
$PUCSORGLEFT
 10
0.0
 20
0.0
 30
0.0
  9
$PUCSORGRIGHT
 10
0.0
 20
0.0
 30
0.0
  9
$PUCSORGFRONT
 10
0.0
 20
0.0
 30
0.0
  9
$PUCSORGBACK
 10
0.0
 20
0.0
 30
0.0
  9
$USERI1
 70
     0
  9
$USERI2
 70
     0
  9
$USERI3
 70
     0
  9
$USERI4
 70
     0
  9
$USERI5
 70
     0
  9
$USERR1
 40
0.0
  9
$USERR2
 40
0.0
  9
$USERR3
 40
0.0
  9
$USERR4
 40
0.0
  9
$USERR5
 40
0.0
  9
$WORLDVIEW
 70
     1
  9
$SHADEDGE
 70
     3
  9
$SHADEDIF
 70
    70
  9
$TILEMODE
 70
     1
  9
$MAXACTVP
 70
    64
  9
$PINSBASE
 10
0.0
 20
0.0
 30
0.0
  9
$PLIMCHECK
 70
     0
  9
$PEXTMIN
 10
1.000000000000000E+20
 20
1.000000000000000E+20
 30
1.000000000000000E+20
  9
$PEXTMAX
 10
-1.000000000000000E+20
 20
-1.000000000000000E+20
 30
-1.000000000000000E+20
  9
$PLIMMIN
 10
0.0
 20
0.0
  9
$PLIMMAX
 10
12.0
 20
9.0
  9
$UNITMODE
 70
     0
  9
$VISRETAIN
 70
     1
  9
$PLINEGEN
 70
     0
  9
$PSLTSCALE
 70
     1
  9
$TREEDEPTH
 70
  3020
  9
$CMLSTYLE
  2
Standard
  9
$CMLJUST
 70
     0
  9
$CMLSCALE
 40
1.0
  9
$PROXYGRAPHICS
 70
     1
  9
$MEASUREMENT
 70
     0
  9
$CELWEIGHT
370
    -1
  9
$ENDCAPS
280
     0
  9
$JOINSTYLE
280
     0
  9
$LWDISPLAY
290
     0
  9
$INSUNITS
 70
     1
  9
$HYPERLINKBASE
  1

  9
$STYLESHEET
  1

  9
$XEDIT
290
     0
  9
$CEPSNTYPE
380
     0
  9
$PSTYLEMODE
290
     1
  9
$FINGERPRINTGUID
  2
{40648726-BF7B-447D-9486-32E7D339B6FB}
  9
$VERSIONGUID
  2
{DB4DDE7E-0B55-4645-8DAE-0A2A2B852050}
  9
$EXTNAMES
290
     1
  9
$PSVPSCALE
 40
0.0
  9
$OLESTARTUP
290
     0
  9
$SORTENTS
280
   127
  9
$INDEXCTL
280
     0
  9
$HIDETEXT
280
     1
  9
$XCLIPFRAME
290
     0
  9
$HALOGAP
280
     0
  9
$OBSCOLOR
 70
   257
  9
$OBSLTYPE
280
     0
  9
$INTERSECTIONDISPLAY
280
     0
  9
$INTERSECTIONCOLOR
 70
   257
  9
$DIMASSOC
280
     2
  9
$PROJECTNAME
  1

  9
$CAMERADISPLAY
290
     0
  9
$LENSLENGTH
 40
50.0
  9
$CAMERAHEIGHT
 40
0.0
  9
$STEPSPERSEC
 40
2.0
  9
$STEPSIZE
 40
6.0
  9
$3DDWFPREC
 40
2.0
  9
$PSOLWIDTH
 40
0.25
  9
$PSOLHEIGHT
 40
4.0
  9
$LOFTANG1
 40
1.570796326794897
  9
$LOFTANG2
 40
1.570796326794897
  9
$LOFTMAG1
 40
0.0
  9
$LOFTMAG2
 40
0.0
  9
$LOFTPARAM
 70
     7
  9
$LOFTNORMALS
280
     1
  9
$LATITUDE
 40
37.795
  9
$LONGITUDE
 40
-122.394
  9
$NORTHDIRECTION
 40
0.0
  9
$TIMEZONE
 70
 -8000
  9
$LIGHTGLYPHDISPLAY
280
     1
  9
$TILEMODELIGHTSYNCH
280
     1
  9
$SOLIDHIST
280
     1
  9
$SHOWHIST
280
     1
  9
$DWFFRAME
280
     2
  9
$DGNFRAME
280
     2
  9
$REALWORLDSCALE
290
     1
  9
$INTERFERECOLOR
 62
   256
  9
$CSHADOW
280
     0
  9
$SHADOWPLANELOCATION
 40
0.0
  0
ENDSEC
  0
SECTION
  2
CLASSES
  0
CLASS
  1
ACDBDICTIONARYWDFLT
  2
AcDbDictionaryWithDefault
  3
ObjectDBX Classes
 90
        0
 91
        4
280
     0
281
     0
  0
CLASS
  1
ACDBPLACEHOLDER
  2
AcDbPlaceHolder
  3
ObjectDBX Classes
 90
        0
 91
        1
280
     0
281
     0
  0
CLASS
  1
LAYOUT
  2
AcDbLayout
  3
ObjectDBX Classes
 90
        0
 91
        1
280
     0
281
     0
  0
CLASS
  1
DICTIONARYVAR
  2
AcDbDictionaryVar
  3
ObjectDBX Classes
 90
        0
 91
        4
280
     0
281
     0
  0
CLASS
  1
TABLESTYLE
  2
AcDbTableStyle
  3
ObjectDBX Classes
 90
     4095
 91
        4
280
     0
281
     0
  0
CLASS
  1
SCALE
  2
AcDbScale
  3
ObjectDBX Classes
 90
     1153
 91
        4
280
     0
281
     0
  0
CLASS
  1
MATERIAL
  2
AcDbMaterial
  3
ObjectDBX Classes
 90
     1153
 91
        4
280
     0
281
     0
  0
CLASS
  1
MLEADERSTYLE
  2
AcDbMLeaderStyle
  3
ACDB_MLEADERSTYLE_CLASS
 90
     4095
 91
        4
280
     0
281
     0
  0
CLASS
  1
CELLSTYLEMAP
  2
AcDbCellStyleMap
  3
ObjectDBX Classes
 90
     1152
 91
        4
280
     0
281
     0
  0
CLASS
  1
VISUALSTYLE
  2
AcDbVisualStyle
  3
ObjectDBX Classes
 90
     4095
 91
        4
280
     0
281
     0
  0
ENDSEC
  0
SECTION
  2
TABLES
  0
TABLE
  2
VPORT
  5
8
330
0
100
AcDbSymbolTable
 70
     2
  0
VPORT
  5
97
330
8
100
AcDbSymbolTableRecord
100
AcDbViewportTableRecord
  2
*Active
 70
     0
 10
0.0
 20
0.0
 11
1.0
 21
1.0
 12
-119.3735182400829
 22
20.33224526399732
 13
0.0
 23
0.0
 14
1.0
 24
1.0
 15
0.0
 25
0.0
 16
0.0
 26
0.0
 36
1.0
 17
0.0
 27
0.0
 37
0.0
 40
709.7960598051073
 41
1.525490196078431
 42
50.0
 43
0.0
 44
0.0
 50
0.0
 51
0.0
 71
    16
 72
   100
 73
     1
 74
     1
 75
     0
 76
     0
 77
     0
 78
     0
281
     0
 65
     0
110
0.0
120
0.0
130
0.0
111
1.0
121
0.0
131
0.0
112
0.0
122
1.0
132
0.0
 79
     0
146
0.0
 60
     3
 61
     5
292
     1
282
     1
141
0.0
142
0.0
 63
   256
  0
ENDTAB
  0
TABLE
  2
LTYPE
  5
5
330
0
100
AcDbSymbolTable
 70
     6
  0
LTYPE
  5
14
330
5
100
AcDbSymbolTableRecord
100
AcDbLinetypeTableRecord
  2
ByBlock
 70
     0
  3

 72
    65
 73
     0
 40
0.0
  0
LTYPE
  5
15
330
5
100
AcDbSymbolTableRecord
100
AcDbLinetypeTableRecord
  2
ByLayer
 70
     0
  3

 72
    65
 73
     0
 40
0.0
  0
LTYPE
  5
16
330
5
100
AcDbSymbolTableRecord
100
AcDbLinetypeTableRecord
  2
Continuous
 70
     0
  3
Solid line
 72
    65
 73
     0
 40
0.0
  0
LTYPE
  5
92C
330
5
100
AcDbSymbolTableRecord
100
AcDbLinetypeTableRecord
  2
CENTER
 70
     0
  3
____ _ ____ _ ____ _ ____ _ ____ _ ____ _ ____
 72
    65
 73
     4
 40
0.6
 49
0.375
 74
     4
 75
     0
340
0
 46
1.0
 50
0.0
 44
0.0
 45
0.0
 49
-0.075
 74
     4
 75
     0
340
0
 46
1.0
 50
0.0
 44
0.0
 45
0.0
 49
0.075
 74
     4
 75
     0
340
0
 46
1.0
 50
0.0
 44
0.0
 45
0.0
 49
-0.075
 74
     4
 75
     0
340
0
 46
1.0
 50
0.0
 44
0.0
 45
0.0
  0
LTYPE
  5
92D
330
5
100
AcDbSymbolTableRecord
100
AcDbLinetypeTableRecord
  2
HIDDEN
 70
     0
  3
- - - - - - - - - - - - - - - - - - - -
 72
    65
 73
     2
 40
0.2
 49
0.1
 74
     4
 75
     0
340
0
 46
1.0
 50
0.0
 44
0.0
 45
0.0
 49
-0.1
 74
     4
 75
     0
340
0
 46
1.0
 50
0.0
 44
0.0
 45
0.0
  0
LTYPE
  5
92E
330
5
100
AcDbSymbolTableRecord
100
AcDbLinetypeTableRecord
  2
PHANTOM
 70
     0
  3
_____ _ _ _____ _ _ _____ _ _ _____
 72
    65
 73
     6
 40
0.8
 49
0.45
 74
     4
 75
     0
340
0
 46
1.0
 50
0.0
 44
0.0
 45
0.0
 49
-0.05
 74
     4
 75
     0
340
0
 46
1.0
 50
0.0
 44
0.0
 45
0.0
 49
0.1
 74
     4
 75
     0
340
0
 46
1.0
 50
0.0
 44
0.0
 45
0.0
 49
-0.05
 74
     4
 75
     0
340
0
 46
1.0
 50
0.0
 44
0.0
 45
0.0
 49
0.1
 74
     4
 75
     0
340
0
 46
1.0
 50
0.0
 44
0.0
 45
0.0
 49
-0.05
 74
     4
 75
     0
340
0
 46
1.0
 50
0.0
 44
0.0
 45
0.0
  0
LTYPE
  5
92F
330
5
100
AcDbSymbolTableRecord
100
AcDbLinetypeTableRecord
  2
DOT
 70
     0
  3
. . . . . . . . . . . . . . . . . . . .
 72
    65
 73
     2
 40
0.2
 49
0.1
 74
     4
 75
     0
340
0
 46
1.0
 50
0.0
 44
0.0
 45
0.0
 49
-0.1
 74
     4
 75
     0
340
0
 46
1.0
 50
0.0
 44
0.0
 45
0.0
  0
LTYPE
  5
930
330
5
100
AcDbSymbolTableRecord
100
AcDbLinetypeTableRecord
  2
DASHED
 70
     0
  3
- - - - - - - - - - - - - - - - - - - -
 72
    65
 73
     2
 40
0.2
 49
0.1
 74
     4
 75
     0
340
0
 46
1.0
 50
0.0
 44
0.0
 45
0.0
 49
-0.1
 74
     4
 75
     0
340
0
 46
1.0
 50
0.0
 44
0.0
 45
0.0
  0
ENDTAB
  0
TABLE
  2
LAYER
  5
2
330
0
100
AcDbSymbolTable
 70
    18
  0
LAYER
  5
10
330
2
100
AcDbSymbolTableRecord
100
AcDbLayerTableRecord
  2
0
 70
     0
 62
     7
  6
Continuous
370
    -3
390
F
347
6C3
  0
LAYER
  5
1FA
330
2
100
AcDbSymbolTableRecord
100
AcDbLayerTableRecord
  2
DEFAULT_1
 70
     0
 62
     7
  6
CENTER
370
    -3
390
F
347
6C3
  0
LAYER
  5
1FB
330
2
100
AcDbSymbolTableRecord
100
AcDbLayerTableRecord
  2
DEFAULT_2
 70
     0
 62
     8
  6
HIDDEN
370
    -3
390
F
347
6C3
  0
LAYER
  5
1FC
330
2
100
AcDbSymbolTableRecord
100
AcDbLayerTableRecord
  2
DEFAULT_3
 70
     0
 62
     7
  6
PHANTOM
370
    -3
390
F
347
6C3
  0
LAYER
  5
1FD
330
2
100
AcDbSymbolTableRecord
100
AcDbLayerTableRecord
  2
01___PRT_ALL_DTM_PLN
 70
     0
 62
     7
  6
Continuous
370
    -3
390
F
347
6C3
  0
LAYER
  5
1FE
330
2
100
AcDbSymbolTableRecord
100
AcDbLayerTableRecord
  2
01___PRT_DEF_DTM_PLN
 70
     0
 62
     7
  6
Continuous
370
    -3
390
F
347
6C3
  0
LAYER
  5
1FF
330
2
100
AcDbSymbolTableRecord
100
AcDbLayerTableRecord
  2
02___PRT_ALL_AXES
 70
     0
 62
     7
  6
Continuous
370
    -3
390
F
347
6C3
  0
LAYER
  5
200
330
2
100
AcDbSymbolTableRecord
100
AcDbLayerTableRecord
  2
03___PRT_ALL_CURVES
 70
     0
 62
     7
  6
Continuous
370
    -3
390
F
347
6C3
  0
LAYER
  5
201
330
2
100
AcDbSymbolTableRecord
100
AcDbLayerTableRecord
  2
04___PRT_ALL_DTM_PNT
 70
     0
 62
     7
  6
Continuous
370
    -3
390
F
347
6C3
  0
LAYER
  5
202
330
2
100
AcDbSymbolTableRecord
100
AcDbLayerTableRecord
  2
05___PRT_ALL_DTM_CSYS
 70
     0
 62
     7
  6
Continuous
370
    -3
390
F
347
6C3
  0
LAYER
  5
203
330
2
100
AcDbSymbolTableRecord
100
AcDbLayerTableRecord
  2
05___PRT_DEF_DTM_CSYS
 70
     0
 62
     7
  6
Continuous
370
    -3
390
F
347
6C3
  0
LAYER
  5
204
330
2
100
AcDbSymbolTableRecord
100
AcDbLayerTableRecord
  2
06___PRT_ALL_SURFS
 70
     0
 62
     7
  6
Continuous
370
    -3
390
F
347
6C3
  0
LAYER
  5
205
330
2
100
AcDbSymbolTableRecord
100
AcDbLayerTableRecord
  2
INTFCLR_1
 70
     0
 62
     7
  6
Continuous
370
    -3
390
F
347
6C3
  0
LAYER
  5
206
330
2
100
AcDbSymbolTableRecord
100
AcDbLayerTableRecord
  2
INTF_1
 70
     0
 62
     7
  6
Continuous
370
    -3
390
F
347
6C3
  0
LAYER
  5
207
330
2
100
AcDbSymbolTableRecord
100
AcDbLayerTableRecord
  2
INTF_2
 70
     0
 62
     7
  6
Continuous
370
    -3
390
F
347
6C3
  0
LAYER
  5
208
330
2
100
AcDbSymbolTableRecord
100
AcDbLayerTableRecord
  2
INTF_3
 70
     0
 62
     7
  6
Continuous
370
    -3
390
F
347
6C3
  0
LAYER
  5
209
330
2
100
AcDbSymbolTableRecord
100
AcDbLayerTableRecord
  2
INTF_4
 70
     0
 62
     7
  6
Continuous
370
    -3
390
F
347
6C3
  0
LAYER
  5
20A
330
2
100
AcDbSymbolTableRecord
100
AcDbLayerTableRecord
  2
INTF_5
 70
     0
 62
     7
  6
Continuous
370
    -3
390
F
347
6C3
  0
ENDTAB
  0
TABLE
  2
STYLE
  5
3
330
0
100
AcDbSymbolTable
 70
     2
  0
STYLE
  5
11
330
3
100
AcDbSymbolTableRecord
100
AcDbTextStyleTableRecord
  2
Standard
 70
     0
 40
0.0
 41
0.8
 50
0.0
 71
     0
 42
0.2
  3
txt
  4

  0
STYLE
  5
20B
330
3
100
AcDbSymbolTableRecord
100
AcDbTextStyleTableRecord
  2
TEXTSTYLE_1
 70
     0
 40
0.0
 41
0.8
 50
0.0
 71
     0
 42
0.2
  3
gdt
  4

  0
ENDTAB
  0
TABLE
  2
VIEW
  5
6
330
0
100
AcDbSymbolTable
 70
     0
  0
ENDTAB
  0
TABLE
  2
UCS
  5
7
330
0
100
AcDbSymbolTable
 70
     0
  0
ENDTAB
  0
TABLE
  2
APPID
  5
9
330
0
100
AcDbSymbolTable
 70
     2
  0
APPID
  5
12
330
9
100
AcDbSymbolTableRecord
100
AcDbRegAppTableRecord
  2
ACAD
 70
     0
  0
APPID
  5
92B
330
9
100
AcDbSymbolTableRecord
100
AcDbRegAppTableRecord
  2
ACAD_MLEADERVER
 70
     0
  0
ENDTAB
  0
TABLE
  2
DIMSTYLE
  5
A
330
0
100
AcDbSymbolTable
 70
     1
100
AcDbDimStyleTable
  0
DIMSTYLE
105
27
330
A
100
AcDbSymbolTableRecord
100
AcDbDimStyleTableRecord
  2
Standard
 70
     0
 41
0.1875
 47
0.01
 48
0.01
 78
     4
140
0.15625
271
     2
272
     2
284
     4
340
11
  0
ENDTAB
  0
TABLE
  2
BLOCK_RECORD
  5
1
330
0
100
AcDbSymbolTable
 70
     0
  0
BLOCK_RECORD
  5
1F
102
{ACAD_XDICTIONARY
360
935
102
}
330
1
100
AcDbSymbolTableRecord
100
AcDbBlockTableRecord
  2
*Model_Space
340
22
 70
     0
280
     1
281
     0
  0
BLOCK_RECORD
  5
73
330
1
100
AcDbSymbolTableRecord
100
AcDbBlockTableRecord
  2
*Paper_Space
340
74
 70
     0
280
     1
281
     0
  0
ENDTAB
  0
ENDSEC
  0
SECTION
  2
BLOCKS
  0
BLOCK
  5
20
330
1F
100
AcDbEntity
  8
0
100
AcDbBlockBegin
  2
*Model_Space
 70
     0
 10
0.0
 20
0.0
 30
0.0
  3
*Model_Space
  1

  0
ENDBLK
  5
21
330
1F
100
AcDbEntity
  8
0
100
AcDbBlockEnd
  0
BLOCK
  5
75
330
73
100
AcDbEntity
 67
     1
  8
0
100
AcDbBlockBegin
  2
*Paper_Space
 70
     0
 10
0.0
 20
0.0
 30
0.0
  3
*Paper_Space
  1

  0
ENDBLK
  5
76
330
73
100
AcDbEntity
 67
     1
  8
0
100
AcDbBlockEnd
  0
ENDSEC
  0
SECTION
  2
ENTITIES
  0
LINE
  5
21D
330
1F
100
AcDbEntity
  8
0
  6
Continuous
347
0
 62
     7
100
AcDbLine
 10
-75.09926097247663
 20
-96.37460643338687
 30
0.0
 11
93.19950831450333
 21
-96.37460643338687
 31
0.0
  0
LINE
  5
21E
330
1F
100
AcDbEntity
  8
0
  6
Continuous
347
0
 62
     7
100
AcDbLine
 10
-75.09547032981664
 20
-93.37277781678685
 30
0.0
 11
93.19571744832336
 21
-93.37277781678685
 31
0.0
  0
LINE
  5
21F
330
1F
100
AcDbEntity
  8
0
  6
Continuous
347
0
 62
     7
100
AcDbLine
 10
93.05606941926337
 20
-93.23309472048686
 30
0.0
 11
87.06391585114335
 21
-93.23309472048686
 31
0.0
  0
LINE
  5
221
330
1F
100
AcDbEntity
  8
0
  6
Continuous
347
0
 62
     7
100
AcDbLine
 10
86.74078770390335
 20
-93.00531049990687
 30
0.0
 11
-68.64054036187665
 21
-93.00531049990687
 31
0.0
  0
LINE
  5
22C
330
1F
100
AcDbEntity
  8
0
  6
Continuous
347
0
 62
     7
100
AcDbLine
 10
80.92535359692334
 20
-68.46393503868686
 30
0.0
 11
80.79657455806336
 21
-68.48331229990686
 31
0.0
  0
LINE
  5
22D
330
1F
100
AcDbEntity
  8
0
  6
Continuous
347
0
 62
     7
100
AcDbLine
 10
9.05012366974336
 20
-87.28383208004686
 30
0.0
 11
84.80793993892337
 21
-85.30004384544685
 31
0.0
  0
LINE
  5
22E
330
1F
100
AcDbEntity
  8
0
  6
Continuous
347
0
 62
     7
100
AcDbLine
 10
84.78932036224336
 20
-83.33477857100686
 30
0.0
 11
9.05012366974336
 21
-85.31807923482685
 31
0.0
  0
LINE
  5
22F
330
1F
100
AcDbEntity
  8
0
  6
Continuous
347
0
 62
     7
100
AcDbLine
 10
70.71023164468338
 20
-83.33906001786687
 30
0.0
 11
9.05012366974336
 21
-84.95368676828684
 31
0.0
  0
LINE
  5
230
330
1F
100
AcDbEntity
  8
0
  6
Continuous
347
0
 62
     7
100
AcDbLine
 10
84.41815657320333
 20
-82.87530715060686
 30
0.0
 11
78.90659326564332
 21
-83.01963251346686
 31
0.0
  0
LINE
  5
231
330
1F
100
AcDbEntity
  8
0
  6
Continuous
347
0
 62
     7
100
AcDbLine
 10
78.00036212154336
 20
-82.79643252552685
 30
0.0
 11
70.67336492644336
 21
-82.98829670110686
 31
0.0
  0
LINE
  5
232
330
1F
100
AcDbEntity
  8
0
  6
Continuous
347
0
 62
     7
100
AcDbLine
 10
83.31731487852335
 20
-85.67377663112688
 30
0.0
 11
9.05012366974336
 21
-87.60419774360687
 31
0.0
  0
LINE
  5
234
330
1F
100
AcDbEntity
  8
0
  6
Continuous
347
0
 62
     7
100
AcDbLine
 10
-49.46375395301664
 20
-82.13602968326686
 30
0.0
 11
67.56400129504333
 21
-82.13602968326686
 31
0.0
  0
LINE
  5
235
330
1F
100
AcDbEntity
  8
0
  6
Continuous
347
0
 62
     7
100
AcDbLine
 10
65.35456615842334
 20
-80.78758806976685
 30
0.0
 11
-47.25431881893664
 21
-80.78758806976685
 31
0.0
  0
LINE
  5
236
330
1F
100
AcDbEntity
  8
0
  6
Continuous
347
0
 62
     7
100
AcDbLine
 10
87.83135749380335
 20
-79.48065870750688
 30
0.0
 11
87.72659487122334
 21
-79.48013921908685
 31
0.0
  0
LINE
  5
237
330
1F
100
AcDbEntity
  8
0
  6
Continuous
347
0
 62
     7
100
AcDbLine
 10
9.05012366974336
 20
-87.60419774360687
 30
0.0
 11
-65.21706756189664
 21
-85.67377663112688
 31
0.0
  0
LINE
  5
238
330
1F
100
AcDbEntity
  8
0
  6
Continuous
347
0
 62
     7
100
AcDbLine
 10
-66.70769259943663
 20
-85.30004384544685
 30
0.0
 11
9.05012366974336
 21
-87.28383208004686
 31
0.0
  0
LINE
  5
239
330
1F
100
AcDbEntity
  8
0
  6
Continuous
347
0
 62
     7
100
AcDbLine
 10
9.05012366974336
 20
-85.31807923482685
 30
0.0
 11
-66.68907302021663
 21
-83.33477857100686
 31
0.0
  0
LINE
  5
23A
330
1F
100
AcDbEntity
  8
0
  6
Continuous
347
0
 62
     7
100
AcDbLine
 10
9.05012366974336
 20
-84.95368676828684
 30
0.0
 11
-52.60998430265664
 21
-83.33906001786687
 31
0.0
  0
LINE
  5
249
330
1F
100
AcDbEntity
  8
0
  6
Continuous
347
0
 62
     7
100
AcDbLine
 10
74.43010365628336
 20
-77.80683071658686
 30
0.0
 11
74.57741331848334
 21
-77.80598410156685
 31
0.0
  0
LINE
  5
24C
330
1F
100
AcDbEntity
  8
0
  6
Continuous
347
0
 62
     7
100
AcDbLine
 10
70.23976913374335
 20
-82.59768351484686
 30
0.0
 11
69.81328164788334
 21
-82.53102523820687
 31
0.0
  0
LINE
  5
277
330
1F
100
AcDbEntity
  8
0
  6
Continuous
347
0
 62
     7
100
AcDbLine
 10
85.18989733604334
 20
-60.50022842612686
 30
0.0
 11
85.18291556438334
 21
-60.49951716008685
 31
0.0
  0
LINE
  5
278
330
1F
100
AcDbEntity
  8
0
  6
Continuous
347
0
 62
     7
100
AcDbLine
 10
87.83135716868338
 20
-66.40662625262686
 30
0.0
 11
87.47974900728337
 21
-66.36967076138686
 31
0.0
  0
LINE
  5
27F
330
1F
100
AcDbEntity
  8
0
  6
Continuous
347
0
 62
     7
100
AcDbLine
 10
65.35760561132338
 20
120.8373227105931
 30
0.0
 11
67.56410167330338
 21
122.1787825549731
 31
0.0
  0
LINE
  5
282
330
1F
100
AcDbEntity
  8
0
  6
Continuous
347
0
 62
     7
100
AcDbLine
 10
67.56400128488337
 20
-82.13602967310686
 30
0.0
 11
65.35750521274338
 21
-80.79456983888687
 31
0.0
  0
LINE
  5
288
330
1F
100
AcDbEntity
  8
0
  6
Continuous
347
0
 62
     7
100
AcDbLine
 10
32.82760919824337
 20
95.10621778225311
 30
0.0
 11
35.36011331026336
 21
97.82098020641317
 31
0.0
  0
LINE
  5
289
330
1F
100
AcDbEntity
  8
0
  6
Continuous
347
0
 62
     7
100
AcDbLine
 10
70.71023164468338
 20
123.3819156249531
 30
0.0
 11
69.81328163772338
 21
122.5738808351331
 31
0.0
  0
LINE
  5
28A
330
1F
100
AcDbEntity
  8
0
  6
Continuous
347
0
 62
     7
100
AcDbLine
 10
70.23976913120336
 20
122.6405391193931
 30
0.0
 11
70.67336492644336
 21
123.0311523081932
 31
0.0
  0
LINE
  5
28D
330
1F
100
AcDbEntity
  8
0
  6
Continuous
347
0
 62
     7
100
AcDbLine
 10
69.81328163772338
 20
-82.53102522804684
 30
0.0
 11
70.71023164468338
 21
-83.33906001786687
 31
0.0
  0
LINE
  5
28E
330
1F
100
AcDbEntity
  8
0
  6
Continuous
347
0
 62
     7
100
AcDbLine
 10
70.67336492644336
 20
-82.98829670110686
 30
0.0
 11
70.23976913120336
 21
-82.59768351484686
 31
0.0
  0
LINE
  5
290
330
1F
100
AcDbEntity
  8
0
  6
Continuous
347
0
 62
     7
100
AcDbLine
 10
27.55618062758334
 20
88.8209802054331
 30
0.0
 11
31.45814697146335
 21
93.32098020465315
 31
0.0
  0
LINE
  5
291
330
1F
100
AcDbEntity
  8
0
  6
Continuous
347
0
 62
     7
100
AcDbLine
 10
38.09903776890335
 20
97.82098020641317
 30
0.0
 11
34.19707142502334
 21
93.32098020465315
 31
0.0
  0
LINE
  5
292
330
1F
100
AcDbEntity
  8
0
  6
Continuous
347
0
 62
     7
100
AcDbLine
 10
32.82760919824337
 20
91.53574262705311
 30
0.0
 11
30.29510508368338
 21
88.8209802054331
 31
0.0
  0
LINE
  5
293
330
1F
100
AcDbEntity
  8
0
  6
Continuous
347
0
 62
     7
100
AcDbLine
 10
74.43010365628336
 20
117.8496863211331
 30
0.0
 11
73.09730843770339
 21
116.5168911000131
 31
0.0
  0
LINE
  5
294
330
1F
100
AcDbEntity
  8
0
  6
Continuous
347
0
 62
     7
100
AcDbLine
 10
73.11498267210334
 20
116.3864090521132
 30
0.0
 11
74.57741331848334
 21
117.8488397061131
 31
0.0
  0
LINE
  5
295
330
1F
100
AcDbEntity
  8
0
  6
Continuous
347
0
 62
     7
100
AcDbLine
 10
73.09730843770339
 20
-76.47403549546686
 30
0.0
 11
74.43010365628336
 21
-77.80683071404684
 31
0.0
  0
LINE
  5
296
330
1F
100
AcDbEntity
  8
0
  6
Continuous
347
0
 62
     7
100
AcDbLine
 10
74.57741331848334
 20
-77.80598409902686
 30
0.0
 11
73.11498267210334
 21
-76.34355344756685
 31
0.0
  0
LINE
  5
298
330
1F
100
AcDbEntity
  8
0
  6
Continuous
347
0
 62
     7
100
AcDbLine
 10
-9.761676517096644
 20
88.8209802054331
 30
0.0
 11
-9.761676517096644
 21
97.82098020641317
 31
0.0
  0
LINE
  5
299
330
1F
100
AcDbEntity
  8
0
  6
Continuous
347
0
 62
     7
100
AcDbLine
 10
-7.511676518756627
 20
96.21383734755312
 30
0.0
 11
-7.511676518756627
 21
94.12455163281311
 31
0.0
  0
LINE
  5
29A
330
1F
100
AcDbEntity
  8
0
  6
Continuous
347
0
 62
     7
100
AcDbLine
 10
-7.511676518756627
 20
92.51740877649317
 30
0.0
 11
-7.511676518756627
 21
88.8209802054331
 31
0.0
  0
LINE
  5
29B
330
1F
100
AcDbEntity
  8
0
  6
Continuous
347
0
 62
     7
100
AcDbLine
 10
89.06842522794335
 20
124.0737673832331
 30
0.0
 11
88.96150905874339
 21
123.9662895997131
 31
0.0
  0
LINE
  5
29C
330
1F
100
AcDbEntity
  8
0
  6
Continuous
347
0
 62
     7
100
AcDbLine
 10
85.73182269618337
 20
128.1311398933131
 30
0.0
 11
83.31731506140338
 21
125.7166322331331
 31
0.0
  0
LINE
  5
29D
330
1F
100
AcDbEntity
  8
0
  6
Continuous
347
0
 62
     7
100
AcDbLine
 10
93.19585217246336
 20
133.4156334060931
 30
0.0
 11
93.05616911172336
 21
133.2759503275732
 31
0.0
  0
LINE
  5
29E
330
1F
100
AcDbEntity
  8
0
  6
Continuous
347
0
 62
     7
100
AcDbLine
 10
86.91203741220335
 20
124.9385691410531
 30
0.0
 11
87.38602737100334
 21
125.4125590998531
 31
0.0
  0
LINE
  5
29F
330
1F
100
AcDbEntity
  8
0
  6
Continuous
347
0
 62
     7
100
AcDbLine
 10
95.55464619502337
 20
130.7774732239532
 30
0.0
 11
95.69432927354336
 21
130.9171562973931
 31
0.0
  0
LINE
  5
2A0
330
1F
100
AcDbEntity
  8
0
  6
Continuous
347
0
 62
     7
100
AcDbLine
 10
89.03946913142337
 20
124.2375737383732
 30
0.0
 11
88.59582732884334
 21
123.7939319332531
 31
0.0
  0
LINE
  5
2A1
330
1F
100
AcDbEntity
  8
0
  6
Continuous
347
0
 62
     7
100
AcDbLine
 10
89.78949249294337
 20
122.8327836015531
 30
0.0
 11
90.57643536406337
 21
123.6197264599731
 31
0.0
  0
LINE
  5
2A2
330
1F
100
AcDbEntity
  8
0
  6
Continuous
347
0
 62
     7
100
AcDbLine
 10
87.04672155228337
 20
125.2701606724331
 30
0.0
 11
87.19165174502334
 21
125.4143326167531
 31
0.0
  0
LINE
  5
2A3
330
1F
100
AcDbEntity
  8
0
  6
Continuous
347
0
 62
     7
100
AcDbLine
 10
87.83135749634337
 20
119.5235143171331
 30
0.0
 11
88.19562477898336
 21
119.8809649281131
 31
0.0
  0
LINE
  5
2A4
330
1F
100
AcDbEntity
  8
0
  6
Continuous
347
0
 62
     7
100
AcDbLine
 10
85.14147592666339
 20
125.6678158004131
 30
0.0
 11
84.80793993892337
 21
125.3428994525331
 31
0.0
  0
LINE
  5
2A5
330
1F
100
AcDbEntity
  8
0
  6
Continuous
347
0
 62
     7
100
AcDbLine
 10
90.16070400858337
 20
119.8481334850131
 30
0.0
 11
90.47686912936337
 21
120.1561278931532
 31
0.0
  0
LINE
  5
2A6
330
1F
100
AcDbEntity
  8
0
  6
Continuous
347
0
 62
     7
100
AcDbLine
 10
84.78932036224336
 20
123.3776341780931
 30
0.0
 11
84.42177133864334
 21
123.0228666757932
 31
0.0
  0
LINE
  5
2A9
330
1F
100
AcDbEntity
  8
0
  6
Continuous
347
0
 62
     7
100
AcDbLine
 10
84.42177134118339
 20
-82.98001107378684
 30
0.0
 11
84.78932036224336
 21
-83.33477857100686
 31
0.0
  0
LINE
  5
2AA
330
1F
100
AcDbEntity
  8
0
  6
Continuous
347
0
 62
     7
100
AcDbLine
 10
84.80793993892337
 20
-85.30004384544685
 30
0.0
 11
85.14147592666339
 21
-85.62496019332684
 31
0.0
  0
LINE
  5
2AB
330
1F
100
AcDbEntity
  8
0
  6
Continuous
347
0
 62
     7
100
AcDbLine
 10
90.47686912936337
 20
-80.11327228606683
 30
0.0
 11
90.16070400858337
 21
-79.80527787792687
 31
0.0
  0
LINE
  5
2AC
330
1F
100
AcDbEntity
  8
0
  6
Continuous
347
0
 62
     7
100
AcDbLine
 10
88.19562477898336
 20
-79.83810931848686
 30
0.0
 11
87.83135749380335
 21
-79.48065870750688
 31
0.0
  0
LINE
  5
2AD
330
1F
100
AcDbEntity
  8
0
  6
Continuous
347
0
 62
     7
100
AcDbLine
 10
87.19165174502334
 20
-85.37147701220687
 30
0.0
 11
87.04672155228337
 21
-85.22730506788687
 31
0.0
  0
LINE
  5
2AE
330
1F
100
AcDbEntity
  8
0
  6
Continuous
347
0
 62
     7
100
AcDbLine
 10
83.31731506140338
 20
-85.67377662604684
 30
0.0
 11
85.73182269618337
 21
-88.08828428622687
 31
0.0
  0
LINE
  5
2AF
330
1F
100
AcDbEntity
  8
0
  6
Continuous
347
0
 62
     7
100
AcDbLine
 10
93.05616911172336
 20
-93.23309472048686
 30
0.0
 11
93.19585217246336
 21
-93.37277779900685
 31
0.0
  0
LINE
  5
2B0
330
1F
100
AcDbEntity
  8
0
  6
Continuous
347
0
 62
     7
100
AcDbLine
 10
87.38602737100334
 20
-85.36970349530685
 30
0.0
 11
86.91203741220335
 21
-84.89571353396687
 31
0.0
  0
LINE
  5
2B1
330
1F
100
AcDbEntity
  8
0
  6
Continuous
347
0
 62
     7
100
AcDbLine
 10
95.69432927354336
 20
-90.87430069030685
 30
0.0
 11
95.55464619502337
 21
-90.73461761686687
 31
0.0
  0
LINE
  5
2B2
330
1F
100
AcDbEntity
  8
0
  6
Continuous
347
0
 62
     7
100
AcDbLine
 10
88.59582732884334
 20
-83.75107632616687
 30
0.0
 11
89.03946913142337
 21
-84.19471813128686
 31
0.0
  0
LINE
  5
2B3
330
1F
100
AcDbEntity
  8
0
  6
Continuous
347
0
 62
     7
100
AcDbLine
 10
90.57643678392336
 20
-83.57687227274687
 30
0.0
 11
89.78936942994332
 21
-82.78980492892686
 31
0.0
  0
LINE
  5
2B4
330
1F
100
AcDbEntity
  8
0
  6
Continuous
347
0
 62
     7
100
AcDbLine
 10
88.96150905874339
 20
-83.92343399262685
 30
0.0
 11
89.06842522794335
 21
-84.03091177614687
 31
0.0
  0
LINE
  5
2B5
330
1F
100
AcDbEntity
  8
0
  6
Continuous
347
0
 62
     7
100
AcDbLine
 10
-1.083105088396658
 20
94.12455163281311
 30
0.0
 11
-1.083105088396658
 21
92.51740877649317
 31
0.0
  0
LINE
  5
2B6
330
1F
100
AcDbEntity
  8
0
  6
Continuous
347
0
 62
     7
100
AcDbLine
 10
-0.1188193740966348
 20
97.82098020641317
 30
0.0
 11
-0.1188193740966348
 21
96.21383734755312
 31
0.0
  0
LINE
  5
2B7
330
1F
100
AcDbEntity
  8
0
  6
Continuous
347
0
 62
     7
100
AcDbLine
 10
1.488323482223374
 20
88.8209802054331
 30
0.0
 11
1.488323482223374
 21
97.82098020641317
 31
0.0
  0
LINE
  5
2B8
330
1F
100
AcDbEntity
  8
0
  6
Continuous
347
0
 62
     7
100
AcDbLine
 10
3.738323483103347
 20
97.82098020641317
 30
0.0
 11
3.738323483103347
 21
88.8209802054331
 31
0.0
  0
LINE
  5
2B9
330
1F
100
AcDbEntity
  8
0
  6
Continuous
347
0
 62
     7
100
AcDbLine
 10
73.47632674494335
 20
100.4333049969931
 30
0.0
 11
73.56464512558335
 21
100.5369223310332
 31
0.0
  0
LINE
  5
2BA
330
1F
100
AcDbEntity
  8
0
  6
Continuous
347
0
 62
     7
100
AcDbLine
 10
82.30266795938334
 20
110.0322613083131
 30
0.0
 11
80.79657455298334
 21
108.5261679095331
 31
0.0
  0
LINE
  5
2BB
330
1F
100
AcDbEntity
  8
0
  6
Continuous
347
0
 62
     7
100
AcDbLine
 10
80.92535358930337
 20
108.5067906660931
 30
0.0
 11
82.32034219378335
 21
109.9017792629531
 31
0.0
  0
LINE
  5
2BC
330
1F
100
AcDbEntity
  8
0
  6
Continuous
347
0
 62
     7
100
AcDbLine
 10
73.49460872006333
 20
99.89617323407316
 30
0.0
 11
72.77578114578336
 21
99.19368332587317
 31
0.0
  0
LINE
  5
2BD
330
1F
100
AcDbEntity
  8
0
  6
Continuous
347
0
 62
     7
100
AcDbLine
 10
72.87094054144333
 20
99.09631094505312
 30
0.0
 11
73.58976799126336
 21
99.79880073387315
 31
0.0
  0
LINE
  5
2BE
330
1F
100
AcDbEntity
  8
0
  6
Continuous
347
0
 62
     7
100
AcDbLine
 10
72.77578114578336
 20
-59.15082771878686
 30
0.0
 11
73.49460872006333
 21
-59.85331762698684
 31
0.0
  0
LINE
  5
2BF
330
1F
100
AcDbEntity
  8
0
  6
Continuous
347
0
 62
     7
100
AcDbLine
 10
73.58976811064332
 20
-59.75594528172687
 30
0.0
 11
72.87094041444337
 21
-59.05345525414685
 31
0.0
  0
LINE
  5
2C0
330
1F
100
AcDbEntity
  8
0
  6
Continuous
347
0
 62
     7
100
AcDbLine
 10
80.79657455806336
 20
-68.48331229990686
 30
0.0
 11
82.25900520952334
 21
-69.94574295136687
 31
0.0
  0
LINE
  5
2C1
330
1F
100
AcDbEntity
  8
0
  6
Continuous
347
0
 62
     7
100
AcDbLine
 10
82.25814880788337
 20
-69.79673026996687
 30
0.0
 11
80.92535358930337
 21
-68.46393503106685
 31
0.0
  0
LINE
  5
2C2
330
1F
100
AcDbEntity
  8
0
  6
Continuous
347
0
 62
     7
100
AcDbLine
 10
73.5646451306634
 20
-60.49406671886687
 30
0.0
 11
73.47632674748334
 21
-60.39044938736686
 31
0.0
  0
LINE
  5
2C3
330
1F
100
AcDbEntity
  8
0
  6
Continuous
347
0
 62
     7
100
AcDbLine
 10
5.345466339423355
 20
88.8209802054331
 30
0.0
 11
5.345466339423355
 21
97.82098020641317
 31
0.0
  0
LINE
  5
2C4
330
1F
100
AcDbEntity
  8
0
  6
Continuous
347
0
 62
     7
100
AcDbLine
 10
7.595466337763373
 20
92.51740877649317
 30
0.0
 11
7.595466337763373
 21
90.42812306429317
 31
0.0
  0
LINE
  5
2C5
330
1F
100
AcDbEntity
  8
0
  6
Continuous
347
0
 62
     7
100
AcDbLine
 10
7.595466340303373
 20
94.12455163281311
 30
0.0
 11
7.595466340303373
 21
96.21383734755312
 31
0.0
  0
LINE
  5
2C6
330
1F
100
AcDbEntity
  8
0
  6
Continuous
347
0
 62
     7
100
AcDbLine
 10
9.05012366974336
 20
127.6470533506931
 30
0.0
 11
9.05012366974336
 21
127.3266876871331
 31
0.0
  0
LINE
  5
2C7
330
1F
100
AcDbEntity
  8
0
  6
Continuous
347
0
 62
     7
100
AcDbLine
 10
9.05012366974336
 20
-84.95368676828684
 30
0.0
 11
9.05012366974336
 21
-85.31807923482685
 31
0.0
  0
LINE
  5
2C8
330
1F
100
AcDbEntity
  8
0
  6
Continuous
347
0
 62
     7
100
AcDbLine
 10
9.05012366974336
 20
-87.60419774360687
 30
0.0
 11
9.05012366974336
 21
-87.28383208004686
 31
0.0
  0
LINE
  5
2C9
330
1F
100
AcDbEntity
  8
0
  6
Continuous
347
0
 62
     7
100
AcDbLine
 10
9.05012366974336
 20
124.9965423753732
 30
0.0
 11
9.05012366974336
 21
125.3609348419132
 31
0.0
  0
LINE
  5
2CA
330
1F
100
AcDbEntity
  8
0
  6
Continuous
347
0
 62
     7
100
AcDbLine
 10
72.20492422806333
 20
99.06686961709309
 30
0.0
 11
72.29112046664335
 21
99.17225888053318
 31
0.0
  0
LINE
  5
2CF
330
1F
100
AcDbEntity
  8
0
  6
Continuous
347
0
 62
     7
100
AcDbLine
 10
87.47974900474335
 20
106.4125263710131
 30
0.0
 11
86.81744402760336
 21
105.6773205262131
 31
0.0
  0
LINE
  5
2D0
330
1F
100
AcDbEntity
  8
0
  6
Continuous
347
0
 62
     7
100
AcDbLine
 10
86.80625183764334
 20
105.3115416946531
 30
0.0
 11
87.83135718138334
 21
106.4494818800331
 31
0.0
  0
LINE
  5
2D3
330
1F
100
AcDbEntity
  8
0
  6
Continuous
347
0
 62
     7
100
AcDbLine
 10
86.81744403014335
 20
-65.63446491912686
 30
0.0
 11
87.47974900474335
 21
-66.36967076392688
 31
0.0
  0
LINE
  5
2D4
330
1F
100
AcDbEntity
  8
0
  6
Continuous
347
0
 62
     7
100
AcDbLine
 10
87.83135718138334
 20
-66.40662624246687
 30
0.0
 11
86.74726738868338
 21
-65.20320917508684
 31
0.0
  0
LINE
  5
2D6
330
1F
100
AcDbEntity
  8
0
  6
Continuous
347
0
 62
     7
100
AcDbLine
 10
72.29112045902335
 20
-59.12940328106685
 30
0.0
 11
72.20492421790334
 21
-59.02401402016685
 31
0.0
  0
LINE
  5
2D8
330
1F
100
AcDbEntity
  8
0
  6
Continuous
347
0
 62
     7
100
AcDbLine
 10
17.61118062684336
 20
91.39240877605309
 30
0.0
 11
17.61118062684336
 21
95.24955163579315
 31
0.0
  0
LINE
  5
2D9
330
1F
100
AcDbEntity
  8
0
  6
Continuous
347
0
 62
     7
100
AcDbLine
 10
19.57963420326336
 20
91.47276591785311
 30
0.0
 11
19.57963420326336
 21
95.16919449145317
 31
0.0
  0
LINE
  5
2F0
330
1F
100
AcDbEntity
  8
0
  6
Continuous
347
0
 62
     7
100
AcDbLine
 10
25.55558419190337
 20
95.16919449145317
 30
0.0
 11
25.55558419190337
 21
91.47276591785311
 31
0.0
  0
LINE
  5
2F1
330
1F
100
AcDbEntity
  8
0
  6
Continuous
347
0
 62
     7
100
AcDbLine
 10
27.52403776832335
 20
95.24955163071309
 30
0.0
 11
27.52403776832335
 21
91.39240877605309
 31
0.0
  0
LINE
  5
2F2
330
1F
100
AcDbEntity
  8
0
  6
Continuous
347
0
 62
     7
100
AcDbLine
 10
86.53135716772334
 20
102.7704093601131
 30
0.0
 11
85.18989733858336
 21
100.5437953068731
 31
0.0
  0
LINE
  5
303
330
1F
100
AcDbEntity
  8
0
  6
Continuous
347
0
 62
     7
100
AcDbLine
 10
85.18989733858336
 20
-60.50093969978686
 30
0.0
 11
86.53135718296335
 21
-62.72755373778686
 31
0.0
  0
LINE
  5
30A
330
1F
100
AcDbEntity
  8
0
  6
Continuous
347
0
 62
     7
100
AcDbLine
 10
65.35603568558332
 20
-80.78758806976685
 30
0.0
 11
65.35677044916335
 21
-80.79456983888687
 31
0.0
  0
LINE
  5
30B
330
1F
100
AcDbEntity
  8
0
  6
Continuous
347
0
 62
     7
100
AcDbLine
 10
65.35687083758336
 20
120.8373227055131
 30
0.0
 11
65.35613606892333
 21
120.8303409338531
 31
0.0
  0
LINE
  5
30C
330
1F
100
AcDbEntity
  8
0
  6
Continuous
347
0
 62
     7
100
AcDbLine
 10
70.67336492898335
 20
-82.98829669602685
 30
0.0
 11
70.71023164468338
 21
-83.33906001786687
 31
0.0
  0
LINE
  5
30D
330
1F
100
AcDbEntity
  8
0
  6
Continuous
347
0
 62
     7
100
AcDbLine
 10
70.71023164468338
 20
123.3819156249531
 30
0.0
 11
70.67336492898335
 21
123.0311523031131
 31
0.0
  0
LINE
  5
312
330
1F
100
AcDbEntity
  8
0
  6
Continuous
347
0
 62
     7
100
AcDbLine
 10
38.09903776890335
 20
88.8209802054331
 30
0.0
 11
35.36011331026336
 21
88.8209802054331
 31
0.0
  0
LINE
  5
313
330
1F
100
AcDbEntity
  8
0
  6
Continuous
347
0
 62
     7
100
AcDbLine
 10
30.29510508368338
 20
88.8209802054331
 30
0.0
 11
27.55618062758334
 21
88.8209802054331
 31
0.0
  0
LINE
  5
314
330
1F
100
AcDbEntity
  8
0
  6
Continuous
347
0
 62
     7
100
AcDbLine
 10
24.95260920532337
 20
88.8209802054331
 30
0.0
 11
20.18260919238336
 21
88.8209802054331
 31
0.0
  0
LINE
  5
315
330
1F
100
AcDbEntity
  8
0
  6
Continuous
347
0
 62
     7
100
AcDbLine
 10
13.70260919838335
 20
88.8209802054331
 30
0.0
 11
5.345466339423355
 21
88.8209802054331
 31
0.0
  0
LINE
  5
316
330
1F
100
AcDbEntity
  8
0
  6
Continuous
347
0
 62
     7
100
AcDbLine
 10
3.738323483103347
 20
88.8209802054331
 30
0.0
 11
1.488323482223374
 21
88.8209802054331
 31
0.0
  0
LINE
  5
317
330
1F
100
AcDbEntity
  8
0
  6
Continuous
347
0
 62
     7
100
AcDbLine
 10
-7.511676518756627
 20
88.8209802054331
 30
0.0
 11
-9.761676517096644
 21
88.8209802054331
 31
0.0
  0
LINE
  5
318
330
1F
100
AcDbEntity
  8
0
  6
Continuous
347
0
 62
     7
100
AcDbLine
 10
7.595466337763373
 20
90.42812306429317
 30
0.0
 11
12.73832348662335
 21
90.42812306429317
 31
0.0
  0
LINE
  5
319
330
1F
100
AcDbEntity
  8
0
  6
Continuous
347
0
 62
     7
100
AcDbLine
 10
24.59516812442335
 20
90.51234985037314
 30
0.0
 11
20.54005027074338
 21
90.51234985037314
 31
0.0
  0
LINE
  5
31A
330
1F
100
AcDbEntity
  8
0
  6
Continuous
347
0
 62
     7
100
AcDbLine
 10
35.36011331026336
 20
88.8209802054331
 30
0.0
 11
32.82760919824337
 21
91.53574262705311
 31
0.0
  0
LINE
  5
31B
330
1F
100
AcDbEntity
  8
0
  6
Continuous
347
0
 62
     7
100
AcDbLine
 10
31.45814697146335
 20
93.32098020465315
 30
0.0
 11
27.55618062758334
 21
97.82098020641317
 31
0.0
  0
LINE
  5
31C
330
1F
100
AcDbEntity
  8
0
  6
Continuous
347
0
 62
     7
100
AcDbLine
 10
34.19707142502334
 20
93.32098020465315
 30
0.0
 11
38.09903776890335
 21
88.8209802054331
 31
0.0
  0
LINE
  5
31D
330
1F
100
AcDbEntity
  8
0
  6
Continuous
347
0
 62
     7
100
AcDbLine
 10
86.74726737598334
 20
-65.20320916238688
 30
0.0
 11
86.81744403014335
 21
-65.63446492166685
 31
0.0
  0
LINE
  5
31E
330
1F
100
AcDbEntity
  8
0
  6
Continuous
347
0
 62
     7
100
AcDbLine
 10
84.42056641852335
 20
-82.87533207562686
 30
0.0
 11
84.42177134118339
 21
-82.98001107378684
 31
0.0
  0
LINE
  5
31F
330
1F
100
AcDbEntity
  8
0
  6
Continuous
347
0
 62
     7
100
AcDbLine
 10
82.25900520952334
 20
-69.94574295136687
 30
0.0
 11
82.25814880788337
 21
-69.79673027250686
 31
0.0
  0
LINE
  5
320
330
1F
100
AcDbEntity
  8
0
  6
Continuous
347
0
 62
     7
100
AcDbLine
 10
84.42177133864334
 20
123.0228666757932
 30
0.0
 11
84.42056742944334
 21
122.9181876547731
 31
0.0
  0
LINE
  5
321
330
1F
100
AcDbEntity
  8
0
  6
Continuous
347
0
 62
     7
100
AcDbLine
 10
86.81744402760336
 20
105.6773205287531
 30
0.0
 11
86.80625184272338
 21
105.3115416997331
 31
0.0
  0
LINE
  5
322
330
1F
100
AcDbEntity
  8
0
  6
Continuous
347
0
 62
     7
100
AcDbLine
 10
87.47974900728337
 20
106.4125263684731
 30
0.0
 11
87.83135718392333
 21
106.4494818774932
 31
0.0
  0
LINE
  5
323
330
1F
100
AcDbEntity
  8
0
  6
Continuous
347
0
 62
     7
100
AcDbLine
 10
85.18291556438334
 20
100.5423727773332
 30
0.0
 11
85.18989733604334
 21
100.5430840408332
 31
0.0
  0
LINE
  5
324
330
1F
100
AcDbEntity
  8
0
  6
Continuous
347
0
 62
     7
100
AcDbLine
 10
12.73832347392335
 20
92.51740877649317
 30
0.0
 11
7.595466337763373
 21
92.51740877649317
 31
0.0
  0
LINE
  5
325
330
1F
100
AcDbEntity
  8
0
  6
Continuous
347
0
 62
     7
100
AcDbLine
 10
-1.083105088396658
 20
92.51740877649317
 30
0.0
 11
-7.511676518756627
 21
92.51740877649317
 31
0.0
  0
LINE
  5
326
330
1F
100
AcDbEntity
  8
0
  6
Continuous
347
0
 62
     7
100
AcDbLine
 10
12.73832348154335
 20
94.12455163281311
 30
0.0
 11
7.595466337763373
 21
94.12455163281311
 31
0.0
  0
LINE
  5
327
330
1F
100
AcDbEntity
  8
0
  6
Continuous
347
0
 62
     7
100
AcDbLine
 10
-7.511676518756627
 20
94.12455163281311
 30
0.0
 11
-1.083105088396658
 21
94.12455163281311
 31
0.0
  0
LINE
  5
328
330
1F
100
AcDbEntity
  8
0
  6
Continuous
347
0
 62
     7
100
AcDbLine
 10
20.54005027074338
 20
96.12961055893314
 30
0.0
 11
24.59516812442335
 21
96.12961055893314
 31
0.0
  0
LINE
  5
329
330
1F
100
AcDbEntity
  8
0
  6
Continuous
347
0
 62
     7
100
AcDbLine
 10
-0.1188193740966348
 20
96.21383734755312
 30
0.0
 11
-7.511676518756627
 21
96.21383734755312
 31
0.0
  0
LINE
  5
32A
330
1F
100
AcDbEntity
  8
0
  6
Continuous
347
0
 62
     7
100
AcDbLine
 10
7.595466337763373
 20
96.21383734755312
 30
0.0
 11
12.73832348154335
 21
96.21383734755312
 31
0.0
  0
LINE
  5
32B
330
1F
100
AcDbEntity
  8
0
  6
Continuous
347
0
 62
     7
100
AcDbLine
 10
-9.761676517096644
 20
97.82098020641317
 30
0.0
 11
-0.1188193740966348
 21
97.82098020641317
 31
0.0
  0
LINE
  5
32C
330
1F
100
AcDbEntity
  8
0
  6
Continuous
347
0
 62
     7
100
AcDbLine
 10
1.488323482223374
 20
97.82098020641317
 30
0.0
 11
3.738323483103347
 21
97.82098020641317
 31
0.0
  0
LINE
  5
32D
330
1F
100
AcDbEntity
  8
0
  6
Continuous
347
0
 62
     7
100
AcDbLine
 10
5.345466339423355
 20
97.82098020641317
 30
0.0
 11
13.70260919584337
 21
97.82098020641317
 31
0.0
  0
LINE
  5
32E
330
1F
100
AcDbEntity
  8
0
  6
Continuous
347
0
 62
     7
100
AcDbLine
 10
20.18260919492337
 20
97.82098020641317
 30
0.0
 11
24.95260919770337
 21
97.82098020641317
 31
0.0
  0
LINE
  5
32F
330
1F
100
AcDbEntity
  8
0
  6
Continuous
347
0
 62
     7
100
AcDbLine
 10
27.55618062758334
 20
97.82098020641317
 30
0.0
 11
30.29510508368338
 21
97.82098020641317
 31
0.0
  0
LINE
  5
330
330
1F
100
AcDbEntity
  8
0
  6
Continuous
347
0
 62
     7
100
AcDbLine
 10
35.36011331026336
 20
97.82098020641317
 30
0.0
 11
38.09903776890335
 21
97.82098020641317
 31
0.0
  0
LINE
  5
334
330
1F
100
AcDbEntity
  8
0
  6
Continuous
347
0
 62
     7
100
AcDbLine
 10
30.29510508368338
 20
97.82098020641317
 30
0.0
 11
32.82760919824337
 21
95.10621778225311
 31
0.0
  0
LINE
  5
335
330
1F
100
AcDbEntity
  8
0
  6
Continuous
347
0
 62
     7
100
AcDbLine
 10
85.18291556692336
 20
100.5409502554131
 30
0.0
 11
85.18291556692336
 21
-60.49809462038686
 31
0.0
  0
LINE
  5
336
330
1F
100
AcDbEntity
  8
0
  6
Continuous
347
0
 62
     7
100
AcDbLine
 10
86.53135717788336
 20
-62.72755373524686
 30
0.0
 11
86.53135717788336
 21
102.7704093702731
 31
0.0
  0
LINE
  5
337
330
1F
100
AcDbEntity
  8
0
  6
Continuous
347
0
 62
     7
100
AcDbLine
 10
87.47974900474335
 20
113.7273615381131
 30
0.0
 11
87.47974900474335
 21
106.4125263710131
 31
0.0
  0
LINE
  5
338
330
1F
100
AcDbEntity
  8
0
  6
Continuous
347
0
 62
     7
100
AcDbLine
 10
87.47974900474335
 20
-66.36967076392688
 30
0.0
 11
87.47974900474335
 21
-73.68450593102685
 31
0.0
  0
LINE
  5
339
330
1F
100
AcDbEntity
  8
0
  6
Continuous
347
0
 62
     7
100
AcDbLine
 10
87.72659487122334
 20
119.5219558569532
 30
0.0
 11
87.72659487122334
 21
114.7872129591731
 31
0.0
  0
LINE
  5
33A
330
1F
100
AcDbEntity
  8
0
  6
Continuous
347
0
 62
     7
100
AcDbLine
 10
87.72659487122334
 20
-79.48013921908685
 30
0.0
 11
87.72659487122334
 21
-74.74435735970687
 31
0.0
  0
LINE
  5
33B
330
1F
100
AcDbEntity
  8
0
  6
Continuous
347
0
 62
     7
100
AcDbLine
 10
87.83135718138334
 20
-66.38814850446684
 30
0.0
 11
87.83135718138334
 21
106.4310041242531
 31
0.0
  0
LINE
  5
33C
330
1F
100
AcDbEntity
  8
0
  6
Continuous
347
0
 62
     7
100
AcDbLine
 10
88.19562479930335
 20
-79.83798502104685
 30
0.0
 11
88.19562479930335
 21
119.8808407424331
 31
0.0
  0
LINE
  5
33D
330
1F
100
AcDbEntity
  8
0
  6
Continuous
347
0
 62
     7
100
AcDbLine
 10
90.16070400858337
 20
119.8476845501731
 30
0.0
 11
90.16070400858337
 21
-79.80493048974685
 31
0.0
  0
LINE
  5
33E
330
1F
100
AcDbEntity
  8
0
  6
Continuous
347
0
 62
     7
100
AcDbLine
 10
90.47686912936337
 20
120.1561278931532
 30
0.0
 11
90.47686912936337
 21
-80.11327228606683
 31
0.0
  0
LINE
  5
33F
330
1F
100
AcDbEntity
  8
0
  6
Continuous
347
0
 62
     7
100
AcDbLine
 10
73.11498266956335
 20
-76.34355344756685
 30
0.0
 11
73.09730843770339
 21
-76.47403549546686
 31
0.0
  0
LINE
  5
340
330
1F
100
AcDbEntity
  8
0
  6
Continuous
347
0
 62
     7
100
AcDbLine
 10
69.81328164788334
 20
122.5738808452932
 30
0.0
 11
70.23976913628337
 21
122.6405391193931
 31
0.0
  0
LINE
  5
341
330
1F
100
AcDbEntity
  8
0
  6
Continuous
347
0
 62
     7
100
AcDbLine
 10
73.09730843770339
 20
116.5168911000131
 30
0.0
 11
73.11498267210334
 21
116.3864090521132
 31
0.0
  0
LINE
  5
342
330
1F
100
AcDbEntity
  8
0
  6
Continuous
347
0
 62
     7
100
AcDbLine
 10
82.32034219378335
 20
109.9017792629531
 30
0.0
 11
82.30266795176334
 21
110.0322613743531
 31
0.0
  0
LINE
  5
343
330
1F
100
AcDbEntity
  8
0
  6
Continuous
347
0
 62
     7
100
AcDbLine
 10
95.32686197444335
 20
124.9058191328931
 30
0.0
 11
95.32686197444335
 21
-84.86296352580686
 31
0.0
  0
LINE
  5
344
330
1F
100
AcDbEntity
  8
0
  6
Continuous
347
0
 62
     7
100
AcDbLine
 10
95.55464619502337
 20
130.7774457208332
 30
0.0
 11
95.55464619502337
 21
125.2568880446731
 31
0.0
  0
LINE
  5
345
330
1F
100
AcDbEntity
  8
0
  6
Continuous
347
0
 62
     7
100
AcDbLine
 10
95.55464619502337
 20
-85.21403243758684
 30
0.0
 11
95.55464619502337
 21
-90.73451795742685
 31
0.0
  0
LINE
  5
346
330
1F
100
AcDbEntity
  8
0
  6
Continuous
347
0
 62
     7
100
AcDbLine
 10
95.69432926592336
 20
-90.87416595854685
 30
0.0
 11
95.69432926592336
 21
130.9170218018531
 31
0.0
  0
LINE
  5
347
330
1F
100
AcDbEntity
  8
0
  6
Continuous
347
0
 62
     7
100
AcDbLine
 10
98.69615790538336
 20
-90.87795686790687
 30
0.0
 11
98.69615790538336
 21
130.9208124749931
 31
0.0
  0
LINE
  5
34A
330
1F
100
AcDbEntity
  8
0
  6
Continuous
347
0
 62
     7
100
AcDbLine
 10
87.72659487122334
 20
119.5229948261731
 30
0.0
 11
87.83135749634337
 21
119.5235143171331
 31
0.0
  0
LINE
  5
34B
330
1F
100
AcDbEntity
  8
0
  6
Continuous
347
0
 62
     7
100
AcDbLine
 10
-47.25441918957664
 20
120.8303409313131
 30
0.0
 11
65.35466653160334
 21
120.8303409313131
 31
0.0
  0
LINE
  5
34E
330
1F
100
AcDbEntity
  8
0
  6
Continuous
347
0
 62
     7
100
AcDbLine
 10
74.57741331848334
 20
117.8488397061131
 30
0.0
 11
74.43010365628336
 21
117.8496863211331
 31
0.0
  0
LINE
  5
34F
330
1F
100
AcDbEntity
  8
0
  6
Continuous
347
0
 62
     7
100
AcDbLine
 10
80.79657455298334
 20
108.5261679095331
 30
0.0
 11
80.92535358168337
 21
108.5067906610131
 31
0.0
  0
LINE
  5
351
330
1F
100
AcDbEntity
  8
0
  6
Continuous
347
0
 62
     7
100
AcDbLine
 10
72.87094048556332
 20
-59.05345529732686
 30
0.0
 11
72.77578115594335
 21
-59.15082772894687
 31
0.0
  0
LINE
  5
352
330
1F
100
AcDbEntity
  8
0
  6
Continuous
347
0
 62
     7
100
AcDbLine
 10
73.49460872514334
 20
-59.85331762952685
 30
0.0
 11
73.58976805476337
 21
-59.75594520044687
 31
0.0
  0
LINE
  5
355
330
1F
100
AcDbEntity
  8
0
  6
Continuous
347
0
 62
     7
100
AcDbLine
 10
-52.60998430265664
 20
123.3819156249531
 30
0.0
 11
9.05012366974336
 21
124.9965423753732
 31
0.0
  0
LINE
  5
356
330
1F
100
AcDbEntity
  8
0
  6
Continuous
347
0
 62
     7
100
AcDbLine
 10
-66.68907302021663
 20
123.3776341780931
 30
0.0
 11
9.05012366974336
 21
125.3609348419132
 31
0.0
  0
LINE
  5
357
330
1F
100
AcDbEntity
  8
0
  6
Continuous
347
0
 62
     7
100
AcDbLine
 10
9.05012366974336
 20
127.3266876871331
 30
0.0
 11
-66.70769259943663
 21
125.3428994525331
 31
0.0
  0
LINE
  5
358
330
1F
100
AcDbEntity
  8
0
  6
Continuous
347
0
 62
     7
100
AcDbLine
 10
-65.21706753903663
 20
125.7166322382131
 30
0.0
 11
9.05012366974336
 21
127.6470533506931
 31
0.0
  0
LINE
  5
359
330
1F
100
AcDbEntity
  8
0
  6
Continuous
347
0
 62
     7
100
AcDbLine
 10
67.56410166314333
 20
122.1787825448131
 30
0.0
 11
-49.46385432111664
 21
122.1787825448131
 31
0.0
  0
LINE
  5
35A
330
1F
100
AcDbEntity
  8
0
  6
Continuous
347
0
 62
     7
100
AcDbLine
 10
9.05012366974336
 20
127.6470533506931
 30
0.0
 11
83.31731490392335
 21
125.7166322356731
 31
0.0
  0
LINE
  5
35B
330
1F
100
AcDbEntity
  8
0
  6
Continuous
347
0
 62
     7
100
AcDbLine
 10
70.67336492644336
 20
123.0311523081932
 30
0.0
 11
78.00036212408335
 21
122.8392881351531
 31
0.0
  0
LINE
  5
35C
330
1F
100
AcDbEntity
  8
0
  6
Continuous
347
0
 62
     7
100
AcDbLine
 10
78.90659326310333
 20
123.0624881180131
 30
0.0
 11
84.41815657828334
 21
122.9181627551531
 31
0.0
  0
LINE
  5
35D
330
1F
100
AcDbEntity
  8
0
  6
Continuous
347
0
 62
     7
100
AcDbLine
 10
9.05012366974336
 20
124.9965423753732
 30
0.0
 11
70.71023164468338
 21
123.3819156249531
 31
0.0
  0
LINE
  5
35E
330
1F
100
AcDbEntity
  8
0
  6
Continuous
347
0
 62
     7
100
AcDbLine
 10
9.05012366974336
 20
125.3609348419132
 30
0.0
 11
84.78932036224336
 21
123.3776341780931
 31
0.0
  0
LINE
  5
35F
330
1F
100
AcDbEntity
  8
0
  6
Continuous
347
0
 62
     7
100
AcDbLine
 10
84.80793993892337
 20
125.3428994525331
 30
0.0
 11
9.05012366974336
 21
127.3266876871331
 31
0.0
  0
LINE
  5
360
330
1F
100
AcDbEntity
  8
0
  6
Continuous
347
0
 62
     7
100
AcDbLine
 10
72.77578114578336
 20
99.19368332587317
 30
0.0
 11
72.87094047540333
 21
99.09631089425312
 31
0.0
  0
LINE
  5
361
330
1F
100
AcDbEntity
  8
0
  6
Continuous
347
0
 62
     7
100
AcDbLine
 10
73.58976804460332
 20
99.79880079737316
 30
0.0
 11
73.49460871498334
 21
99.89617322645316
 31
0.0
  0
LINE
  5
362
330
1F
100
AcDbEntity
  8
0
  6
Continuous
347
0
 62
     7
100
AcDbLine
 10
85.18291556692336
 20
-60.49809462038686
 30
0.0
 11
65.35456615842334
 21
-80.78758806976685
 31
0.0
  0
LINE
  5
363
330
1F
100
AcDbEntity
  8
0
  6
Continuous
347
0
 62
     7
100
AcDbLine
 10
73.11498267210334
 20
-76.34355344756685
 30
0.0
 11
80.79657455806336
 21
-68.48331229990686
 31
0.0
  0
LINE
  5
364
330
1F
100
AcDbEntity
  8
0
  6
Continuous
347
0
 62
     7
100
AcDbLine
 10
67.56400129504333
 20
-82.13602968326686
 30
0.0
 11
73.09730843770339
 21
-76.47403549546686
 31
0.0
  0
LINE
  5
365
330
1F
100
AcDbEntity
  8
0
  6
Continuous
347
0
 62
     7
100
AcDbLine
 10
80.92535358930337
 20
-68.46393503106685
 30
0.0
 11
86.53135717788336
 21
-62.72755373524686
 31
0.0
  0
LINE
  5
366
330
1F
100
AcDbEntity
  8
0
  6
Continuous
347
0
 62
     7
100
AcDbLine
 10
86.74726738868338
 20
-65.20320917508684
 30
0.0
 11
82.25814880788337
 21
-69.79673026996687
 31
0.0
  0
LINE
  5
367
330
1F
100
AcDbEntity
  8
0
  6
Continuous
347
0
 62
     7
100
AcDbLine
 10
74.43010365628336
 20
-77.80683071404684
 30
0.0
 11
69.81328163772338
 21
-82.53102522804684
 31
0.0
  0
LINE
  5
368
330
1F
100
AcDbEntity
  8
0
  6
Continuous
347
0
 62
     7
100
AcDbLine
 10
82.25900520952334
 20
-69.94574295136687
 30
0.0
 11
81.58547977984338
 21
-70.63493242896686
 31
0.0
  0
LINE
  5
369
330
1F
100
AcDbEntity
  8
0
  6
Continuous
347
0
 62
     7
100
AcDbLine
 10
75.17682935612333
 20
-77.19262756856685
 30
0.0
 11
74.57741331848334
 21
-77.80598409902686
 31
0.0
  0
LINE
  5
36A
330
1F
100
AcDbEntity
  8
0
  6
Continuous
347
0
 62
     7
100
AcDbLine
 10
70.23976913120336
 20
-82.59768351484686
 30
0.0
 11
74.53225711720336
 21
-78.20536599012686
 31
0.0
  0
LINE
  5
36B
330
1F
100
AcDbEntity
  8
0
  6
Continuous
347
0
 62
     7
100
AcDbLine
 10
82.58313025342338
 20
-69.96725530102685
 30
0.0
 11
86.81744403014335
 21
-65.63446491912686
 31
0.0
  0
LINE
  5
36C
330
1F
100
AcDbEntity
  8
0
  6
Continuous
347
0
 62
     7
100
AcDbLine
 10
86.74078020836336
 20
133.0481661069932
 30
0.0
 11
-68.64057222871662
 21
133.0481661069932
 31
0.0
  0
LINE
  5
36E
330
1F
100
AcDbEntity
  8
0
  6
Continuous
347
0
 62
     7
100
AcDbLine
 10
87.06391584860333
 20
133.2759503275732
 30
0.0
 11
93.05614159082336
 21
133.2759503275732
 31
0.0
  0
LINE
  5
36F
330
1F
100
AcDbEntity
  8
0
  6
Continuous
347
0
 62
     7
100
AcDbLine
 10
93.19571767184337
 20
133.4156334238731
 30
0.0
 11
-75.09547010629663
 21
133.4156334238731
 31
0.0
  0
LINE
  5
370
330
1F
100
AcDbEntity
  8
0
  6
Continuous
347
0
 62
     7
100
AcDbLine
 10
93.19950831450333
 20
136.4174620404731
 30
0.0
 11
-75.09926097501665
 21
136.4174620404731
 31
0.0
  0
LINE
  5
371
330
1F
100
AcDbEntity
  8
0
  6
Continuous
347
0
 62
     7
100
AcDbLine
 10
65.35466653160334
 20
120.8303409313131
 30
0.0
 11
85.18291556692336
 21
100.5409502554131
 31
0.0
  0
LINE
  5
372
330
1F
100
AcDbEntity
  8
0
  6
Continuous
347
0
 62
     7
100
AcDbLine
 10
80.79657455298334
 20
108.5261679095331
 30
0.0
 11
73.11498267210334
 21
116.3864090521132
 31
0.0
  0
LINE
  5
373
330
1F
100
AcDbEntity
  8
0
  6
Continuous
347
0
 62
     7
100
AcDbLine
 10
86.53135717788336
 20
102.7704093702731
 30
0.0
 11
80.92535358930337
 21
108.5067906660931
 31
0.0
  0
LINE
  5
374
330
1F
100
AcDbEntity
  8
0
  6
Continuous
347
0
 62
     7
100
AcDbLine
 10
73.09730843770339
 20
116.5168911000131
 30
0.0
 11
67.56410166314333
 21
122.1787825448131
 31
0.0
  0
LINE
  5
375
330
1F
100
AcDbEntity
  8
0
  6
Continuous
347
0
 62
     7
100
AcDbLine
 10
69.81328163772338
 20
122.5738808351331
 30
0.0
 11
74.43010365628336
 21
117.8496863211331
 31
0.0
  0
LINE
  5
376
330
1F
100
AcDbEntity
  8
0
  6
Continuous
347
0
 62
     7
100
AcDbLine
 10
82.32034219378335
 20
109.9017792629531
 30
0.0
 11
86.80625183764334
 21
105.3115416946531
 31
0.0
  0
LINE
  5
377
330
1F
100
AcDbEntity
  8
0
  6
Continuous
347
0
 62
     7
100
AcDbLine
 10
74.57741331848334
 20
117.8488397061131
 30
0.0
 11
75.17682935612333
 21
117.2354831731131
 31
0.0
  0
LINE
  5
378
330
1F
100
AcDbEntity
  8
0
  6
Continuous
347
0
 62
     7
100
AcDbLine
 10
86.81744402760336
 20
105.6773205262131
 30
0.0
 11
82.58326081704334
 21
110.0099773015731
 31
0.0
  0
LINE
  5
379
330
1F
100
AcDbEntity
  8
0
  6
Continuous
347
0
 62
     7
100
AcDbLine
 10
74.53226103134335
 20
118.2482175941731
 30
0.0
 11
70.23976913120336
 21
122.6405391193931
 31
0.0
  0
LINE
  5
37A
330
1F
100
AcDbEntity
  8
0
  6
Continuous
347
0
 62
     7
100
AcDbLine
 10
81.67270556170337
 20
110.6770437246132
 30
0.0
 11
82.30266795938334
 21
110.0322613083131
 31
0.0
  0
LINE
  5
384
330
1F
100
AcDbEntity
  8
0
  6
Continuous
347
0
 62
     7
100
AcDbLine
 10
66.75346783356335
 20
-251.1773297153068
 30
0.0
 11
91.27981925066337
 21
-251.1773297153068
 31
0.0
  0
LINE
  5
385
330
1F
100
AcDbEntity
  8
0
  6
Continuous
347
0
 62
     7
100
AcDbLine
 10
-48.97017972299664
 20
-249.1773297148068
 30
0.0
 11
67.07042706502334
 21
-249.1773297148068
 31
0.0
  0
LINE
  5
387
330
1F
100
AcDbEntity
  8
0
  6
Continuous
347
0
 62
     7
100
AcDbLine
 10
91.87504483948334
 20
-151.5232851121868
 30
0.0
 11
96.29673293284333
 21
-150.5834262959469
 31
0.0
  0
LINE
  5
388
330
1F
100
AcDbEntity
  8
0
  6
Continuous
347
0
 62
     7
100
AcDbLine
 10
67.15966132394335
 20
-151.8907453932669
 30
0.0
 11
64.94557166272335
 21
-152.4571363280469
 31
0.0
  0
LINE
  5
389
330
1F
100
AcDbEntity
  8
0
  6
Continuous
347
0
 62
     7
100
AcDbLine
 10
90.78707567176335
 20
-150.5834257523868
 30
0.0
 11
84.63662032982336
 21
-151.8907453932669
 31
0.0
  0
LINE
  5
38E
330
1F
100
AcDbEntity
  8
0
  6
Continuous
347
0
 62
     7
100
AcDbLine
 10
-46.84532432323665
 20
-152.4571363280469
 30
0.0
 11
64.94557166272335
 21
-152.4571363280469
 31
0.0
  0
LINE
  5
38F
330
1F
100
AcDbEntity
  8
0
  6
Continuous
347
0
 62
     7
100
AcDbLine
 10
67.15966132394335
 20
-151.8907454110469
 30
0.0
 11
84.63662033236335
 21
-151.8907442604269
 31
0.0
  0
LINE
  5
391
330
1F
100
AcDbEntity
  8
0
  6
Continuous
347
0
 62
     7
100
AcDbLine
 10
90.78707567176335
 20
-150.5834257523868
 30
0.0
 11
-72.68682832973664
 21
-150.5834257523868
 31
0.0
  0
LINE
  5
392
330
1F
100
AcDbEntity
  8
0
  6
Continuous
347
0
 62
     7
100
AcDbLine
 10
-72.68682834243663
 20
-148.2253039459068
 30
0.0
 11
90.78707568192334
 21
-148.2253115125669
 31
0.0
  0
LINE
  5
393
330
1F
100
AcDbEntity
  8
0
  6
Continuous
347
0
 62
     7
100
AcDbLine
 10
-80.59591056589665
 20
-136.1773297132268
 30
0.0
 11
98.69615790538336
 21
-136.1773297132268
 31
0.0
  0
LINE
  5
394
330
1F
100
AcDbEntity
  8
0
  6
Continuous
347
0
 62
     7
100
AcDbLine
 10
66.75346783102334
 20
-251.1773297153068
 30
0.0
 11
66.73408349336333
 21
-249.1773297097268
 31
0.0
  0
LINE
  5
395
330
1F
100
AcDbEntity
  8
0
  6
Continuous
347
0
 62
     7
100
AcDbLine
 10
64.94557166272335
 20
-152.4571363280469
 30
0.0
 11
64.85685695572337
 21
-249.1773297148068
 31
0.0
  0
LINE
  5
396
330
1F
100
AcDbEntity
  8
0
  6
Continuous
347
0
 62
     7
100
AcDbLine
 10
67.07828476584336
 20
-251.1773297102268
 30
0.0
 11
67.15966132394335
 21
-151.8907454110469
 31
0.0
  0
LINE
  5
397
330
1F
100
AcDbEntity
  8
0
  6
Continuous
347
0
 62
     7
100
AcDbLine
 10
90.78707567430334
 20
-150.5834257523868
 30
0.0
 11
90.78707567430334
 21
-148.2253054927669
 31
0.0
  0
LINE
  5
398
330
1F
100
AcDbEntity
  8
0
  6
Continuous
347
0
 62
     7
100
AcDbLine
 10
86.64683527560334
 20
-151.8511308369868
 30
0.0
 11
85.78002867038336
 21
-251.1773297102268
 31
0.0
  0
LINE
  5
399
330
1F
100
AcDbEntity
  8
0
  6
Continuous
347
0
 62
     7
100
AcDbLine
 10
91.27981925066337
 20
-251.1773297153068
 30
0.0
 11
92.14999694642336
 21
-151.4648422394868
 31
0.0
  0
LINE
  5
39A
330
1F
100
AcDbEntity
  8
0
  6
Continuous
347
0
 62
     7
100
AcDbLine
 10
93.19950831450333
 20
-136.1773297132268
 30
0.0
 11
92.78029083442334
 21
-148.1821493027269
 31
0.0
  0
LINE
  5
39B
330
1F
100
AcDbEntity
  8
0
  6
Continuous
347
0
 62
     7
100
AcDbLine
 10
98.27694089266336
 20
-148.1821343192669
 30
0.0
 11
98.69615790538336
 21
-136.1773297132268
 31
0.0
  0
LINE
  5
39C
330
1F
100
AcDbEntity
  8
0
  6
Continuous
347
0
 62
     7
100
AcDbLine
 10
195.7999785005034
 20
-95.95538899648685
 30
0.0
 11
183.7951630613633
 21
-96.37460639020688
 31
0.0
  0
LINE
  5
39D
330
1F
100
AcDbEntity
  8
0
  6
Continuous
347
0
 62
     7
100
AcDbLine
 10
195.7999664507434
 20
-90.45873989836687
 30
0.0
 11
183.7951618447034
 21
-90.87795686790687
 31
0.0
  0
LINE
  5
39E
330
1F
100
AcDbEntity
  8
0
  6
Continuous
347
0
 62
     7
100
AcDbLine
 10
199.4689629684634
 20
-87.82507438338686
 30
0.0
 11
298.7951618417034
 21
-86.95826777562687
 31
0.0
  0
LINE
  5
39F
330
1F
100
AcDbEntity
  8
0
  6
Continuous
347
0
 62
     7
100
AcDbLine
 10
195.8431376242434
 20
-88.46552419976686
 30
0.0
 11
198.2012578838634
 21
-88.46552419976686
 31
0.0
  0
LINE
  5
3A0
330
1F
100
AcDbEntity
  8
0
  6
Continuous
347
0
 62
     7
100
AcDbLine
 10
298.7951618417034
 20
-81.45847720042684
 30
0.0
 11
199.0826743735034
 21
-82.32865486316686
 31
0.0
  0
LINE
  5
3A1
330
1F
100
AcDbEntity
  8
0
  6
Continuous
347
0
 62
     7
100
AcDbLine
 10
296.7951618462833
 20
-60.54464225398686
 30
0.0
 11
199.6466762858833
 21
-60.63374985072686
 31
0.0
  0
LINE
  5
3A2
330
1F
100
AcDbEntity
  8
0
  6
Continuous
347
0
 62
     7
100
AcDbLine
 10
199.0826743735034
 20
-62.83850050090685
 30
0.0
 11
298.7951618417034
 21
-62.75673328064686
 31
0.0
  0
LINE
  5
3A3
330
1F
100
AcDbEntity
  8
0
  6
Continuous
347
0
 62
     7
100
AcDbLine
 10
296.7951618488234
 20
-62.41253201832686
 30
0.0
 11
298.7951618467833
 21
-62.43191635598686
 31
0.0
  0
LINE
  5
3A4
330
1F
100
AcDbEntity
  8
0
  6
Continuous
347
0
 62
     7
100
AcDbLine
 10
183.7951618472433
 20
-96.37460643338687
 30
0.0
 11
183.7951618472433
 21
136.4174620404731
 31
0.0
  0
LINE
  5
3A5
330
1F
100
AcDbEntity
  8
0
  6
Continuous
347
0
 62
     7
100
AcDbLine
 10
195.8431361002434
 20
-88.46552422262687
 30
0.0
 11
195.8431436338833
 21
128.5083798271731
 31
0.0
  0
LINE
  5
3A6
330
1F
100
AcDbEntity
  8
0
  6
Continuous
347
0
 62
     7
100
AcDbLine
 10
198.2012578838634
 20
128.5083797916132
 30
0.0
 11
198.2012578838634
 21
-88.46552418452686
 31
0.0
  0
LINE
  5
3A7
330
1F
100
AcDbEntity
  8
0
  6
Continuous
347
0
 62
     7
100
AcDbLine
 10
198.2839939820434
 20
25.42142784299314
 30
0.0
 11
198.2839939820434
 21
14.62142776663315
 31
0.0
  0
LINE
  5
3A8
330
1F
100
AcDbEntity
  8
0
  6
Continuous
347
0
 62
     7
100
AcDbLine
 10
198.7102129492633
 20
25.42142784299314
 30
0.0
 11
198.7102129492633
 21
14.62142776663315
 31
0.0
  0
LINE
  5
3A9
330
1F
100
AcDbEntity
  8
0
  6
Continuous
347
0
 62
     7
100
AcDbLine
 10
199.0826743735034
 20
-82.32865486316686
 30
0.0
 11
199.0826743735034
 21
-62.83850050090685
 31
0.0
  0
LINE
  5
3AA
330
1F
100
AcDbEntity
  8
0
  6
Continuous
347
0
 62
     7
100
AcDbLine
 10
199.0833192236234
 20
102.8850143988732
 30
0.0
 11
199.0833192236234
 21
122.3715048416132
 31
0.0
  0
LINE
  5
3AB
330
1F
100
AcDbEntity
  8
0
  6
Continuous
347
0
 62
     7
100
AcDbLine
 10
199.6466762858833
 20
-60.63374985072686
 30
0.0
 11
199.6466762858833
 21
100.6712956690931
 31
0.0
  0
LINE
  5
3AC
330
1F
100
AcDbEntity
  8
0
  6
Continuous
347
0
 62
     7
100
AcDbLine
 10
199.1411172436633
 20
-84.04383355624685
 30
0.0
 11
198.2012578838634
 21
-88.46552418452686
 31
0.0
  0
LINE
  5
3AD
330
1F
100
AcDbEntity
  8
0
  6
Continuous
347
0
 62
     7
100
AcDbLine
 10
199.5085774206033
 20
-87.82472915674686
 30
0.0
 11
198.2012577416234
 21
-93.97518468664686
 31
0.0
  0
LINE
  5
3AE
330
1F
100
AcDbEntity
  8
0
  6
Continuous
347
0
 62
     7
100
AcDbLine
 10
199.6466762782633
 20
-60.63374985072686
 30
0.0
 11
199.0826743709634
 21
-62.83850050090685
 31
0.0
  0
LINE
  5
3AF
330
1F
100
AcDbEntity
  8
0
  6
Continuous
347
0
 62
     7
100
AcDbLine
 10
199.0832937982233
 20
102.8874507313131
 30
0.0
 11
199.6466762782633
 21
100.6712956665531
 31
0.0
  0
LINE
  5
3B0
330
1F
100
AcDbEntity
  8
0
  6
Continuous
347
0
 62
     7
100
AcDbLine
 10
198.2012578838634
 20
128.5083797916132
 30
0.0
 11
199.1411172436633
 21
124.0866891633332
 31
0.0
  0
LINE
  5
3B1
330
1F
100
AcDbEntity
  8
0
  6
Continuous
347
0
 62
     7
100
AcDbLine
 10
199.5085779286033
 20
127.8675823762331
 30
0.0
 11
198.2012584274234
 21
134.0180370653931
 31
0.0
  0
LINE
  5
3B2
330
1F
100
AcDbEntity
  8
0
  6
Continuous
347
0
 62
     7
100
AcDbLine
 10
198.7102129492633
 20
14.62142780219316
 30
0.0
 11
198.2839939845834
 21
14.62142780219316
 31
0.0
  0
LINE
  5
3B3
330
1F
100
AcDbEntity
  8
0
  6
Continuous
347
0
 62
     7
100
AcDbLine
 10
198.7102129492633
 20
14.62142776663315
 30
0.0
 11
198.2844851850234
 21
14.63588870037314
 31
0.0
  0
LINE
  5
3B4
330
1F
100
AcDbEntity
  8
0
  6
Continuous
347
0
 62
     7
100
AcDbLine
 10
198.7102129492633
 20
25.42142780743313
 30
0.0
 11
198.2844851850234
 21
25.40696688131315
 31
0.0
  0
LINE
  5
3B5
330
1F
100
AcDbEntity
  8
0
  6
Continuous
347
0
 62
     7
100
AcDbLine
 10
198.2839939845834
 20
25.42142780743313
 30
0.0
 11
198.7102129492633
 21
25.42142780743313
 31
0.0
  0
LINE
  5
3B6
330
1F
100
AcDbEntity
  8
0
  6
Continuous
347
0
 62
     7
100
AcDbLine
 10
296.7951618462833
 20
-62.74887556966686
 30
0.0
 11
296.7951618462833
 21
102.7908139649731
 31
0.0
  0
LINE
  5
3B7
330
1F
100
AcDbEntity
  8
0
  6
Continuous
347
0
 62
     7
100
AcDbLine
 10
298.7951618467833
 20
-86.95826777562687
 30
0.0
 11
298.7951618467833
 21
-62.43191635852684
 31
0.0
  0
LINE
  5
3B8
330
1F
100
AcDbEntity
  8
0
  6
Continuous
347
0
 62
     7
100
AcDbLine
 10
298.7951618467833
 20
102.4747719656131
 30
0.0
 11
298.7951618467833
 21
127.0011233827131
 31
0.0
  0
LINE
  5
3B9
330
1F
100
AcDbEntity
  8
0
  6
Continuous
347
0
 62
     7
100
AcDbLine
 10
298.7951618467833
 20
102.4747719630731
 30
0.0
 11
296.7951618488234
 21
102.4553876254132
 31
0.0
  0
LINE
  5
3BA
330
1F
100
AcDbEntity
  8
0
  6
Continuous
347
0
 62
     7
100
AcDbLine
 10
199.6466762858833
 20
100.6712956690931
 30
0.0
 11
296.7951618462833
 21
100.5821881129932
 31
0.0
  0
LINE
  5
3BB
330
1F
100
AcDbEntity
  8
0
  6
Continuous
347
0
 62
     7
100
AcDbLine
 10
298.7951618417034
 20
102.7991302831132
 30
0.0
 11
199.0833192236234
 21
102.8850143988732
 31
0.0
  0
LINE
  5
3BC
330
1F
100
AcDbEntity
  8
0
  6
Continuous
347
0
 62
     7
100
AcDbLine
 10
199.0833192236234
 20
122.3715048416132
 30
0.0
 11
298.7951618417034
 21
121.5013328049731
 31
0.0
  0
LINE
  5
3BD
330
1F
100
AcDbEntity
  8
0
  6
Continuous
347
0
 62
     7
100
AcDbLine
 10
198.2012578838634
 20
128.5083798068532
 30
0.0
 11
195.8431376242434
 21
128.5083798068532
 31
0.0
  0
LINE
  5
3BE
330
1F
100
AcDbEntity
  8
0
  6
Continuous
347
0
 62
     7
100
AcDbLine
 10
298.7951618467833
 20
127.0011233827131
 30
0.0
 11
199.4689719168833
 21
127.8679299091931
 31
0.0
  0
LINE
  5
3BF
330
1F
100
AcDbEntity
  8
0
  6
Continuous
347
0
 62
     7
100
AcDbLine
 10
183.7951618447034
 20
130.9208124749931
 30
0.0
 11
195.7999814799234
 21
130.5015949415732
 31
0.0
  0
LINE
  5
3C0
330
1F
100
AcDbEntity
  8
0
  6
Continuous
347
0
 62
     7
100
AcDbLine
 10
195.7999664761433
 20
135.9982450252131
 30
0.0
 11
183.7951618447034
 21
136.4174620404731
 31
0.0
  0
LINE
  5
3C9
330
1F
100
AcDbEntity
  8
0
  6
Continuous
347
0
 62
     7
100
AcDbLine
 10
98.69615790538336
 20
174.2185283355731
 30
0.0
 11
-80.59591056589665
 21
174.2185283355731
 31
0.0
  0
LINE
  5
3CB
330
1F
100
AcDbEntity
  8
0
  6
Continuous
347
0
 62
     7
100
AcDbLine
 10
90.78707568192334
 20
186.2665025657131
 30
0.0
 11
-72.68682833989664
 21
186.2665101349132
 31
0.0
  0
LINE
  5
3CC
330
1F
100
AcDbEntity
  8
0
  6
Continuous
347
0
 62
     7
100
AcDbLine
 10
-72.68682832973664
 20
188.6246243747331
 30
0.0
 11
90.78707567176335
 21
188.6246243747331
 31
0.0
  0
LINE
  5
3CE
330
1F
100
AcDbEntity
  8
0
  6
Continuous
347
0
 62
     7
100
AcDbLine
 10
84.63662033236335
 20
189.9322709364731
 30
0.0
 11
67.16331961990335
 21
189.9325888835131
 31
0.0
  0
LINE
  5
3CF
330
1F
100
AcDbEntity
  8
0
  6
Continuous
347
0
 62
     7
100
AcDbLine
 10
64.94018515838334
 20
190.4983349529331
 30
0.0
 11
-46.83993781889663
 21
190.4983349529331
 31
0.0
  0
LINE
  5
3D4
330
1F
100
AcDbEntity
  8
0
  6
Continuous
347
0
 62
     7
100
AcDbLine
 10
84.63370596684334
 20
189.9325634809731
 30
0.0
 11
90.78707567176335
 21
188.6246243747331
 31
0.0
  0
LINE
  5
3D5
330
1F
100
AcDbEntity
  8
0
  6
Continuous
347
0
 62
     7
100
AcDbLine
 10
96.29673548046338
 20
188.6246243747331
 30
0.0
 11
91.87504483948334
 21
189.5644837319932
 31
0.0
  0
LINE
  5
3D6
330
1F
100
AcDbEntity
  8
0
  6
Continuous
347
0
 62
     7
100
AcDbLine
 10
64.94018515838334
 20
190.4983349478531
 30
0.0
 11
67.16575579232335
 21
189.9325634809731
 31
0.0
  0
LINE
  5
3D7
330
1F
100
AcDbEntity
  8
0
  6
Continuous
347
0
 62
     7
100
AcDbLine
 10
-48.96926248835664
 20
287.2185283346132
 30
0.0
 11
67.06950983038334
 21
287.2185283346132
 31
0.0
  0
LINE
  5
3D9
330
1F
100
AcDbEntity
  8
0
  6
Continuous
347
0
 62
     7
100
AcDbLine
 10
66.75346783356335
 20
289.2185283351131
 30
0.0
 11
91.27981925066337
 21
289.2185283351131
 31
0.0
  0
LINE
  5
3DA
330
1F
100
AcDbEntity
  8
0
  6
Continuous
347
0
 62
     7
100
AcDbLine
 10
64.85147045392337
 20
287.2185283346132
 30
0.0
 11
64.94018515838334
 21
190.4983349529331
 31
0.0
  0
LINE
  5
3DB
330
1F
100
AcDbEntity
  8
0
  6
Continuous
347
0
 62
     7
100
AcDbLine
 10
67.16331961990335
 20
189.9325888835131
 30
0.0
 11
67.07782614852337
 21
289.2185283300332
 31
0.0
  0
LINE
  5
3DC
330
1F
100
AcDbEntity
  8
0
  6
Continuous
347
0
 62
     7
100
AcDbLine
 10
66.73408349082338
 20
287.2185283320731
 30
0.0
 11
66.75346783102334
 21
289.2185283351131
 31
0.0
  0
LINE
  5
3DD
330
1F
100
AcDbEntity
  8
0
  6
Continuous
347
0
 62
     7
100
AcDbLine
 10
92.78029139322334
 20
186.2233329644731
 30
0.0
 11
93.19950831450333
 21
174.2185283330331
 31
0.0
  0
LINE
  5
3DE
330
1F
100
AcDbEntity
  8
0
  6
Continuous
347
0
 62
     7
100
AcDbLine
 10
85.78002866784334
 20
289.2185283300332
 30
0.0
 11
86.64683517654333
 21
189.8923406023131
 31
0.0
  0
LINE
  5
3DF
330
1F
100
AcDbEntity
  8
0
  6
Continuous
347
0
 62
     7
100
AcDbLine
 10
91.27981925066337
 20
289.2185283351131
 30
0.0
 11
92.14999694388334
 21
189.5060408592932
 31
0.0
  0
LINE
  5
3E0
330
1F
100
AcDbEntity
  8
0
  6
Continuous
347
0
 62
     7
100
AcDbLine
 10
90.78707567430334
 20
186.2665041151132
 30
0.0
 11
90.78707567430334
 21
188.6246243747331
 31
0.0
  0
LINE
  5
3E1
330
1F
100
AcDbEntity
  8
0
  6
Continuous
347
0
 62
     7
100
AcDbLine
 10
98.27694047102332
 20
186.2233449888331
 30
0.0
 11
98.69615789522337
 21
174.2185286708531
 31
0.0
  0
LINE
  5
41E
330
1F
100
AcDbEntity
  8
0
  6
Continuous
347
0
 62
     7
100
AcDbLine
 10
-514.4700587645566
 20
106.3103217824331
 30
0.0
 11
-515.9103770040566
 21
104.8097224595332
 31
0.0
  0
LINE
  5
41F
330
1F
100
AcDbEntity
  8
0
  6
Continuous
347
0
 62
     7
100
AcDbLine
 10
-515.8929232568967
 20
104.8027015236132
 30
0.0
 11
-514.4327818261567
 21
106.3239536957331
 31
0.0
  0
LINE
  5
420
330
1F
100
AcDbEntity
  8
0
  6
Continuous
347
0
 62
     7
100
AcDbLine
 10
-498.4648779098566
 20
122.9601560798531
 30
0.0
 11
-497.6410321940766
 21
123.8184819019331
 31
0.0
  0
LINE
  5
421
330
1F
100
AcDbEntity
  8
0
  6
Continuous
347
0
 62
     7
100
AcDbLine
 10
-497.6484722172966
 20
123.8359356567131
 30
0.0
 11
-498.4237793052366
 21
123.0323091689731
 31
0.0
  0
LINE
  5
422
330
1F
100
AcDbEntity
  8
0
  6
Continuous
347
0
 62
     7
100
AcDbLine
 10
-515.0930184660566
 20
106.3933473593331
 30
0.0
 11
-515.1104722005166
 21
106.3776319500732
 31
0.0
  0
LINE
  5
423
330
1F
100
AcDbEntity
  8
0
  6
Continuous
347
0
 62
     7
100
AcDbLine
 10
-515.1104722005166
 20
-66.33477634298686
 30
0.0
 11
-515.0930184660566
 21
-66.35049176240688
 31
0.0
  0
LINE
  5
424
330
1F
100
AcDbEntity
  8
0
  6
Continuous
347
0
 62
     7
100
AcDbLine
 10
-498.4237793052366
 20
-82.98945356188685
 30
0.0
 11
-497.6484722172966
 21
-83.79308005216686
 31
0.0
  0
LINE
  5
425
330
1F
100
AcDbEntity
  8
0
  6
Continuous
347
0
 62
     7
100
AcDbLine
 10
-515.9103770040566
 20
-64.76686685244684
 30
0.0
 11
-514.4700587645566
 21
-66.26746617534684
 31
0.0
  0
LINE
  5
426
330
1F
100
AcDbEntity
  8
0
  6
Continuous
347
0
 62
     7
100
AcDbLine
 10
-497.6410321940766
 20
-83.77562630500685
 30
0.0
 11
-498.4648779098566
 21
-82.91730048038687
 31
0.0
  0
LINE
  5
427
330
1F
100
AcDbEntity
  8
0
  6
Continuous
347
0
 62
     7
100
AcDbLine
 10
-514.4327818261567
 20
-66.28109809880684
 30
0.0
 11
-515.8929232568967
 21
-64.75984592668686
 31
0.0
  0
LINE
  5
428
330
1F
100
AcDbEntity
  8
0
  6
Continuous
347
0
 62
     7
100
AcDbLine
 10
-498.4520732974166
 20
123.0360308531731
 30
0.0
 11
-498.4677886888966
 21
123.0185771187131
 31
0.0
  0
LINE
  5
429
330
1F
100
AcDbEntity
  8
0
  6
Continuous
347
0
 62
     7
100
AcDbLine
 10
-514.4327818261567
 20
106.3239536957331
 30
0.0
 11
-514.4700587645566
 21
106.3103217824331
 31
0.0
  0
LINE
  5
42A
330
1F
100
AcDbEntity
  8
0
  6
Continuous
347
0
 62
     7
100
AcDbLine
 10
-352.6964845069166
 20
-96.37460643338687
 30
0.0
 11
-520.9952537938966
 21
-96.37460643338687
 31
0.0
  0
LINE
  5
42B
330
1F
100
AcDbEntity
  8
0
  6
Continuous
347
0
 62
     7
100
AcDbLine
 10
-355.1089171369566
 20
-95.95388190272686
 30
0.0
 11
-518.5828211613166
 21
-95.95388163856686
 31
0.0
  0
LINE
  5
42C
330
1F
100
AcDbEntity
  8
0
  6
Continuous
347
0
 62
     7
100
AcDbLine
 10
-518.5828211511566
 20
-93.97518400846687
 30
0.0
 11
-355.1089171496566
 21
-93.97518400846687
 31
0.0
  0
LINE
  5
42D
330
1F
100
AcDbEntity
  8
0
  6
Continuous
347
0
 62
     7
100
AcDbLine
 10
-514.4700587645566
 20
-66.26746617788686
 30
0.0
 11
-514.4327818261567
 21
-66.28109808864687
 31
0.0
  0
LINE
  5
42E
330
1F
100
AcDbEntity
  8
0
  6
Continuous
347
0
 62
     7
100
AcDbLine
 10
-498.4677886888966
 20
-82.97572151162686
 30
0.0
 11
-498.4520732974166
 21
-82.99317524862687
 31
0.0
  0
LINE
  5
42F
330
1F
100
AcDbEntity
  8
0
  6
Continuous
347
0
 62
     7
100
AcDbLine
 10
-526.0711788007766
 20
-88.46552419976686
 30
0.0
 11
-524.0924809623966
 21
-88.46552419976686
 31
0.0
  0
LINE
  5
432
330
1F
100
AcDbEntity
  8
0
  6
Continuous
347
0
 62
     7
100
AcDbLine
 10
-494.9554068033365
 20
-87.82472867160686
 30
0.0
 11
-512.4323658117567
 21
-87.82472868176686
 31
0.0
  0
LINE
  5
433
330
1F
100
AcDbEntity
  8
0
  6
Continuous
347
0
 62
     7
100
AcDbLine
 10
-513.5757741497766
 20
-86.95826777562687
 30
0.0
 11
-494.8740302452366
 21
-86.95826777562687
 31
0.0
  0
LINE
  5
435
330
1F
100
AcDbEntity
  8
0
  6
Continuous
347
0
 62
     7
100
AcDbLine
 10
-380.9504211561566
 20
-85.16006882186687
 30
0.0
 11
-492.7413171446566
 21
-85.16006882186687
 31
0.0
  0
LINE
  5
436
330
1F
100
AcDbEntity
  8
0
  6
Continuous
347
0
 62
     7
100
AcDbLine
 10
-492.6526024351166
 20
-84.31600448256685
 30
0.0
 11
-381.0391358631566
 21
-84.31600448256685
 31
0.0
  0
LINE
  5
437
330
1F
100
AcDbEntity
  8
0
  6
Continuous
347
0
 62
     7
100
AcDbLine
 10
-497.6484722172966
 20
-83.79308005216686
 30
0.0
 11
-494.5492133129566
 21
-83.79308005216686
 31
0.0
  0
LINE
  5
43A
330
1F
100
AcDbEntity
  8
0
  6
Continuous
347
0
 62
     7
100
AcDbLine
 10
-494.5298289879965
 20
-83.77562630500685
 30
0.0
 11
-497.6410321940766
 21
-83.77562630500685
 31
0.0
  0
LINE
  5
43C
330
1F
100
AcDbEntity
  8
0
  6
Continuous
347
0
 62
     7
100
AcDbLine
 10
-498.4520732974166
 20
-82.99317524862687
 30
0.0
 11
-512.6105673933765
 21
-82.99317524862687
 31
0.0
  0
LINE
  5
43D
330
1F
100
AcDbEntity
  8
0
  6
Continuous
347
0
 62
     7
100
AcDbLine
 10
-512.5931136792366
 20
-82.97572151162686
 30
0.0
 11
-498.4677886888966
 21
-82.97572151162686
 31
0.0
  0
LINE
  5
43F
330
1F
100
AcDbEntity
  8
0
  6
Continuous
347
0
 62
     7
100
AcDbLine
 10
-519.0930184645166
 20
-62.75280442642686
 30
0.0
 11
-519.0755647300566
 21
-62.75673328064686
 31
0.0
  0
LINE
  5
440
330
1F
100
AcDbEntity
  8
0
  6
Continuous
347
0
 62
     7
100
AcDbLine
 10
-526.4919033873166
 20
-90.87795686790687
 30
0.0
 11
-526.4919033873166
 21
130.9208124749931
 31
0.0
  0
LINE
  5
441
330
1F
100
AcDbEntity
  8
0
  6
Continuous
347
0
 62
     7
100
AcDbLine
 10
-526.0711788541166
 20
-88.46552422262687
 30
0.0
 11
-526.0711785924966
 21
128.5083798271731
 31
0.0
  0
LINE
  5
442
330
1F
100
AcDbEntity
  8
0
  6
Continuous
347
0
 62
     7
100
AcDbLine
 10
-524.0924809623966
 20
128.5083797916132
 30
0.0
 11
-524.0924809623966
 21
-88.46552418452686
 31
0.0
  0
LINE
  5
443
330
1F
100
AcDbEntity
  8
0
  6
Continuous
347
0
 62
     7
100
AcDbLine
 10
-523.7032382255167
 20
25.42142784299314
 30
0.0
 11
-523.7032382255167
 21
14.62142776663315
 31
0.0
  0
LINE
  5
444
330
1F
100
AcDbEntity
  8
0
  6
Continuous
347
0
 62
     7
100
AcDbLine
 10
-523.1834589983765
 20
25.33412588653314
 30
0.0
 11
-523.1834589983765
 21
14.70872972563315
 31
0.0
  0
LINE
  5
445
330
1F
100
AcDbEntity
  8
0
  6
Continuous
347
0
 62
     7
100
AcDbLine
 10
-521.7653375699566
 20
14.70872972563315
 30
0.0
 11
-521.7653375699566
 21
25.33412588653314
 31
0.0
  0
LINE
  5
446
330
1F
100
AcDbEntity
  8
0
  6
Continuous
347
0
 62
     7
100
AcDbLine
 10
-521.6980356420765
 20
25.42142784299314
 30
0.0
 11
-521.6980356420765
 21
14.62142776663315
 31
0.0
  0
LINE
  5
448
330
1F
100
AcDbEntity
  8
0
  6
Continuous
347
0
 62
     7
100
AcDbLine
 10
-519.9457424258167
 20
-82.32865486316686
 30
0.0
 11
-519.9457424258167
 21
-62.83850050090685
 31
0.0
  0
LINE
  5
449
330
1F
100
AcDbEntity
  8
0
  6
Continuous
347
0
 62
     7
100
AcDbLine
 10
-519.9457367997167
 20
102.8850143988732
 30
0.0
 11
-519.9457367997167
 21
122.3715048416132
 31
0.0
  0
LINE
  5
44A
330
1F
100
AcDbEntity
  8
0
  6
Continuous
347
0
 62
     7
100
AcDbLine
 10
-519.0755647300566
 20
121.5013328049731
 30
0.0
 11
-519.0755647300566
 21
102.7991302831132
 31
0.0
  0
LINE
  5
44B
330
1F
100
AcDbEntity
  8
0
  6
Continuous
347
0
 62
     7
100
AcDbLine
 10
-519.0755647300566
 20
-62.75673328064686
 30
0.0
 11
-519.0755647300566
 21
-81.45847720042684
 31
0.0
  0
LINE
  5
44C
330
1F
100
AcDbEntity
  8
0
  6
Continuous
347
0
 62
     7
100
AcDbLine
 10
-518.5828211536966
 20
135.9967374539332
 30
0.0
 11
-518.5828211536966
 21
134.0180396155531
 31
0.0
  0
LINE
  5
44D
330
1F
100
AcDbEntity
  8
0
  6
Continuous
347
0
 62
     7
100
AcDbLine
 10
-518.5828211536966
 20
-93.97518400846687
 30
0.0
 11
-518.5828211536966
 21
-95.95388184684685
 31
0.0
  0
LINE
  5
44E
330
1F
100
AcDbEntity
  8
0
  6
Continuous
347
0
 62
     7
100
AcDbLine
 10
-517.2923220684565
 20
-60.63374985072686
 30
0.0
 11
-517.2923220684565
 21
100.6712956690931
 31
0.0
  0
LINE
  5
44F
330
1F
100
AcDbEntity
  8
0
  6
Continuous
347
0
 62
     7
100
AcDbLine
 10
-516.4445200785166
 20
100.5821881129932
 30
0.0
 11
-516.4445200785166
 21
-60.54464225398686
 31
0.0
  0
LINE
  5
450
330
1F
100
AcDbEntity
  8
0
  6
Continuous
347
0
 62
     7
100
AcDbLine
 10
-515.9103770040566
 20
104.8097224595332
 30
0.0
 11
-515.9103770040566
 21
102.4747719656131
 31
0.0
  0
LINE
  5
451
330
1F
100
AcDbEntity
  8
0
  6
Continuous
347
0
 62
     7
100
AcDbLine
 10
-515.9103770040566
 20
-62.43191635852684
 30
0.0
 11
-515.9103770040566
 21
-64.76686685244684
 31
0.0
  0
LINE
  5
452
330
1F
100
AcDbEntity
  8
0
  6
Continuous
347
0
 62
     7
100
AcDbLine
 10
-515.8929232568967
 20
-64.75984592668686
 30
0.0
 11
-515.8929232568967
 21
-62.41253202086686
 31
0.0
  0
LINE
  5
453
330
1F
100
AcDbEntity
  8
0
  6
Continuous
347
0
 62
     7
100
AcDbLine
 10
-515.8929232568967
 20
102.4553876203332
 30
0.0
 11
-515.8929232568967
 21
104.8027015236132
 31
0.0
  0
LINE
  5
454
330
1F
100
AcDbEntity
  8
0
  6
Continuous
347
0
 62
     7
100
AcDbLine
 10
-515.1104722005166
 20
-80.49327044148686
 30
0.0
 11
-515.1104722005166
 21
-66.33477634298686
 31
0.0
  0
LINE
  5
455
330
1F
100
AcDbEntity
  8
0
  6
Continuous
347
0
 62
     7
100
AcDbLine
 10
-515.1104722005166
 20
106.3776319500732
 30
0.0
 11
-515.1104722005166
 21
120.5361260485732
 31
0.0
  0
LINE
  5
456
330
1F
100
AcDbEntity
  8
0
  6
Continuous
347
0
 62
     7
100
AcDbLine
 10
-515.0930184660566
 20
120.5186722861731
 30
0.0
 11
-515.0930184660566
 21
106.3933473593331
 31
0.0
  0
LINE
  5
457
330
1F
100
AcDbEntity
  8
0
  6
Continuous
347
0
 62
     7
100
AcDbLine
 10
-515.0930184660566
 20
-66.35049176240688
 30
0.0
 11
-515.0930184660566
 21
-80.47581668924687
 31
0.0
  0
LINE
  5
458
330
1F
100
AcDbEntity
  8
0
  6
Continuous
347
0
 62
     7
100
AcDbLine
 10
-498.4503051856366
 20
123.0192084255531
 30
0.0
 11
-498.4619671485967
 21
122.9631886798331
 31
0.0
  0
LINE
  5
459
330
1F
100
AcDbEntity
  8
0
  6
Continuous
347
0
 62
     7
100
AcDbLine
 10
-494.8694134701166
 20
127.0185764542331
 30
0.0
 11
-494.8735716279166
 21
127.0011233827131
 31
0.0
  0
LINE
  5
45A
330
1F
100
AcDbEntity
  8
0
  6
Continuous
347
0
 62
     7
100
AcDbLine
 10
-494.8740302452366
 20
-86.95826777562687
 30
0.0
 11
-494.8701013960966
 21
-86.97572151262685
 31
0.0
  0
LINE
  5
45B
330
1F
100
AcDbEntity
  8
0
  6
Continuous
347
0
 62
     7
100
AcDbLine
 10
-498.4619671511366
 20
-82.92033308290686
 30
0.0
 11
-498.4503051856366
 21
-82.97635282100686
 31
0.0
  0
LINE
  5
45C
330
1F
100
AcDbEntity
  8
0
  6
Continuous
347
0
 62
     7
100
AcDbLine
 10
-521.6980356420765
 20
25.42142780743313
 30
0.0
 11
-521.7653375699566
 21
25.33412588399314
 31
0.0
  0
LINE
  5
45D
330
1F
100
AcDbEntity
  8
0
  6
Continuous
347
0
 62
     7
100
AcDbLine
 10
-515.0930184482767
 20
-66.35049176240688
 30
0.0
 11
-514.4327818261567
 21
-66.28109809880684
 31
0.0
  0
LINE
  5
45E
330
1F
100
AcDbEntity
  8
0
  6
Continuous
347
0
 62
     7
100
AcDbLine
 10
-514.4700587645566
 20
-66.26746617534684
 30
0.0
 11
-515.1104722055966
 21
-66.33477634298686
 31
0.0
  0
LINE
  5
45F
330
1F
100
AcDbEntity
  8
0
  6
Continuous
347
0
 62
     7
100
AcDbLine
 10
-519.0755647300566
 20
-62.76459099416686
 30
0.0
 11
-515.9103770040566
 21
-62.43191635852684
 31
0.0
  0
LINE
  5
460
330
1F
100
AcDbEntity
  8
0
  6
Continuous
347
0
 62
     7
100
AcDbLine
 10
-515.8929232568967
 20
-62.41253202086686
 30
0.0
 11
-519.0930184568966
 21
-62.74887556966686
 31
0.0
  0
LINE
  5
461
330
1F
100
AcDbEntity
  8
0
  6
Continuous
347
0
 62
     7
100
AcDbLine
 10
-516.4445200785166
 20
-60.54464225398686
 30
0.0
 11
-517.2923220684565
 21
-60.63374985072686
 31
0.0
  0
LINE
  5
462
330
1F
100
AcDbEntity
  8
0
  6
Continuous
347
0
 62
     7
100
AcDbLine
 10
-519.9457424258167
 20
-62.83850050090685
 30
0.0
 11
-519.0930184645166
 21
-62.75280442642686
 31
0.0
  0
LINE
  5
46A
330
1F
100
AcDbEntity
  8
0
  6
Continuous
347
0
 62
     7
100
AcDbLine
 10
-521.6980356420765
 20
14.62142776663315
 30
0.0
 11
-521.7653375699566
 21
14.70872972563315
 31
0.0
  0
LINE
  5
46B
330
1F
100
AcDbEntity
  8
0
  6
Continuous
347
0
 62
     7
100
AcDbLine
 10
-498.4619671485967
 20
122.9631886798331
 30
0.0
 11
-498.4677887066766
 21
123.0185770958531
 31
0.0
  0
LINE
  5
46C
330
1F
100
AcDbEntity
  8
0
  6
Continuous
347
0
 62
     7
100
AcDbLine
 10
-494.8818879485966
 20
127.0011233827131
 30
0.0
 11
-494.5492133129566
 21
123.8359356567131
 31
0.0
  0
LINE
  5
46D
330
1F
100
AcDbEntity
  8
0
  6
Continuous
347
0
 62
     7
100
AcDbLine
 10
-494.5298289879965
 20
123.8184819019331
 30
0.0
 11
-494.9590650992965
 21
127.8675786500531
 31
0.0
  0
LINE
  5
46E
330
1F
100
AcDbEntity
  8
0
  6
Continuous
347
0
 62
     7
100
AcDbLine
 10
-492.6472159333166
 20
124.3588600896531
 30
0.0
 11
-492.7359306377766
 21
125.2029244289531
 31
0.0
  0
LINE
  5
46F
330
1F
100
AcDbEntity
  8
0
  6
Continuous
347
0
 62
     7
100
AcDbLine
 10
-494.8701013960966
 20
-86.97572151262685
 30
0.0
 11
-494.9554068033365
 21
-87.82472867160686
 31
0.0
  0
LINE
  5
470
330
1F
100
AcDbEntity
  8
0
  6
Continuous
347
0
 62
     7
100
AcDbLine
 10
-498.4677887066766
 20
-82.97572149892684
 30
0.0
 11
-498.4619671511366
 21
-82.92033308290686
 31
0.0
  0
LINE
  5
471
330
1F
100
AcDbEntity
  8
0
  6
Continuous
347
0
 62
     7
100
AcDbLine
 10
-494.5492133129566
 20
-83.79308005216686
 30
0.0
 11
-494.8818879485966
 21
-86.95826777562687
 31
0.0
  0
LINE
  5
472
330
1F
100
AcDbEntity
  8
0
  6
Continuous
347
0
 62
     7
100
AcDbLine
 10
-494.8661725444165
 20
-86.97572149992686
 30
0.0
 11
-494.5298289879965
 21
-83.77562630500685
 31
0.0
  0
LINE
  5
473
330
1F
100
AcDbEntity
  8
0
  6
Continuous
347
0
 62
     7
100
AcDbLine
 10
-492.7413171446566
 20
-85.16006882186687
 30
0.0
 11
-492.6526024351166
 21
-84.31600448256685
 31
0.0
  0
LINE
  5
47B
330
1F
100
AcDbEntity
  8
0
  6
Continuous
347
0
 62
     7
100
AcDbLine
 10
-497.6484722172966
 20
-83.79308005216686
 30
0.0
 11
-497.6410321940766
 21
-83.77562631770687
 31
0.0
  0
LINE
  5
48D
330
1F
100
AcDbEntity
  8
0
  6
Continuous
347
0
 62
     7
100
AcDbLine
 10
-497.6410321940766
 20
123.8184819222531
 30
0.0
 11
-497.6484722172966
 21
123.8359356592531
 31
0.0
  0
LINE
  5
492
330
1F
100
AcDbEntity
  8
0
  6
Continuous
347
0
 62
     7
100
AcDbLine
 10
-523.1834589983765
 20
25.33412588399314
 30
0.0
 11
-523.7032382255167
 21
25.42142780743313
 31
0.0
  0
LINE
  5
496
330
1F
100
AcDbEntity
  8
0
  6
Continuous
347
0
 62
     7
100
AcDbLine
 10
-515.8929232568967
 20
-62.41253201832686
 30
0.0
 11
-515.9103770040566
 21
-62.43191635598686
 31
0.0
  0
LINE
  5
498
330
1F
100
AcDbEntity
  8
0
  6
Continuous
347
0
 62
     7
100
AcDbLine
 10
-521.6980356420765
 20
14.62142780219316
 30
0.0
 11
-523.7032382255167
 21
14.62142780219316
 31
0.0
  0
LINE
  5
499
330
1F
100
AcDbEntity
  8
0
  6
Continuous
347
0
 62
     7
100
AcDbLine
 10
-523.1834589983765
 20
14.70872972817315
 30
0.0
 11
-521.7653375699566
 21
14.70872972817315
 31
0.0
  0
LINE
  5
49A
330
1F
100
AcDbEntity
  8
0
  6
Continuous
347
0
 62
     7
100
AcDbLine
 10
-515.9103770040566
 20
102.4747719630731
 30
0.0
 11
-515.8929232543566
 21
102.4553876254132
 31
0.0
  0
LINE
  5
49D
330
1F
100
AcDbEntity
  8
0
  6
Continuous
347
0
 62
     7
100
AcDbLine
 10
-519.0755647300566
 20
-81.45847720042684
 30
0.0
 11
-519.9457424258167
 21
-82.32865486316686
 31
0.0
  0
LINE
  5
49E
330
1F
100
AcDbEntity
  8
0
  6
Continuous
347
0
 62
     7
100
AcDbLine
 10
-519.6707903214166
 20
-84.04383355624685
 30
0.0
 11
-524.0924809623966
 21
-88.46552418452686
 31
0.0
  0
LINE
  5
49F
330
1F
100
AcDbEntity
  8
0
  6
Continuous
347
0
 62
     7
100
AcDbLine
 10
-526.0726863720566
 20
-90.45873989836687
 30
0.0
 11
-526.4919033873166
 21
-90.87795686790687
 31
0.0
  0
LINE
  5
4A0
330
1F
100
AcDbEntity
  8
0
  6
Continuous
347
0
 62
     7
100
AcDbLine
 10
-519.0930184568966
 20
-62.74887556966686
 30
0.0
 11
-516.4445200658166
 21
-60.54464225398686
 31
0.0
  0
LINE
  5
4A1
330
1F
100
AcDbEntity
  8
0
  6
Continuous
347
0
 62
     7
100
AcDbLine
 10
-517.2923220684565
 20
-60.63374985072686
 30
0.0
 11
-519.9457424232767
 21
-62.83850050090685
 31
0.0
  0
LINE
  5
4A2
330
1F
100
AcDbEntity
  8
0
  6
Continuous
347
0
 62
     7
100
AcDbLine
 10
-523.7032382255167
 20
14.62142780219316
 30
0.0
 11
-523.1834589983765
 21
14.70872972817315
 31
0.0
  0
LINE
  5
4A3
330
1F
100
AcDbEntity
  8
0
  6
Continuous
347
0
 62
     7
100
AcDbLine
 10
-521.7653375699566
 20
25.33412588399314
 30
0.0
 11
-523.1834589983765
 21
25.33412588399314
 31
0.0
  0
LINE
  5
4A4
330
1F
100
AcDbEntity
  8
0
  6
Continuous
347
0
 62
     7
100
AcDbLine
 10
-523.7032382255167
 20
25.42142780743313
 30
0.0
 11
-521.6980356420765
 21
25.42142780743313
 31
0.0
  0
LINE
  5
4A5
330
1F
100
AcDbEntity
  8
0
  6
Continuous
347
0
 62
     7
100
AcDbLine
 10
-519.9428282431766
 20
102.8874507313131
 30
0.0
 11
-517.2923220684565
 21
100.6712956665531
 31
0.0
  0
LINE
  5
4A6
330
1F
100
AcDbEntity
  8
0
  6
Continuous
347
0
 62
     7
100
AcDbLine
 10
-516.4445200658166
 20
100.5821881129932
 30
0.0
 11
-519.0842915985567
 21
102.7908139649731
 31
0.0
  0
LINE
  5
4A7
330
1F
100
AcDbEntity
  8
0
  6
Continuous
347
0
 62
     7
100
AcDbLine
 10
-519.9457367997167
 20
122.3715048416132
 30
0.0
 11
-519.0755647300566
 21
121.5013328049731
 31
0.0
  0
LINE
  5
4A8
330
1F
100
AcDbEntity
  8
0
  6
Continuous
347
0
 62
     7
100
AcDbLine
 10
-524.0924809623966
 20
128.5083797916132
 30
0.0
 11
-519.6707903214166
 21
124.0866891633332
 31
0.0
  0
LINE
  5
4A9
330
1F
100
AcDbEntity
  8
0
  6
Continuous
347
0
 62
     7
100
AcDbLine
 10
-526.4919033873166
 20
130.9208124749931
 30
0.0
 11
-526.0726858462766
 21
130.5015949415732
 31
0.0
  0
LINE
  5
4AB
330
1F
100
AcDbEntity
  8
0
  6
Continuous
347
0
 62
     7
100
AcDbLine
 10
-494.9554068033365
 20
-87.82472866906684
 30
0.0
 11
-492.7413171446566
 21
-85.16006882186687
 31
0.0
  0
LINE
  5
4AC
330
1F
100
AcDbEntity
  8
0
  6
Continuous
347
0
 62
     7
100
AcDbLine
 10
-492.6526024351166
 20
-84.31600451812687
 30
0.0
 11
-494.8661725444165
 21
-86.97572149992686
 31
0.0
  0
LINE
  5
4AD
330
1F
100
AcDbEntity
  8
0
  6
Continuous
347
0
 62
     7
100
AcDbLine
 10
-515.0930184660566
 20
-80.47581668924687
 30
0.0
 11
-515.1104722005166
 21
-80.49327044148686
 31
0.0
  0
LINE
  5
4AE
330
1F
100
AcDbEntity
  8
0
  6
Continuous
347
0
 62
     7
100
AcDbLine
 10
-512.6105673933765
 20
-82.99317524862687
 30
0.0
 11
-512.5931136792366
 21
-82.97572151162686
 31
0.0
  0
LINE
  5
4AF
330
1F
100
AcDbEntity
  8
0
  6
Continuous
347
0
 62
     7
100
AcDbLine
 10
-514.4425807549966
 20
-87.82507438338686
 30
0.0
 11
-513.5757741497766
 21
-86.95826777562687
 31
0.0
  0
LINE
  5
4B0
330
1F
100
AcDbEntity
  8
0
  6
Continuous
347
0
 62
     7
100
AcDbLine
 10
-520.9952537938966
 20
-96.37460643338687
 30
0.0
 11
-520.5760363138166
 21
-95.95538889488688
 31
0.0
  0
LINE
  5
4B1
330
1F
100
AcDbEntity
  8
0
  6
Continuous
347
0
 62
     7
100
AcDbLine
 10
-518.5828211511566
 20
-93.97518400846687
 30
0.0
 11
-512.4323658117567
 21
-87.82472866906684
 31
0.0
  0
LINE
  5
4B3
330
1F
100
AcDbEntity
  8
0
  6
Continuous
347
0
 62
     7
100
AcDbLine
 10
-515.1104722005166
 20
120.5361260485732
 30
0.0
 11
-515.0930184660566
 21
120.5186722861731
 31
0.0
  0
LINE
  5
4B4
330
1F
100
AcDbEntity
  8
0
  6
Continuous
347
0
 62
     7
100
AcDbLine
 10
-512.5931136792366
 20
123.0185771187131
 30
0.0
 11
-512.6105673959166
 21
123.0360308531731
 31
0.0
  0
LINE
  5
4B5
330
1F
100
AcDbEntity
  8
0
  6
Continuous
347
0
 62
     7
100
AcDbLine
 10
-513.5757741472366
 20
127.0011233827131
 30
0.0
 11
-514.4425806559367
 21
127.8679298914131
 31
0.0
  0
LINE
  5
4B6
330
1F
100
AcDbEntity
  8
0
  6
Continuous
347
0
 62
     7
100
AcDbLine
 10
-520.5760368726166
 20
135.9982450252131
 30
0.0
 11
-520.9952537938966
 21
136.4174620404731
 31
0.0
  0
LINE
  5
4B7
330
1F
100
AcDbEntity
  8
0
  6
Continuous
347
0
 62
     7
100
AcDbLine
 10
-512.4294514462366
 20
127.8646699131731
 30
0.0
 11
-518.5828211511566
 21
134.0180396155531
 31
0.0
  0
LINE
  5
4B8
330
1F
100
AcDbEntity
  8
0
  6
Continuous
347
0
 62
     7
100
AcDbLine
 10
-494.8652553097766
 20
127.0098502385131
 30
0.0
 11
-492.6472159333166
 21
124.3588601150531
 31
0.0
  0
LINE
  5
4B9
330
1F
100
AcDbEntity
  8
0
  6
Continuous
347
0
 62
     7
100
AcDbLine
 10
-492.7359306377766
 20
125.2029244289531
 30
0.0
 11
-494.9615012717166
 21
127.8646699131731
 31
0.0
  0
LINE
  5
4C1
330
1F
100
AcDbEntity
  8
0
  6
Continuous
347
0
 62
     7
100
AcDbLine
 10
-494.5492133104166
 20
-83.79308005216686
 30
0.0
 11
-494.5298289727566
 21
-83.77562630754684
 31
0.0
  0
LINE
  5
4C3
330
1F
100
AcDbEntity
  8
0
  6
Continuous
347
0
 62
     7
100
AcDbLine
 10
-494.5298289702166
 20
123.8184819044731
 30
0.0
 11
-494.5492133104166
 21
123.8359356592531
 31
0.0
  0
LINE
  5
4C6
330
1F
100
AcDbEntity
  8
0
  6
Continuous
347
0
 62
     7
100
AcDbLine
 10
-515.9103770065965
 20
-64.76686685498686
 30
0.0
 11
-515.8929232695966
 21
-64.75984594192684
 31
0.0
  0
LINE
  5
4C7
330
1F
100
AcDbEntity
  8
0
  6
Continuous
347
0
 62
     7
100
AcDbLine
 10
-515.9103770040566
 20
104.8097224595332
 30
0.0
 11
-515.8929232695966
 21
104.8027015236132
 31
0.0
  0
LINE
  5
4C9
330
1F
100
AcDbEntity
  8
0
  6
Continuous
347
0
 62
     7
100
AcDbLine
 10
-517.2923220684565
 20
100.6712956690931
 30
0.0
 11
-516.4445200785166
 21
100.5821881129932
 31
0.0
  0
LINE
  5
4E3
330
1F
100
AcDbEntity
  8
0
  6
Continuous
347
0
 62
     7
100
AcDbLine
 10
-515.9103770040566
 20
102.4747719656131
 30
0.0
 11
-519.0755647300566
 21
102.8074466012531
 31
0.0
  0
LINE
  5
4E4
330
1F
100
AcDbEntity
  8
0
  6
Continuous
347
0
 62
     7
100
AcDbLine
 10
-515.1104722055966
 20
106.3776319500732
 30
0.0
 11
-514.4700587645566
 21
106.3103217824331
 31
0.0
  0
LINE
  5
4E5
330
1F
100
AcDbEntity
  8
0
  6
Continuous
347
0
 62
     7
100
AcDbLine
 10
-514.4327818261567
 20
106.3239536957331
 30
0.0
 11
-515.0930184482767
 21
106.3933473593331
 31
0.0
  0
LINE
  5
4E6
330
1F
100
AcDbEntity
  8
0
  6
Continuous
347
0
 62
     7
100
AcDbLine
 10
-515.8929232568967
 20
102.4553876203332
 30
0.0
 11
-519.9457367997167
 21
102.8850143988732
 31
0.0
  0
LINE
  5
501
330
1F
100
AcDbEntity
  8
0
  6
Continuous
347
0
 62
     7
100
AcDbLine
 10
-519.0755647300566
 20
102.7991302831132
 30
0.0
 11
-519.0930178015766
 21
102.7949721253131
 31
0.0
  0
LINE
  5
509
330
1F
100
AcDbEntity
  8
0
  6
Continuous
347
0
 62
     7
100
AcDbLine
 10
-498.4677886888966
 20
123.0185771187131
 30
0.0
 11
-512.5931136792366
 21
123.0185771187131
 31
0.0
  0
LINE
  5
50A
330
1F
100
AcDbEntity
  8
0
  6
Continuous
347
0
 62
     7
100
AcDbLine
 10
-512.6105673959166
 20
123.0360308531731
 30
0.0
 11
-498.4520732974166
 21
123.0360308531731
 31
0.0
  0
LINE
  5
50C
330
1F
100
AcDbEntity
  8
0
  6
Continuous
347
0
 62
     7
100
AcDbLine
 10
-497.6410321940766
 20
123.8184819019331
 30
0.0
 11
-494.5298289879965
 21
123.8184819019331
 31
0.0
  0
LINE
  5
50F
330
1F
100
AcDbEntity
  8
0
  6
Continuous
347
0
 62
     7
100
AcDbLine
 10
-494.5492133129566
 20
123.8359356567131
 30
0.0
 11
-497.6484722172966
 21
123.8359356567131
 31
0.0
  0
LINE
  5
510
330
1F
100
AcDbEntity
  8
0
  6
Continuous
347
0
 62
     7
100
AcDbLine
 10
-381.0445223674966
 20
124.3588600896531
 30
0.0
 11
-492.6472159333166
 21
124.3588600896531
 31
0.0
  0
LINE
  5
511
330
1F
100
AcDbEntity
  8
0
  6
Continuous
347
0
 62
     7
100
AcDbLine
 10
-492.7359306377766
 20
125.2029244289531
 30
0.0
 11
-380.9558076630366
 21
125.2029244289531
 31
0.0
  0
LINE
  5
513
330
1F
100
AcDbEntity
  8
0
  6
Continuous
347
0
 62
     7
100
AcDbLine
 10
-494.8735716279166
 20
127.0011233827131
 30
0.0
 11
-513.5757741472366
 21
127.0011233827131
 31
0.0
  0
LINE
  5
514
330
1F
100
AcDbEntity
  8
0
  6
Continuous
347
0
 62
     7
100
AcDbLine
 10
-512.4323658117567
 20
127.8675814237331
 30
0.0
 11
-494.9590650992965
 21
127.8675786500531
 31
0.0
  0
LINE
  5
517
330
1F
100
AcDbEntity
  8
0
  6
Continuous
347
0
 62
     7
100
AcDbLine
 10
-524.0924809623966
 20
128.5083798068532
 30
0.0
 11
-526.0711788007766
 21
128.5083798068532
 31
0.0
  0
LINE
  5
51F
330
1F
100
AcDbEntity
  8
0
  6
Continuous
347
0
 62
     7
100
AcDbLine
 10
-355.1089171496566
 20
134.0180396155531
 30
0.0
 11
-518.5828211511566
 21
134.0180396155531
 31
0.0
  0
LINE
  5
520
330
1F
100
AcDbEntity
  8
0
  6
Continuous
347
0
 62
     7
100
AcDbLine
 10
-518.5828211638567
 20
135.9967375072731
 30
0.0
 11
-355.1089171394966
 21
135.9967372431132
 31
0.0
  0
LINE
  5
521
330
1F
100
AcDbEntity
  8
0
  6
Continuous
347
0
 62
     7
100
AcDbLine
 10
-520.9952537938966
 20
136.4174620404731
 30
0.0
 11
-352.6964845043766
 21
136.4174620404731
 31
0.0
  0
ARC
  5
579
330
1F
100
AcDbEntity
  8
0
  6
Continuous
347
0
 62
     7
100
AcDbCircle
 10
82.98490609960334
 20
-79.39971221712685
 30
0.0
 40
8.875796233639997
100
AcDbArc
 50
98.45579001959999
 51
99.0715466526
  0
ARC
  5
57A
330
1F
100
AcDbEntity
  8
0
  6
Continuous
347
0
 62
     7
100
AcDbCircle
 10
84.33395839260334
 20
-79.48371350708683
 30
0.0
 40
3.49742317024
100
AcDbArc
 50
271.4754978258
 51
0.0245345475
  0
ARC
  5
57B
330
1F
100
AcDbEntity
  8
0
  6
Continuous
347
0
 62
     7
100
AcDbCircle
 10
84.32922377418336
 20
-79.47910024732684
 30
0.0
 40
3.39737109704
100
AcDbArc
 50
271.4999998518
 51
0.0
  0
ARC
  5
57C
330
1F
100
AcDbEntity
  8
0
  6
Continuous
347
0
 62
     7
100
AcDbCircle
 10
74.31035967174336
 20
-77.31040870714685
 30
0.0
 40
13.65942848246
100
AcDbArc
 50
10.8278845601
 51
15.3937262187
  0
ARC
  5
57D
330
1F
100
AcDbEntity
  8
0
  6
Continuous
347
0
 62
     7
100
AcDbCircle
 10
81.71712011092336
 20
-69.65707982536688
 30
0.0
 40
13.65491693446
100
AcDbArc
 50
254.2069756831
 51
258.1206728227
  0
CIRCLE
  5
57E
330
1F
100
AcDbEntity
  8
0
  6
Continuous
347
0
 62
     7
100
AcDbCircle
 10
63.15012367120337
 20
-59.37857219598686
 30
0.0
 40
7.500000001239999
  0
ARC
  5
57F
330
1F
100
AcDbEntity
  8
0
  6
Continuous
347
0
 62
     7
100
AcDbCircle
 10
81.67974900456335
 20
-77.13740326702685
 30
0.0
 40
6.750000000099999
100
AcDbArc
 50
190.4403833224
 51
236.9688883831001
  0
ARC
  5
580
330
1F
100
AcDbEntity
  8
0
  6
Continuous
347
0
 62
     7
100
AcDbCircle
 10
81.67974900456335
 20
-77.13740326702685
 30
0.0
 40
6.750000000099999
100
AcDbArc
 50
30.7664859802
 51
80.8766663147
  0
ARC
  5
581
330
1F
100
AcDbEntity
  8
0
  6
Continuous
347
0
 62
     7
100
AcDbCircle
 10
81.67974900456335
 20
-77.13740326702685
 30
0.0
 40
6.50315413362
100
AcDbArc
 50
21.5912370232
 51
90.8305843142
  0
ARC
  5
582
330
1F
100
AcDbEntity
  8
0
  6
Continuous
347
0
 62
     7
100
AcDbCircle
 10
81.67974900456335
 20
-77.13740326702685
 30
0.0
 40
6.50315413362
100
AcDbArc
 50
180.4865573565
 51
244.7586354914
  0
ARC
  5
583
330
1F
100
AcDbEntity
  8
0
  6
Continuous
347
0
 62
     7
100
AcDbCircle
 10
59.85012366974338
 20
-65.97857219636685
 30
0.0
 40
5.999999998959999
100
AcDbArc
 50
130.7148322477
 51
356.1550655063
  0
ARC
  5
584
330
1F
100
AcDbEntity
  8
0
  6
Continuous
347
0
 62
     7
100
AcDbCircle
 10
69.67252456846336
 20
-55.92773366968686
 30
0.0
 40
5.999999998959999
100
AcDbArc
 50
275.1620760714
 51
310.4426624465
  0
ARC
  5
585
330
1F
100
AcDbEntity
  8
0
  6
Continuous
347
0
 62
     7
100
AcDbCircle
 10
59.85012366974338
 20
-65.97857219636685
 30
0.0
 40
5.86385049478
100
AcDbArc
 50
131.3158863995
 51
355.5540112514
  0
ARC
  5
586
330
1F
100
AcDbEntity
  8
0
  6
Continuous
347
0
 62
     7
100
AcDbCircle
 10
69.67252456846336
 20
-55.92773366968686
 30
0.0
 40
5.863850492239999
100
AcDbArc
 50
275.7631304002
 51
310.4426622421
  0
ARC
  5
587
330
1F
100
AcDbEntity
  8
0
  6
Continuous
347
0
 62
     7
100
AcDbCircle
 10
69.67252456846336
 20
-55.92773366968686
 30
0.0
 40
4.13614950518
100
AcDbArc
 50
283.3587653069
 51
309.2792008199
  0
ARC
  5
588
330
1F
100
AcDbEntity
  8
0
  6
Continuous
347
0
 62
     7
100
AcDbCircle
 10
69.67252456846336
 20
-55.92773366968686
 30
0.0
 40
4.000000001
100
AcDbArc
 50
283.963382996
 51
309.2792005638
  0
CIRCLE
  5
589
330
1F
100
AcDbEntity
  8
0
  6
Continuous
347
0
 62
     7
100
AcDbCircle
 10
81.67974900456335
 20
-77.13740326702685
 30
0.0
 40
3.50000000024
  0
CIRCLE
  5
58A
330
1F
100
AcDbEntity
  8
0
  6
Continuous
347
0
 62
     7
100
AcDbCircle
 10
63.15012367120337
 20
-59.37857219598686
 30
0.0
 40
3.450000001179999
  0
ARC
  5
58B
330
1F
100
AcDbEntity
  8
0
  6
Continuous
347
0
 62
     7
100
AcDbCircle
 10
72.52147417662334
 20
-59.41104906270684
 30
0.0
 40
0.50000000076
100
AcDbArc
 50
45.65857900789999
 51
129.2792010417
  0
ARC
  5
58C
330
1F
100
AcDbEntity
  8
0
  6
Continuous
347
0
 62
     7
100
AcDbCircle
 10
73.24030174836335
 20
-60.11353896582686
 30
0.0
 40
0.50000000076
100
AcDbArc
 50
310.4426645046
 51
45.6585592018
  0
ARC
  5
58D
330
1F
100
AcDbEntity
  8
0
  6
Continuous
347
0
 62
     7
100
AcDbCircle
 10
72.52147417662334
 20
-59.41104906270684
 30
0.0
 40
0.36385049404
100
AcDbArc
 50
45.6585714605
 51
129.2791983086
  0
ARC
  5
58E
330
1F
100
AcDbEntity
  8
0
  6
Continuous
347
0
 62
     7
100
AcDbCircle
 10
73.24030174836335
 20
-60.11353896582686
 30
0.0
 40
0.36385049404
100
AcDbArc
 50
310.4426619793
 51
45.65857087019999
  0
ARC
  5
58F
330
1F
100
AcDbEntity
  8
0
  6
Continuous
347
0
 62
     7
100
AcDbCircle
 10
82.79717761044336
 20
-70.17690985758685
 30
0.0
 40
0.29961857526
100
AcDbArc
 50
135.5940020455
 51
260.9464081703
  0
ARC
  5
590
330
1F
100
AcDbEntity
  8
0
  6
Continuous
347
0
 62
     7
100
AcDbCircle
 10
74.74678147606338
 20
-78.41453028096686
 30
0.0
 40
0.29961565934
100
AcDbArc
 50
10.3722290477
 51
135.7248078003
  0
ARC
  5
591
330
1F
100
AcDbEntity
  8
0
  6
Continuous
347
0
 62
     7
100
AcDbCircle
 10
109.3857535238634
 20
-87.70687421338687
 30
0.0
 40
20.64719179418
100
AcDbArc
 50
169.7445632097
 51
170.2061730551
  0
ARC
  5
592
330
1F
100
AcDbEntity
  8
0
  6
Continuous
347
0
 62
     7
100
AcDbCircle
 10
87.44299275110333
 20
-102.2656268712869
 30
0.0
 40
16.89601940576
100
AcDbArc
 50
90.19317461860003
 51
90.85234928460001
  0
ARC
  5
593
330
1F
100
AcDbEntity
  8
0
  6
Continuous
347
0
 62
     7
100
AcDbCircle
 10
88.03547016660332
 20
-89.84368815666687
 30
0.0
 40
8.8301818824
100
AcDbArc
 50
31.6213881506
 51
34.336901976
  0
ARC
  5
594
330
1F
100
AcDbEntity
  8
0
  6
Continuous
347
0
 62
     7
100
AcDbCircle
 10
91.95545744980336
 20
-85.95156193534686
 30
0.0
 40
8.7719904824
100
AcDbArc
 50
233.5255254191
 51
236.1078812885
  0
ARC
  5
595
330
1F
100
AcDbEntity
  8
0
  6
Continuous
347
0
 62
     7
100
AcDbCircle
 10
91.52872411734339
 20
-89.48866175470687
 30
0.0
 40
5.98799683018
100
AcDbArc
 50
89.79517423540001
 51
99.1507554291
  0
ARC
  5
596
330
1F
100
AcDbEntity
  8
0
  6
Continuous
347
0
 62
     7
100
AcDbCircle
 10
91.55173710916335
 20
-89.45608025014687
 30
0.0
 40
5.978483885019999
100
AcDbArc
 50
166.7743658637
 51
216.4176835294
  0
ARC
  5
597
330
1F
100
AcDbEntity
  8
0
  6
Continuous
347
0
 62
     7
100
AcDbCircle
 10
91.52829491576338
 20
-89.47767677032684
 30
0.0
 40
5.97701346886
100
AcDbArc
 50
50.5407488783
 51
89.7906834865
  0
ARC
  5
598
330
1F
100
AcDbEntity
  8
0
  6
Continuous
347
0
 62
     7
100
AcDbCircle
 10
91.52358218198336
 20
-89.45383330010688
 30
0.0
 40
5.95279418278
100
AcDbArc
 50
99.1552076934
 51
114.355942483
  0
ARC
  5
599
330
1F
100
AcDbEntity
  8
0
  6
Continuous
347
0
 62
     7
100
AcDbCircle
 10
91.52216862372336
 20
-89.44906843536685
 30
0.0
 40
5.948095446939999
100
AcDbArc
 50
136.725593126
 51
166.7749530741
  0
ARC
  5
59A
330
1F
100
AcDbEntity
  8
0
  6
Continuous
347
0
 62
     7
100
AcDbCircle
 10
91.55012367068338
 20
-89.47857219652684
 30
0.0
 40
5.84999999924
100
AcDbArc
 50
135.3824821169
 51
219.926076828
  0
ARC
  5
59B
330
1F
100
AcDbEntity
  8
0
  6
Continuous
347
0
 62
     7
100
AcDbCircle
 10
91.55012367068338
 20
-89.47857219652684
 30
0.0
 40
5.84999999924
100
AcDbArc
 50
46.8010485736
 51
115.4150066406
  0
ARC
  5
59C
330
1F
100
AcDbEntity
  8
0
  6
Continuous
347
0
 62
     7
100
AcDbCircle
 10
84.92119006294334
 20
-80.11279175362685
 30
0.0
 40
5.55567906642
100
AcDbArc
 50
331.193593223
 51
359.9990384121
  0
ARC
  5
59D
330
1F
100
AcDbEntity
  8
0
  6
Continuous
347
0
 62
     7
100
AcDbCircle
 10
84.96783355360336
 20
-80.13720778556686
 30
0.0
 40
5.503176768579999
100
AcDbArc
 50
316.5274174053
 51
331.1819313368
  0
ARC
  5
59E
330
1F
100
AcDbEntity
  8
0
  6
Continuous
347
0
 62
     7
100
AcDbCircle
 10
84.6652321877634
 20
-79.80642517306686
 30
0.0
 40
5.49545971264
100
AcDbArc
 50
271.4844164371
 51
0.0155835793
  0
ARC
  5
59F
330
1F
100
AcDbEntity
  8
0
  6
Continuous
347
0
 62
     7
100
AcDbCircle
 10
93.20085308448336
 20
-90.87930160994685
 30
0.0
 40
5.495265082599999
100
AcDbArc
 50
269.9832196371
 51
0.0167793584
  0
CIRCLE
  5
5A0
330
1F
100
AcDbEntity
  8
0
  6
Continuous
347
0
 62
     7
100
AcDbCircle
 10
91.55012367068338
 20
-89.47857219652684
 30
0.0
 40
3.50000000024
  0
ARC
  5
5A1
330
1F
100
AcDbEntity
  8
0
  6
Continuous
347
0
 62
     7
100
AcDbCircle
 10
84.69822167982335
 20
-79.83856204300687
 30
0.0
 40
3.49741906052
100
AcDbArc
 50
271.4905468267
 51
0.0094530197
  0
ARC
  5
5A2
330
1F
100
AcDbEntity
  8
0
  6
Continuous
347
0
 62
     7
100
AcDbCircle
 10
93.19621789690333
 20
-90.87466644522686
 30
0.0
 40
2.498131148
100
AcDbArc
 50
269.9885218996
 51
0.0114789766
  0
ARC
  5
5A3
330
1F
100
AcDbEntity
  8
0
  6
Continuous
347
0
 62
     7
100
AcDbCircle
 10
93.05655514346336
 20
-90.73500366892685
 30
0.0
 40
2.49810472946
100
AcDbArc
 50
269.9888595297
 51
0.0111402303
  0
ARC
  5
5A4
330
1F
100
AcDbEntity
  8
0
  6
Continuous
347
0
 62
     7
100
AcDbCircle
 10
59.85012366974338
 20
106.0214278034531
 30
0.0
 40
5.999999998959999
100
AcDbArc
 50
3.844934479
 51
229.2851679379
  0
ARC
  5
5A5
330
1F
100
AcDbEntity
  8
0
  6
Continuous
347
0
 62
     7
100
AcDbCircle
 10
59.85012366974338
 20
106.0214278034531
 30
0.0
 40
5.86385049478
100
AcDbArc
 50
4.44598875
 51
228.6841136009
  0
ARC
  5
5A6
330
1F
100
AcDbEntity
  8
0
  6
Continuous
347
0
 62
     7
100
AcDbCircle
 10
13.70260919838335
 20
91.39240877605309
 30
0.0
 40
2.57142857316
100
AcDbArc
 50
270.0000000375
 51
48.5903778788
  0
ARC
  5
5A7
330
1F
100
AcDbEntity
  8
0
  6
Continuous
347
0
 62
     7
100
AcDbCircle
 10
13.70260919838335
 20
95.2495516332531
 30
0.0
 40
2.57142857316
100
AcDbArc
 50
311.4096221232
 51
90.0000000225
  0
ARC
  5
5A8
330
1F
100
AcDbEntity
  8
0
  6
Continuous
347
0
 62
     7
100
AcDbCircle
 10
24.95260919770337
 20
91.39240877605309
 30
0.0
 40
2.57142857316
100
AcDbArc
 50
270.0000001597
 51
0.0
  0
ARC
  5
5A9
330
1F
100
AcDbEntity
  8
0
  6
Continuous
347
0
 62
     7
100
AcDbCircle
 10
24.95260919770337
 20
95.2495516332531
 30
0.0
 40
2.57142857316
100
AcDbArc
 50
0.0
 51
89.9999999782
  0
ARC
  5
5AA
330
1F
100
AcDbEntity
  8
0
  6
Continuous
347
0
 62
     7
100
AcDbCircle
 10
20.18260919746336
 20
95.2495516332531
 30
0.0
 40
2.57142857316
100
AcDbArc
 50
90.00000004350002
 51
179.9999999288
  0
ARC
  5
5AB
330
1F
100
AcDbEntity
  8
0
  6
Continuous
347
0
 62
     7
100
AcDbCircle
 10
20.18260919746336
 20
91.39240877605309
 30
0.0
 40
2.57142857316
100
AcDbArc
 50
180.0000000267
 51
269.9999998838
  0
ARC
  5
5AC
330
1F
100
AcDbEntity
  8
0
  6
Continuous
347
0
 62
     7
100
AcDbCircle
 10
12.73832348408335
 20
91.4727659203931
 30
0.0
 40
1.0446428561
100
AcDbArc
 50
270.0000002251
 51
90.00000049239998
  0
ARC
  5
5AD
330
1F
100
AcDbEntity
  8
0
  6
Continuous
347
0
 62
     7
100
AcDbCircle
 10
12.73832348408335
 20
95.16919449145317
 30
0.0
 40
1.0446428561
100
AcDbArc
 50
269.9999995479
 51
89.99999993889999
  0
ARC
  5
5AE
330
1F
100
AcDbEntity
  8
0
  6
Continuous
347
0
 62
     7
100
AcDbCircle
 10
20.54005027074338
 20
95.16919449145317
 30
0.0
 40
0.9604160700199998
100
AcDbArc
 50
90.00000043250002
 51
179.9999998303
  0
ARC
  5
5AF
330
1F
100
AcDbEntity
  8
0
  6
Continuous
347
0
 62
     7
100
AcDbCircle
 10
24.59516812442335
 20
95.16919449145317
 30
0.0
 40
0.9604160700199998
100
AcDbArc
 50
0.000000028
 51
89.99999943469999
  0
ARC
  5
5B0
330
1F
100
AcDbEntity
  8
0
  6
Continuous
347
0
 62
     7
100
AcDbCircle
 10
24.59516812442335
 20
91.4727659203931
 30
0.0
 40
0.9604160700199998
100
AcDbArc
 50
270.0000004444
 51
359.9999999284
  0
ARC
  5
5B1
330
1F
100
AcDbEntity
  8
0
  6
Continuous
347
0
 62
     7
100
AcDbCircle
 10
20.54005027074338
 20
91.4727659203931
 30
0.0
 40
0.9604160700199998
100
AcDbArc
 50
180.0000001375
 51
269.9999994943
  0
ARC
  5
5B2
330
1F
100
AcDbEntity
  8
0
  6
Continuous
347
0
 62
     7
100
AcDbCircle
 10
81.74921532740333
 20
109.5696031023132
 30
0.0
 40
13.78906541394
100
AcDbArc
 50
101.8983500296
 51
105.7739625325
  0
CIRCLE
  5
5B3
330
1F
100
AcDbEntity
  8
0
  6
Continuous
347
0
 62
     7
100
AcDbCircle
 10
63.15012367120337
 20
99.42142780307316
 30
0.0
 40
7.500000001239999
  0
ARC
  5
5B4
330
1F
100
AcDbEntity
  8
0
  6
Continuous
347
0
 62
     7
100
AcDbCircle
 10
69.67252456846336
 20
95.97058927677313
 30
0.0
 40
5.999999998959999
100
AcDbArc
 50
49.5573380747
 51
84.83792388810001
  0
ARC
  5
5B5
330
1F
100
AcDbEntity
  8
0
  6
Continuous
347
0
 62
     7
100
AcDbCircle
 10
69.67252456846336
 20
95.97058927677313
 30
0.0
 40
5.863850492239999
100
AcDbArc
 50
49.5573377549
 51
84.2368696006
  0
ARC
  5
5B6
330
1F
100
AcDbEntity
  8
0
  6
Continuous
347
0
 62
     7
100
AcDbCircle
 10
69.67252456846336
 20
95.97058927677313
 30
0.0
 40
4.13614950518
100
AcDbArc
 50
50.7207991834
 51
76.6412346924
  0
ARC
  5
5B7
330
1F
100
AcDbEntity
  8
0
  6
Continuous
347
0
 62
     7
100
AcDbCircle
 10
69.67252456846336
 20
95.97058927677313
 30
0.0
 40
4.000000001
100
AcDbArc
 50
50.72079837089999
 51
76.0366168137
  0
CIRCLE
  5
5B8
330
1F
100
AcDbEntity
  8
0
  6
Continuous
347
0
 62
     7
100
AcDbCircle
 10
63.15012367120337
 20
99.42142780307316
 30
0.0
 40
3.450000001179999
  0
ARC
  5
5B9
330
1F
100
AcDbEntity
  8
0
  6
Continuous
347
0
 62
     7
100
AcDbCircle
 10
72.52147417662334
 20
99.45390466725311
 30
0.0
 40
0.50000000076
100
AcDbArc
 50
230.7208074804
 51
314.3414381314
  0
ARC
  5
5BA
330
1F
100
AcDbEntity
  8
0
  6
Continuous
347
0
 62
     7
100
AcDbCircle
 10
73.24030174836335
 20
100.1563945729131
 30
0.0
 40
0.50000000076
100
AcDbArc
 50
314.3414187713
 51
49.5573417499
  0
ARC
  5
5BB
330
1F
100
AcDbEntity
  8
0
  6
Continuous
347
0
 62
     7
100
AcDbCircle
 10
72.52147417662334
 20
99.45390466725311
 30
0.0
 40
0.36385049404
100
AcDbArc
 50
230.7208016537
 51
314.3414285435
  0
ARC
  5
5BC
330
1F
100
AcDbEntity
  8
0
  6
Continuous
347
0
 62
     7
100
AcDbCircle
 10
73.24030174836335
 20
100.1563945729131
 30
0.0
 40
0.36385049404
100
AcDbArc
 50
314.3414291279
 51
49.55733797199999
  0
ARC
  5
5BD
330
1F
100
AcDbEntity
  8
0
  6
Continuous
347
0
 62
     7
100
AcDbCircle
 10
82.79734017552335
 20
110.2197121373732
 30
0.0
 40
0.29969353574
100
AcDbArc
 50
99.0963820308
 51
224.4126811716
  0
ARC
  5
5BE
330
1F
100
AcDbEntity
  8
0
  6
Continuous
347
0
 62
     7
100
AcDbCircle
 10
109.3857538134233
 20
127.7497299093731
 30
0.0
 40
20.6471920939
100
AcDbArc
 50
189.7938270506
 51
190.2554368886
  0
ARC
  5
5BF
330
1F
100
AcDbEntity
  8
0
  6
Continuous
347
0
 62
     7
100
AcDbCircle
 10
87.44299275364332
 20
142.3084822878731
 30
0.0
 40
16.8960192178
100
AcDbArc
 50
269.1476507029
 51
269.8068253761
  0
ARC
  5
5C0
330
1F
100
AcDbEntity
  8
0
  6
Continuous
347
0
 62
     7
100
AcDbCircle
 10
74.44852234182338
 20
117.3210853844331
 30
0.0
 40
13.51768173776
100
AcDbArc
 50
344.5823221422
 51
349.1960670829
  0
ARC
  5
5C1
330
1F
100
AcDbEntity
  8
0
  6
Continuous
347
0
 62
     7
100
AcDbCircle
 10
91.98289697836336
 20
125.9554485144531
 30
0.0
 40
8.81966161896
100
AcDbArc
 50
123.8991343583
 51
126.4675278069
  0
ARC
  5
5C2
330
1F
100
AcDbEntity
  8
0
  6
Continuous
347
0
 62
     7
100
AcDbCircle
 10
88.07223575220337
 20
129.8627313729731
 30
0.0
 40
8.78636184304
100
AcDbArc
 50
325.6563720477
 51
328.385435021
  0
ARC
  5
5C3
330
1F
100
AcDbEntity
  8
0
  6
Continuous
347
0
 62
     7
100
AcDbCircle
 10
81.67974900456335
 20
117.1802588715731
 30
0.0
 40
6.750000000099999
100
AcDbArc
 50
123.0311116015
 51
169.55952324
  0
ARC
  5
5C4
330
1F
100
AcDbEntity
  8
0
  6
Continuous
347
0
 62
     7
100
AcDbCircle
 10
81.67974900456335
 20
117.1802588715731
 30
0.0
 40
6.750000000099999
100
AcDbArc
 50
279.1227252592
 51
329.2335140248
  0
ARC
  5
5C5
330
1F
100
AcDbEntity
  8
0
  6
Continuous
347
0
 62
     7
100
AcDbCircle
 10
81.67974900456335
 20
117.1802588715731
 30
0.0
 40
6.50315413362
100
AcDbArc
 50
115.241364535
 51
179.5134426457
  0
ARC
  5
5C6
330
1F
100
AcDbEntity
  8
0
  6
Continuous
347
0
 62
     7
100
AcDbCircle
 10
81.67974900456335
 20
117.1802588715731
 30
0.0
 40
6.50315413362
100
AcDbArc
 50
269.9379446363
 51
338.4087629781
  0
ARC
  5
5C7
330
1F
100
AcDbEntity
  8
0
  6
Continuous
347
0
 62
     7
100
AcDbCircle
 10
91.52819357230334
 20
129.5208088081531
 30
0.0
 40
5.97729130168
100
AcDbArc
 50
260.84926716
 51
309.458317164
  0
ARC
  5
5C8
330
1F
100
AcDbEntity
  8
0
  6
Continuous
347
0
 62
     7
100
AcDbCircle
 10
91.55019784630338
 20
129.4992517087731
 30
0.0
 40
5.97705774868
100
AcDbArc
 50
143.5759931984
 51
193.231957385
  0
ARC
  5
5C9
330
1F
100
AcDbEntity
  8
0
  6
Continuous
347
0
 62
     7
100
AcDbCircle
 10
91.52358064782337
 20
129.4966829788331
 30
0.0
 40
5.952788086779999
100
AcDbArc
 50
245.6440476773
 51
260.8447977929
  0
ARC
  5
5CA
330
1F
100
AcDbEntity
  8
0
  6
Continuous
347
0
 62
     7
100
AcDbCircle
 10
91.52219038644336
 20
129.4919357137531
 30
0.0
 40
5.948119302619999
100
AcDbArc
 50
193.2251084162
 51
223.2743450456
  0
ARC
  5
5CB
330
1F
100
AcDbEntity
  8
0
  6
Continuous
347
0
 62
     7
100
AcDbCircle
 10
91.55012367068338
 20
129.5214278036131
 30
0.0
 40
5.84999999924
100
AcDbArc
 50
244.5849933626
 51
313.198951428
  0
ARC
  5
5CC
330
1F
100
AcDbEntity
  8
0
  6
Continuous
347
0
 62
     7
100
AcDbCircle
 10
91.55012367068338
 20
129.5214278036131
 30
0.0
 40
5.84999999924
100
AcDbArc
 50
140.0739231797
 51
224.617517887
  0
ARC
  5
5CD
330
1F
100
AcDbEntity
  8
0
  6
Continuous
347
0
 62
     7
100
AcDbCircle
 10
84.91733018750332
 20
120.1550018959132
 30
0.0
 40
5.55953958702
100
AcDbArc
 50
0.0275860288
 51
28.7935681723
  0
ARC
  5
5CE
330
1F
100
AcDbEntity
  8
0
  6
Continuous
347
0
 62
     7
100
AcDbCircle
 10
84.96783090184337
 20
120.1800671162931
 30
0.0
 40
5.50317739342
100
AcDbArc
 50
28.8180200895
 51
43.4725311149
  0
ARC
  5
5CF
330
1F
100
AcDbEntity
  8
0
  6
Continuous
347
0
 62
     7
100
AcDbCircle
 10
84.66510906380336
 20
119.8491608362731
 30
0.0
 40
5.495595145439999
100
AcDbArc
 50
359.9846085791
 51
88.51539237690001
  0
ARC
  5
5D0
330
1F
100
AcDbEntity
  8
0
  6
Continuous
347
0
 62
     7
100
AcDbCircle
 10
93.20073602350337
 20
130.9220401560531
 30
0.0
 40
5.49540816842
100
AcDbArc
 50
359.9864384044
 51
90.0135626194
  0
CIRCLE
  5
5D1
330
1F
100
AcDbEntity
  8
0
  6
Continuous
347
0
 62
     7
100
AcDbCircle
 10
81.67974900456335
 20
117.1802588715731
 30
0.0
 40
3.50000000024
  0
CIRCLE
  5
5D2
330
1F
100
AcDbEntity
  8
0
  6
Continuous
347
0
 62
     7
100
AcDbCircle
 10
91.55012367068338
 20
129.5214278036131
 30
0.0
 40
3.50000000024
  0
ARC
  5
5D3
330
1F
100
AcDbEntity
  8
0
  6
Continuous
347
0
 62
     7
100
AcDbCircle
 10
84.33395929684337
 20
119.5265681311931
 30
0.0
 40
3.497423185479999
100
AcDbArc
 50
359.9754962146
 51
88.5245324609
  0
ARC
  5
5D4
330
1F
100
AcDbEntity
  8
0
  6
Continuous
347
0
 62
     7
100
AcDbCircle
 10
84.69822166966335
 20
119.8814176424731
 30
0.0
 40
3.49741907068
100
AcDbArc
 50
359.9905490257
 51
88.5094538075
  0
ARC
  5
5D5
330
1F
100
AcDbEntity
  8
0
  6
Continuous
347
0
 62
     7
100
AcDbCircle
 10
84.32922377418336
 20
119.5219558544132
 30
0.0
 40
3.39737109704
100
AcDbArc
 50
0.0000000506
 51
88.50000008290002
  0
ARC
  5
5D6
330
1F
100
AcDbEntity
  8
0
  6
Continuous
347
0
 62
     7
100
AcDbCircle
 10
93.19621789690333
 20
130.9175220548532
 30
0.0
 40
2.49813114292
100
AcDbArc
 50
359.9885263964
 51
90.01147301959999
  0
ARC
  5
5D7
330
1F
100
AcDbEntity
  8
0
  6
Continuous
347
0
 62
     7
100
AcDbCircle
 10
93.05653859282336
 20
130.7778427253731
 30
0.0
 40
2.4981216103
100
AcDbArc
 50
359.9908944181
 51
90.00910552479999
  0
ARC
  5
5D8
330
1F
100
AcDbEntity
  8
0
  6
Continuous
347
0
 62
     7
100
AcDbCircle
 10
74.74678061500333
 20
118.4573891748131
 30
0.0
 40
0.2996185701799999
100
AcDbArc
 50
224.2768277534
 51
349.6292868921
  0
ARC
  5
5D9
330
1F
100
AcDbEntity
  8
0
  6
Continuous
347
0
 62
     7
100
AcDbCircle
 10
84.63246626142336
 20
-100.6551522029868
 30
0.0
 40
51.23559222762
100
AcDbArc
 50
270.0046454164
 51
272.2532109409
  0
ARC
  5
5DC
330
1F
100
AcDbEntity
  8
0
  6
Continuous
347
0
 62
     7
100
AcDbCircle
 10
91.26225067010336
 20
-104.1485196002868
 30
0.0
 40
46.43733720642
100
AcDbArc
 50
269.4137054392
 51
272.0036398819
  0
ARC
  5
5DE
330
1F
100
AcDbEntity
  8
0
  6
Continuous
347
0
 62
     7
100
AcDbCircle
 10
90.78217936964336
 20
-101.9546451031069
 30
0.0
 40
46.27066666854
100
AcDbArc
 50
270.0060629793
 51
272.4749797907
  0
CIRCLE
  5
5DF
330
1F
100
AcDbEntity
  8
0
  6
Continuous
347
0
 62
     7
100
AcDbCircle
 10
-12.94987633067664
 20
-214.4773297143869
 30
0.0
 40
10.99999999894
  0
CIRCLE
  5
5E0
330
1F
100
AcDbEntity
  8
0
  6
Continuous
347
0
 62
     7
100
AcDbCircle
 10
31.05012367016338
 20
-214.4773297143869
 30
0.0
 40
10.99999999894
  0
CIRCLE
  5
5E1
330
1F
100
AcDbEntity
  8
0
  6
Continuous
347
0
 62
     7
100
AcDbCircle
 10
-12.94987633067664
 20
-214.4773297143869
 30
0.0
 40
9.99999999996
  0
CIRCLE
  5
5E2
330
1F
100
AcDbEntity
  8
0
  6
Continuous
347
0
 62
     7
100
AcDbCircle
 10
31.05012367016338
 20
-214.4773297143869
 30
0.0
 40
9.99999999996
  0
ARC
  5
5E4
330
1F
100
AcDbEntity
  8
0
  6
Continuous
347
0
 62
     7
100
AcDbCircle
 10
95.77695625332333
 20
-148.1380567518468
 30
0.0
 40
2.50000000126
100
AcDbArc
 50
282.0000000274
 51
357.9999999937
  0
ARC
  5
5E6
330
1F
100
AcDbEntity
  8
0
  6
Continuous
347
0
 62
     7
100
AcDbCircle
 10
95.78030446608335
 20
-148.0940509064068
 30
0.0
 40
2.4982420825
100
AcDbArc
 50
279.5858863437
 51
357.979118715
  0
ARC
  5
5E9
330
1F
100
AcDbEntity
  8
0
  6
Continuous
347
0
 62
     7
100
AcDbCircle
 10
151.7660936957033
 20
-88.94069082118688
 30
0.0
 40
46.4375958597
100
AcDbArc
 50
357.9963379794
 51
0.5862849520000001
  0
ARC
  5
5EA
330
1F
100
AcDbEntity
  8
0
  6
Continuous
347
0
 62
     7
100
AcDbCircle
 10
151.7663516885834
 20
128.9835547797931
 30
0.0
 40
46.43733724705999
100
AcDbArc
 50
359.4137054546
 51
2.0036398932
  0
ARC
  5
5EB
330
1F
100
AcDbEntity
  8
0
  6
Continuous
347
0
 62
     7
100
AcDbCircle
 10
149.5724510725833
 20
-88.46045545958685
 30
0.0
 40
46.27068530705999
100
AcDbArc
 50
357.5248068195
 51
359.9937234833
  0
ARC
  5
5EC
330
1F
100
AcDbEntity
  8
0
  6
Continuous
347
0
 62
     7
100
AcDbCircle
 10
149.5724781312034
 20
128.5034848179132
 30
0.0
 40
46.27066576176
100
AcDbArc
 50
0.0060613663
 51
2.474978177
  0
ARC
  5
5ED
330
1F
100
AcDbEntity
  8
0
  6
Continuous
347
0
 62
     7
100
AcDbCircle
 10
195.7558888833233
 20
133.4982603858732
 30
0.0
 40
2.50000000126
100
AcDbArc
 50
12.0000000272
 51
87.99999999370002
  0
ARC
  5
5EE
330
1F
100
AcDbEntity
  8
0
  6
Continuous
347
0
 62
     7
100
AcDbCircle
 10
195.7558888833233
 20
-93.45540477878686
 30
0.0
 40
2.50000000126
100
AcDbArc
 50
272.0000000063
 51
347.9999999728
  0
ARC
  5
5EF
330
1F
100
AcDbEntity
  8
0
  6
Continuous
347
0
 62
     7
100
AcDbCircle
 10
195.7118830277233
 20
133.5016085910131
 30
0.0
 40
2.49824209266
100
AcDbArc
 50
9.5859599479
 51
87.9789459567
  0
ARC
  5
5F0
330
1F
100
AcDbEntity
  8
0
  6
Continuous
347
0
 62
     7
100
AcDbCircle
 10
195.7118830531234
 20
-93.45875300678685
 30
0.0
 40
2.49824206726
100
AcDbArc
 50
272.0208042314
 51
350.4140921616
  0
ARC
  5
5F2
330
1F
100
AcDbEntity
  8
0
  6
Continuous
347
0
 62
     7
100
AcDbCircle
 10
84.62440158616337
 20
138.6970035367531
 30
0.0
 40
51.23526885767999
100
AcDbArc
 50
87.7377493061
 51
89.98633592520001
  0
ARC
  5
5F3
330
1F
100
AcDbEntity
  8
0
  6
Continuous
347
0
 62
     7
100
AcDbCircle
 10
91.26224228556333
 20
142.1894602424532
 30
0.0
 40
46.43759580382
100
AcDbArc
 50
87.99633797799999
 51
90.58628493609999
  0
ARC
  5
5F5
330
1F
100
AcDbEntity
  8
0
  6
Continuous
347
0
 62
     7
100
AcDbCircle
 10
90.78200811268334
 20
139.9958168598731
 30
0.0
 40
46.2706859827
100
AcDbArc
 50
87.5248082883
 51
89.99372495899999
  0
ARC
  5
5F8
330
1F
100
AcDbEntity
  8
0
  6
Continuous
347
0
 62
     7
100
AcDbCircle
 10
95.77695625332333
 20
186.1792553716531
 30
0.0
 40
2.50000000126
100
AcDbArc
 50
2.0000000063
 51
77.99999997260001
  0
ARC
  5
5FB
330
1F
100
AcDbEntity
  8
0
  6
Continuous
347
0
 62
     7
100
AcDbCircle
 10
95.78030447116339
 20
186.1352495338331
 30
0.0
 40
2.49824207742
100
AcDbArc
 50
2.0208811613
 51
80.4141136342
  0
ARC
  5
606
330
1F
100
AcDbEntity
  8
0
  6
Continuous
347
0
 62
     7
100
AcDbCircle
 10
-514.4439074909766
 20
-82.32178096784685
 30
0.0
 40
5.50332716706
100
AcDbArc
 50
198.2350245869
 51
270.0138136484
  0
ARC
  5
608
330
1F
100
AcDbEntity
  8
0
  6
Continuous
347
0
 62
     7
100
AcDbCircle
 10
-514.4440529440765
 20
122.3648876259932
 30
0.0
 40
5.503054360899999
100
AcDbArc
 50
89.9846712472
 51
161.7669839799
  0
ARC
  5
609
330
1F
100
AcDbEntity
  8
0
  6
Continuous
347
0
 62
     7
100
AcDbCircle
 10
-520.9964815028966
 20
130.9220401560531
 30
0.0
 40
5.49540816842
100
AcDbArc
 50
89.9864373826
 51
180.0135615936
  0
ARC
  5
60B
330
1F
100
AcDbEntity
  8
0
  6
Continuous
347
0
 62
     7
100
AcDbCircle
 10
-520.9965985638765
 20
-90.87930160994685
 30
0.0
 40
5.495265082599999
100
AcDbArc
 50
179.9832206416
 51
270.0167803629
  0
ARC
  5
60F
330
1F
100
AcDbEntity
  8
0
  6
Continuous
347
0
 62
     7
100
AcDbCircle
 10
-520.5775953556566
 20
130.5031540062731
 30
0.0
 40
5.495100866519999
100
AcDbArc
 50
89.9837452721
 51
180.016254893
  0
ARC
  5
610
330
1F
100
AcDbEntity
  8
0
  6
Continuous
347
0
 62
     7
100
AcDbCircle
 10
-520.5775953556566
 20
-90.46029840172687
 30
0.0
 40
5.495100866519999
100
AcDbArc
 50
179.9837452965
 51
270.0162547634
  0
CIRCLE
  5
612
330
1F
100
AcDbEntity
  8
0
  6
Continuous
347
0
 62
     7
100
AcDbCircle
 10
-487.6458691491366
 20
106.0214278034531
 30
0.0
 40
3.450000001179999
  0
CIRCLE
  5
614
330
1F
100
AcDbEntity
  8
0
  6
Continuous
347
0
 62
     7
100
AcDbCircle
 10
-487.6458691491366
 20
-65.97857219636685
 30
0.0
 40
3.450000001179999
  0
CIRCLE
  5
617
330
1F
100
AcDbEntity
  8
0
  6
Continuous
347
0
 62
     7
100
AcDbCircle
 10
-487.6458691491366
 20
106.0214278034531
 30
0.0
 40
2.75073187978
  0
CIRCLE
  5
618
330
1F
100
AcDbEntity
  8
0
  6
Continuous
347
0
 62
     7
100
AcDbCircle
 10
-487.6458691491366
 20
-65.97857219636685
 30
0.0
 40
2.75073187978
  0
ARC
  5
61B
330
1F
100
AcDbEntity
  8
0
  6
Continuous
347
0
 62
     7
100
AcDbCircle
 10
-512.6103742289166
 20
-80.49307727448686
 30
0.0
 40
2.50011081892
100
AcDbArc
 50
180.0034109688
 51
269.99658913
  0
ARC
  5
61C
330
1F
100
AcDbEntity
  8
0
  6
Continuous
347
0
 62
     7
100
AcDbCircle
 10
-512.6104642871567
 20
120.5360229271132
 30
0.0
 40
2.50002012314
100
AcDbArc
 50
90.0013453222
 51
179.9986561434
  0
ARC
  5
61D
330
1F
100
AcDbEntity
  8
0
  6
Continuous
347
0
 62
     7
100
AcDbCircle
 10
-512.5930105755566
 20
-80.47571362874686
 30
0.0
 40
2.50002007742
100
AcDbArc
 50
180.0013418715
 51
269.9986570976
  0
ARC
  5
61F
330
1F
100
AcDbEntity
  8
0
  6
Continuous
347
0
 62
     7
100
AcDbCircle
 10
-512.5930105933365
 20
120.5185692459932
 30
0.0
 40
2.50002005964
100
AcDbArc
 50
90.0013431133
 51
179.9986578396
  0
SPLINE
  5
621
330
1F
100
AcDbEntity
  8
0
  6
Continuous
347
0
 62
     7
100
AcDbSpline
210
0.0
220
0.0
230
1.0
 70
     8
 71
     3
 72
     8
 73
     4
 74
     0
 42
0.0000000001
 43
0.0000000001
 40
0.0
 40
0.0
 40
0.0
 40
0.0
 40
1.0
 40
1.0
 40
1.0
 40
1.0
 10
87.0467215522834
 20
-85.22730506788686
 30
0.0
 10
86.44527074858337
 20
-85.47052488370684
 30
0.0
 10
85.78999754808336
 20
-85.60710969308685
 30
0.0
 10
85.14147591396335
 20
-85.62496019332684
 30
0.0
  0
SPLINE
  5
622
330
1F
100
AcDbEntity
  8
0
  6
Continuous
347
0
 62
     7
100
AcDbSpline
210
0.0
220
0.0
230
1.0
 70
     8
 71
     3
 72
     8
 73
     4
 74
     0
 42
0.0000000001
 43
0.0000000001
 40
0.0
 40
0.0
 40
0.0
 40
0.0
 40
1.0
 40
1.0
 40
1.0
 40
1.0
 10
85.14147591396335
 20
125.6678158004132
 30
0.0
 10
85.78999754554337
 20
125.6499653001731
 30
0.0
 10
86.44527074858337
 20
125.5133804907932
 30
0.0
 10
87.0467215522834
 20
125.2701606724331
 30
0.0
  0
SPLINE
  5
623
330
1F
100
AcDbEntity
  8
0
  6
Continuous
347
0
 62
     7
100
AcDbSpline
210
0.0
220
0.0
230
1.0
 70
     8
 71
     3
 72
    10
 73
     6
 74
     0
 42
0.0000000001
 43
0.0000000001
 40
0.0
 40
0.0
 40
0.0
 40
0.0
 40
0.150592564
 40
0.3759263901
 40
1.0
 40
1.0
 40
1.0
 40
1.0
 10
82.58311824430339
 20
-69.96726758954685
 30
0.0
 10
82.52595296366337
 20
-69.98673548812685
 30
0.0
 10
82.3917809282234
 20
-70.05797120036685
 30
0.0
 10
82.05650291958335
 20
-70.27722396226686
 30
0.0
 10
81.78425310848337
 20
-70.48288149100684
 30
0.0
 10
81.58547977984338
 20
-70.63493242896685
 30
0.0
  0
SPLINE
  5
62C
330
1F
100
AcDbEntity
  8
0
  6
Continuous
347
0
 62
     7
100
AcDbSpline
210
0.0
220
0.0
230
1.0
 70
     8
 71
     3
 72
    10
 73
     6
 74
     0
 42
0.0000000001
 43
0.0000000001
 40
0.0
 40
0.0
 40
0.0
 40
0.0
 40
0.6240769808
 40
0.8494098199
 40
1.0
 40
1.0
 40
1.0
 40
1.0
 10
75.17682935612336
 20
-77.19262756602686
 30
0.0
 10
75.02938746914336
 20
-77.39484496448685
 30
0.0
 10
74.83004222902338
 20
-77.67175123566686
 30
0.0
 10
74.61855410488337
 20
-78.01198029866686
 30
0.0
 10
74.55042152842336
 20
-78.14775291002684
 30
0.0
 10
74.53227307856338
 20
-78.20534966300686
 30
0.0
  0
SPLINE
  5
62D
330
1F
100
AcDbEntity
  8
0
  6
Continuous
347
0
 62
     7
100
AcDbSpline
210
0.0
220
0.0
230
1.0
 70
     8
 71
     3
 72
    10
 73
     6
 74
     0
 42
0.0000000001
 43
0.0000000001
 40
0.0
 40
0.0
 40
0.0
 40
0.0
 40
0.6281635125
 40
0.8536957807
 40
1.0
 40
1.0
 40
1.0
 40
1.0
 10
81.67249195278336
 20
110.6770963915131
 30
0.0
 10
81.8562079887034
 20
110.5278039392732
 30
0.0
 10
82.10690447994338
 20
110.3254691750332
 30
0.0
 10
82.41244571544337
 20
110.1055997062131
 30
0.0
 10
82.53248814744333
 20
110.0315898313732
 30
0.0
 10
82.58322632638334
 20
110.0100125948732
 30
0.0
  0
SPLINE
  5
62E
330
1F
100
AcDbEntity
  8
0
  6
Continuous
347
0
 62
     7
100
AcDbSpline
210
0.0
220
0.0
230
1.0
 70
     8
 71
     3
 72
    10
 73
     6
 74
     0
 42
0.0000000001
 43
0.0000000001
 40
0.0
 40
0.0
 40
0.0
 40
0.0
 40
0.6287311093
 40
0.8515833406000001
 40
1.0
 40
1.0
 40
1.0
 40
1.0
 10
75.17682935612336
 20
117.2354831705732
 30
0.0
 10
75.14354925250333
 20
117.4797668679332
 30
0.0
 10
75.11466448680338
 20
117.8129582538731
 30
0.0
 10
75.08101608064337
 20
118.2030257541531
 30
0.0
 10
75.05892982814336
 20
118.3478890407531
 30
0.0
 10
75.04149269004336
 20
118.4034130318132
 30
0.0
  0
SPLINE
  5
62F
330
1F
100
AcDbEntity
  8
0
  6
Continuous
347
0
 62
     7
100
AcDbSpline
210
0.0
220
0.0
230
1.0
 70
     8
 71
     3
 72
    10
 73
     6
 74
     0
 42
0.0000000001
 43
0.0000000001
 40
0.0
 40
0.0
 40
0.0
 40
0.0
 40
0.1484436797
 40
0.3712691378
 40
1.0
 40
1.0
 40
1.0
 40
1.0
 10
75.04149248176338
 20
-78.36055635030685
 30
0.0
 10
75.05891988150336
 20
-78.30501831558685
 30
0.0
 10
75.08100069840336
 20
-78.16015692128684
 30
0.0
 10
75.11468170800336
 20
-77.77009151142686
 30
0.0
 10
75.14354862258332
 20
-77.43691058774684
 30
0.0
 10
75.17682935612336
 20
-77.19262756602686
 30
0.0
  0
SPLINE
  5
630
330
1F
100
AcDbEntity
  8
0
  6
Continuous
347
0
 62
     7
100
AcDbSpline
210
0.0
220
0.0
230
1.0
 70
     8
 71
     3
 72
    10
 73
     6
 74
     0
 42
0.0000000001
 43
0.0000000001
 40
0.0
 40
0.0
 40
0.0
 40
0.0
 40
0.6271371925
 40
0.8498307662000001
 40
1.0
 40
1.0
 40
1.0
 40
1.0
 10
81.67975441730334
 20
-70.62039974530684
 30
0.0
 10
81.90328336318339
 20
-70.58715537948684
 30
0.0
 10
82.20818088648335
 20
-70.55496451930684
 30
0.0
 10
82.56581770994333
 20
-70.51472546338685
 30
0.0
 10
82.69874394396334
 20
-70.49016866210685
 30
0.0
 10
82.74998879194334
 20
-70.47278475478684
 30
0.0
  0
SPLINE
  5
633
330
1F
100
AcDbEntity
  8
0
  6
Continuous
347
0
 62
     7
100
AcDbSpline
210
0.0
220
0.0
230
1.0
 70
     8
 71
     3
 72
    10
 73
     6
 74
     0
 42
0.0000000001
 43
0.0000000001
 40
0.0
 40
0.0
 40
0.0
 40
0.0
 40
0.1505618895
 40
0.3759250312
 40
1.0
 40
1.0
 40
1.0
 40
1.0
 10
74.53227246642336
 20
118.2482058923931
 30
0.0
 10
74.55040478474339
 20
118.1906158297732
 30
0.0
 10
74.61853712752335
 20
118.0548388267532
 30
0.0
 10
74.83004287926337
 20
117.7146219786131
 30
0.0
 10
75.02938708560336
 20
117.4376999010131
 30
0.0
 10
75.17682935612336
 20
117.2354831705732
 30
0.0
  0
SPLINE
  5
634
330
1F
100
AcDbEntity
  8
0
  6
Continuous
347
0
 62
     7
100
AcDbSpline
210
0.0
220
0.0
230
1.0
 70
     8
 71
     3
 72
    10
 73
     6
 74
     0
 42
0.0000000001
 43
0.0000000001
 40
0.0
 40
0.0
 40
0.0
 40
0.0
 40
0.1459263037
 40
0.3688466504
 40
1.0
 40
1.0
 40
1.0
 40
1.0
 10
82.7499925613034
 20
110.5156449516531
 30
0.0
 10
82.70081728754334
 20
110.5354145234932
 30
0.0
 10
82.56852952316339
 20
110.5630906479731
 30
0.0
 10
82.20871376578336
 20
110.6073223273531
 30
0.0
 10
81.90002573190336
 20
110.6422109215331
 30
0.0
 10
81.67346271284336
 20
110.6771077783332
 30
0.0
  0
SPLINE
  5
637
330
1F
100
AcDbEntity
  8
0
  6
Continuous
347
0
 62
     7
100
AcDbSpline
210
0.0
220
0.0
230
1.0
 70
     8
 71
     3
 72
    17
 73
    13
 74
     0
 42
0.0000000001
 43
0.0000000001
 40
0.0
 40
0.0
 40
0.0
 40
0.0
 40
0.1866157186
 40
0.3684410553
 40
0.5370413994
 40
0.6876999090000001
 40
0.8130014960999999
 40
0.9091920554999999
 40
0.9448719265000001
 40
0.9721635011
 40
0.9905179143999999
 40
1.0
 40
1.0
 40
1.0
 40
1.0
 10
92.88583853798337
 20
-150.5574657738268
 30
0.0
 10
93.09178481900335
 20
-150.5502910967869
 30
0.0
 10
93.49853266438339
 20
-150.5401539720268
 30
0.0
 10
94.09152919492334
 20
-150.5329101765068
 30
0.0
 10
94.64483770984339
 20
-150.5301892243668
 30
0.0
 10
95.13578218388338
 20
-150.5294693985268
 30
0.0
 10
95.54662739216337
 20
-150.5300611143869
 30
0.0
 10
95.83084238888338
 20
-150.5315942482268
 30
0.0
 10
96.00623002134338
 20
-150.5359789206868
 30
0.0
 10
96.09655376754336
 20
-150.5396399192068
 30
0.0
 10
96.15594552328335
 20
-150.5463200506268
 30
0.0
 10
96.18790338164334
 20
-150.5512575769469
 30
0.0
 10
96.19633549838338
 20
-150.5574651235868
 30
0.0
  0
SPLINE
  5
638
330
1F
100
AcDbEntity
  8
0
  6
Continuous
347
0
 62
     7
100
AcDbSpline
210
0.0
220
0.0
230
1.0
 70
     8
 71
     3
 72
     9
 73
     5
 74
     0
 42
0.0000000001
 43
0.0000000001
 40
0.0
 40
0.0
 40
0.0
 40
0.0
 40
0.2770350715
 40
1.0
 40
1.0
 40
1.0
 40
1.0
 10
96.19633493958338
 20
-150.5574652175669
 30
0.0
 10
96.20415922162334
 20
-150.5632690972469
 30
0.0
 10
96.23374324932337
 20
-150.5822206138268
 30
0.0
 10
96.27186555052336
 20
-150.5887120359469
 30
0.0
 10
96.29673293284336
 20
-150.5834262959469
 30
0.0
  0
SPLINE
  5
639
330
1F
100
AcDbEntity
  8
0
  6
Continuous
347
0
 62
     7
100
AcDbSpline
210
0.0
220
0.0
230
1.0
 70
     8
 71
     3
 72
    11
 73
     7
 74
     0
 42
0.0000000001
 43
0.0000000001
 40
0.0
 40
0.0
 40
0.0
 40
0.0
 40
0.3237366084
 40
0.616045506
 40
0.8488198785
 40
1.0
 40
1.0
 40
1.0
 40
1.0
 10
86.64683520194339
 20
-151.8511397879469
 30
0.0
 10
87.21211053570337
 20
-151.8289420929468
 30
0.0
 10
88.28808903144335
 20
-151.7974472638869
 30
0.0
 10
89.77073019366338
 20
-151.7440740533868
 30
0.0
 10
90.94926647260334
 20
-151.6607502855668
 30
0.0
 10
91.6166391586834
 20
-151.5782109332469
 30
0.0
 10
91.87504474550335
 20
-151.5232851299668
 30
0.0
  0
SPLINE
  5
63D
330
1F
100
AcDbEntity
  8
0
  6
Continuous
347
0
 62
     7
100
AcDbSpline
210
0.0
220
0.0
230
1.0
 70
     8
 71
     3
 72
    11
 73
     7
 74
     0
 42
0.0000000001
 43
0.0000000001
 40
0.0
 40
0.0
 40
0.0
 40
0.0
 40
0.0632094401
 40
0.250551861
 40
0.563209017
 40
1.0
 40
1.0
 40
1.0
 40
1.0
 10
98.27694047102332
 20
-148.1821463690268
 30
0.0
 10
98.27707759546337
 20
-148.1782196230068
 30
0.0
 10
98.25222044680339
 20
-148.1822985988468
 30
0.0
 10
98.22619626720339
 20
-148.1760162492068
 30
0.0
 10
98.16274027524338
 20
-148.1784662468469
 30
0.0
 10
98.11787333932335
 20
-148.1773855505068
 30
0.0
 10
98.09072211600335
 20
-148.1773851618868
 30
0.0
  0
SPLINE
  5
63E
330
1F
100
AcDbEntity
  8
0
  6
Continuous
347
0
 62
     7
100
AcDbSpline
210
0.0
220
0.0
230
1.0
 70
     8
 71
     3
 72
     9
 73
     5
 74
     0
 42
0.0000000001
 43
0.0000000001
 40
0.0
 40
0.0
 40
0.0
 40
0.0
 40
0.3697498062
 40
1.0
 40
1.0
 40
1.0
 40
1.0
 10
98.09072211600335
 20
-148.1773851618868
 30
0.0
 10
97.43621147938336
 20
-148.1773758426268
 30
0.0
 10
95.66608061274337
 20
-148.1848968512068
 30
0.0
 10
93.89589167916338
 20
-148.1735336506669
 30
0.0
 10
92.78029092332338
 20
-148.1821463690268
 30
0.0
  0
LINE
  5
63F
330
1F
100
AcDbEntity
  8
0
  6
Continuous
347
0
 62
     7
100
AcDbLine
 10
92.78029077600334
 20
-148.1821430263869
 30
0.0
 11
92.88585354938337
 21
-150.5574650931068
 31
0.0
  0
SPLINE
  5
640
330
1F
100
AcDbEntity
  8
0
  6
Continuous
347
0
 62
     7
100
AcDbSpline
210
0.0
220
0.0
230
1.0
 70
     8
 71
     3
 72
    11
 73
     7
 74
     0
 42
0.0000000001
 43
0.0000000001
 40
0.0
 40
0.0
 40
0.0
 40
0.0
 40
0.0632094394
 40
0.2505518601
 40
0.5632090163
 40
1.0
 40
1.0
 40
1.0
 40
1.0
 10
195.7999785030434
 20
135.9982446035731
 30
0.0
 10
195.7960517544833
 20
135.9983817280131
 30
0.0
 10
195.8001307303233
 20
135.9735245793531
 30
0.0
 10
195.7938483806834
 20
135.9475003997531
 30
0.0
 10
195.7962983783234
 20
135.8840444077932
 30
0.0
 10
195.7952176819834
 20
135.8391774718731
 30
0.0
 10
195.7952172959034
 20
135.8120262510931
 30
0.0
  0
SPLINE
  5
641
330
1F
100
AcDbEntity
  8
0
  6
Continuous
347
0
 62
     7
100
AcDbSpline
210
0.0
220
0.0
230
1.0
 70
     8
 71
     3
 72
     9
 73
     5
 74
     0
 42
0.0000000001
 43
0.0000000001
 40
0.0
 40
0.0
 40
0.0
 40
0.0
 40
0.369749806
 40
1.0
 40
1.0
 40
1.0
 40
1.0
 10
195.7952172959034
 20
135.8120262510931
 30
0.0
 10
195.7952079766434
 20
135.1575156119331
 30
0.0
 10
195.8027289826833
 20
133.3873847402131
 30
0.0
 10
195.7913657821433
 20
131.6171958015531
 30
0.0
 10
195.7999785030434
 20
130.5015950431731
 30
0.0
  0
SPLINE
  5
642
330
1F
100
AcDbEntity
  8
0
  6
Continuous
347
0
 62
     7
100
AcDbSpline
210
0.0
220
0.0
230
1.0
 70
     8
 71
     3
 72
    22
 73
    18
 74
     0
 42
0.0000000001
 43
0.0000000001
 40
0.0
 40
0.0
 40
0.0
 40
0.0
 40
0.1957141106
 40
0.3833553181
 40
0.5562952636999999
 40
0.7074005069
 40
0.7733406861
 40
0.8319849628
 40
0.8821779811
 40
0.9239796824
 40
0.957153131
 40
0.9702048283
 40
0.9808694545000001
 40
0.9891909913
 40
0.9951611112000001
 40
0.9987612459
 40
1.0
 40
1.0
 40
1.0
 40
1.0
 10
195.7999785030434
 20
-90.45873945386685
 30
0.0
 10
195.7972100122633
 20
-90.81734056546685
 30
0.0
 10
195.7946625472034
 20
-91.51977344050684
 30
0.0
 10
195.7955716665434
 20
-92.53908690098685
 30
0.0
 10
195.7977805978634
 20
-93.47666051732685
 30
0.0
 10
195.7987764709034
 20
-94.19123841760685
 30
0.0
 10
195.7984632635034
 20
-94.69639449644686
 30
0.0
 10
195.7978136813634
 20
-95.01663578128685
 30
0.0
 10
195.7968516893833
 20
-95.29267541462684
 30
0.0
 10
195.7959257603234
 20
-95.52196077774686
 30
0.0
 10
195.7952303159434
 20
-95.68339690902684
 30
0.0
 10
195.7952413903434
 20
-95.78741705912685
 30
0.0
 10
195.7952005395233
 20
-95.84658298600684
 30
0.0
 10
195.7961952949634
 20
-95.89111223908685
 30
0.0
 10
195.7956848387833
 20
-95.92661252368686
 30
0.0
 10
195.7989213982234
 20
-95.94157887678685
 30
0.0
 10
195.7977100849234
 20
-95.95546821146685
 30
0.0
 10
195.7999785030434
 20
-95.95538899648685
 30
0.0
  0
LINE
  5
643
330
1F
100
AcDbEntity
  8
0
  6
Continuous
347
0
 62
     7
100
AcDbLine
 10
195.7999785005034
 20
-90.45873958848685
 30
0.0
 11
198.1752973795233
 21
-90.56430216374685
 31
0.0
  0
LINE
  5
644
330
1F
100
AcDbEntity
  8
0
  6
Continuous
347
0
 62
     7
100
AcDbLine
 10
198.1752973820633
 20
130.6071576895531
 30
0.0
 11
195.7999785030434
 21
130.5015950533331
 31
0.0
  0
SPLINE
  5
645
330
1F
100
AcDbEntity
  8
0
  6
Continuous
347
0
 62
     7
100
AcDbSpline
210
0.0
220
0.0
230
1.0
 70
     8
 71
     3
 72
    17
 73
    13
 74
     0
 42
0.0000000001
 43
0.0000000001
 40
0.0
 40
0.0
 40
0.0
 40
0.0
 40
0.0094535624
 40
0.0275852445
 40
0.0545643197
 40
0.0904448901
 40
0.1860423318
 40
0.3117967763
 40
0.4615810258
 40
0.6307594857
 40
0.8123599068
 40
1.0
 40
1.0
 40
1.0
 40
1.0
 10
198.1752979053033
 20
-93.87478491030684
 30
0.0
 10
198.1691085018834
 20
-93.86637862028685
 30
0.0
 10
198.1642046940634
 20
-93.83471089850686
 30
0.0
 10
198.1575415552434
 20
-93.77592786646686
 30
0.0
 10
198.1538527538833
 20
-93.68598050000685
 30
0.0
 10
198.1494537634433
 20
-93.51137309204684
 30
0.0
 10
198.1478971041234
 20
-93.22709288590686
 30
0.0
 10
198.1473020049833
 20
-92.81737050748684
 30
0.0
 10
198.1480138476033
 20
-92.32625555626684
 30
0.0
 10
198.1507123639234
 20
-91.77352524948684
 30
0.0
 10
198.1579461112034
 20
-91.17901050506684
 30
0.0
 10
198.1680833553433
 20
-90.77138146764685
 30
0.0
 10
198.1752972550633
 20
-90.56430578324685
 30
0.0
  0
SPLINE
  5
646
330
1F
100
AcDbEntity
  8
0
  6
Continuous
347
0
 62
     7
100
AcDbSpline
210
0.0
220
0.0
230
1.0
 70
     8
 71
     3
 72
     9
 73
     5
 74
     0
 42
0.0000000001
 43
0.0000000001
 40
0.0
 40
0.0
 40
0.0
 40
0.0
 40
0.2794973395
 40
1.0
 40
1.0
 40
1.0
 40
1.0
 10
199.4689719194234
 20
-87.82507430464686
 30
0.0
 10
199.4547162075233
 20
-87.82519871384685
 30
0.0
 10
199.4381484707833
 20
-87.75603015266685
 30
0.0
 10
199.4309225441634
 20
-87.71691550394684
 30
0.0
 10
199.4259483605634
 20
-87.68050318154684
 30
0.0
  0
SPLINE
  5
647
330
1F
100
AcDbEntity
  8
0
  6
Continuous
347
0
 62
     7
100
AcDbSpline
210
0.0
220
0.0
230
1.0
 70
     8
 71
     3
 72
    11
 73
     7
 74
     0
 42
0.0000000001
 43
0.0000000001
 40
0.0
 40
0.0
 40
0.0
 40
0.0
 40
0.1353370518
 40
0.3574891988
 40
0.65214908
 40
1.0
 40
1.0
 40
1.0
 40
1.0
 10
199.4259483605634
 20
-87.68050318154684
 30
0.0
 10
199.4036745519234
 20
-87.51745317236686
 30
0.0
 10
199.3725064430634
 20
-87.08349246040684
 30
0.0
 10
199.3111455853433
 20
-86.29312153162685
 30
0.0
 10
199.2304019876234
 20
-85.24473429134683
 30
0.0
 10
199.1706363235633
 20
-84.46577511012686
 30
0.0
 10
199.1411172614433
 20
-84.04383384072685
 30
0.0
  0
SPLINE
  5
648
330
1F
100
AcDbEntity
  8
0
  6
Continuous
347
0
 62
     7
100
AcDbSpline
210
0.0
220
0.0
230
1.0
 70
     8
 71
     3
 72
    17
 73
    13
 74
     0
 42
0.0000000001
 43
0.0000000001
 40
0.0
 40
0.0
 40
0.0
 40
0.0
 40
0.1866157188
 40
0.3684410557
 40
0.5370414000000001
 40
0.6876999098000001
 40
0.8130014969
 40
0.9091920562000001
 40
0.944871927
 40
0.9721635015000001
 40
0.9905179147
 40
1.0
 40
1.0
 40
1.0
 40
1.0
 10
198.1752979078433
 20
130.6071426603731
 30
0.0
 10
198.1681232282633
 20
130.8130889413931
 30
0.0
 10
198.1579861035034
 20
131.2198367867732
 30
0.0
 10
198.1507423105233
 20
131.8128333223931
 30
0.0
 10
198.1480213558433
 20
132.3661418398531
 30
0.0
 10
198.1473015300034
 20
132.8570863164331
 30
0.0
 10
198.1478932458633
 20
133.2679315247131
 30
0.0
 10
198.1494263797034
 20
133.5521465214331
 30
0.0
 10
198.1538110521634
 20
133.7275341564331
 30
0.0
 10
198.1574720506834
 20
133.8178579026331
 30
0.0
 10
198.1641521821034
 20
133.8772496583732
 30
0.0
 10
198.1690897109634
 20
133.9092075167331
 30
0.0
 10
198.1752972550633
 20
133.9176396309331
 30
0.0
  0
SPLINE
  5
649
330
1F
100
AcDbEntity
  8
0
  6
Continuous
347
0
 62
     7
100
AcDbSpline
210
0.0
220
0.0
230
1.0
 70
     8
 71
     3
 72
     9
 73
     5
 74
     0
 42
0.0000000001
 43
0.0000000001
 40
0.0
 40
0.0
 40
0.0
 40
0.0
 40
0.2770350717
 40
1.0
 40
1.0
 40
1.0
 40
1.0
 10
198.1752973515833
 20
133.9176390721331
 30
0.0
 10
198.1811012287233
 20
133.9254633567131
 30
0.0
 10
198.2000527453033
 20
133.9550473844131
 30
0.0
 10
198.2065441674234
 20
133.9931696830732
 30
0.0
 10
198.2012584274234
 20
134.0180370653932
 30
0.0
  0
SPLINE
  5
64A
330
1F
100
AcDbEntity
  8
0
  6
Continuous
347
0
 62
     7
100
AcDbSpline
210
0.0
220
0.0
230
1.0
 70
     8
 71
     3
 72
     9
 73
     5
 74
     0
 42
0.0000000001
 43
0.0000000001
 40
0.0
 40
0.0
 40
0.0
 40
0.0
 40
0.7229980109999999
 40
1.0
 40
1.0
 40
1.0
 40
1.0
 10
198.2012577416234
 20
-93.97518468664686
 30
0.0
 10
198.2065437203833
 20
-93.95031613084684
 30
0.0
 10
198.2000574697034
 20
-93.91219156396686
 30
0.0
 10
198.1811006927834
 20
-93.88261055886686
 30
0.0
 10
198.1752975166833
 20
-93.87478718614686
 30
0.0
  0
SPLINE
  5
64B
330
1F
100
AcDbEntity
  8
0
  6
Continuous
347
0
 62
     7
100
AcDbSpline
210
0.0
220
0.0
230
1.0
 70
     8
 71
     3
 72
    17
 73
    13
 74
     0
 42
0.0000000001
 43
0.0000000001
 40
0.0
 40
0.0
 40
0.0
 40
0.0
 40
0.2090548524
 40
0.4022356076
 40
0.5745123137
 40
0.7216556202
 40
0.8400909223
 40
0.9268965385
 40
0.9577872745
 40
0.9801088286
 40
0.9939141573
 40
1.0
 40
1.0
 40
1.0
 40
1.0
 10
199.1411172614433
 20
124.0866894605131
 30
0.0
 10
199.1596068155233
 20
124.3509765011532
 30
0.0
 10
199.1972924399234
 20
124.8593287966132
 30
0.0
 10
199.2533983526033
 20
125.5852583810731
 30
0.0
 10
199.3035126618234
 20
126.2328693464531
 30
0.0
 10
199.3455399564833
 20
126.7863613636731
 30
0.0
 10
199.3792570518634
 20
127.2311314875931
 30
0.0
 10
199.4040633522633
 20
127.5304856640931
 30
0.0
 10
199.4225967238833
 20
127.7054351135332
 30
0.0
 10
199.4366338230634
 20
127.7919090833332
 30
0.0
 10
199.4462833897434
 20
127.8394862119532
 30
0.0
 10
199.4612596869434
 20
127.8679972141132
 30
0.0
 10
199.4689719168833
 20
127.8679299091932
 30
0.0
  0
SPLINE
  5
64C
330
1F
100
AcDbEntity
  8
0
  6
Continuous
347
0
 62
     7
100
AcDbSpline
210
0.0
220
0.0
230
1.0
 70
     8
 71
     3
 72
     9
 73
     5
 74
     0
 42
0.0000000001
 43
0.0000000001
 40
0.0
 40
0.0
 40
0.0
 40
0.0
 40
0.2444075446
 40
1.0
 40
1.0
 40
1.0
 40
1.0
 10
199.1411172436633
 20
124.0866891633332
 30
0.0
 10
199.1313585154034
 20
123.9471993051532
 30
0.0
 10
199.0966192681433
 20
123.3761150548931
 30
0.0
 10
199.0829841036434
 20
122.8038010966532
 30
0.0
 10
199.0829841036434
 20
122.3715104372331
 30
0.0
  0
LINE
  5
64D
330
1F
100
AcDbEntity
  8
0
  6
Continuous
347
0
 62
     7
100
AcDbLine
 10
92.88585360526338
 20
188.5986633344532
 30
0.0
 11
92.78029137544334
 21
186.2233525072331
 31
0.0
  0
SPLINE
  5
650
330
1F
100
AcDbEntity
  8
0
  6
Continuous
347
0
 62
     7
100
AcDbSpline
210
0.0
220
0.0
230
1.0
 70
     8
 71
     3
 72
     9
 73
     5
 74
     0
 42
0.0000000001
 43
0.0000000001
 40
0.0
 40
0.0
 40
0.0
 40
0.0
 40
0.722998005
 40
1.0
 40
1.0
 40
1.0
 40
1.0
 10
96.29673615610335
 20
188.6246242299532
 30
0.0
 10
96.27186760284337
 20
188.6299102087131
 30
0.0
 10
96.23374303850335
 20
188.6234239580331
 30
0.0
 10
96.20416203340335
 20
188.6044671836531
 30
0.0
 10
96.19633866322337
 20
188.5986640050131
 30
0.0
  0
SPLINE
  5
651
330
1F
100
AcDbEntity
  8
0
  6
Continuous
347
0
 62
     7
100
AcDbSpline
210
0.0
220
0.0
230
1.0
 70
     8
 71
     3
 72
    11
 73
     7
 74
     0
 42
0.0000000001
 43
0.0000000001
 40
0.0
 40
0.0
 40
0.0
 40
0.0
 40
0.1510276949
 40
0.3837532915
 40
0.6760560146
 40
1.0
 40
1.0
 40
1.0
 40
1.0
 10
91.87504474042333
 20
189.5644837523131
 30
0.0
 10
91.61689983126337
 20
189.6193541454932
 30
0.0
 10
90.94987243532339
 20
189.7018099749931
 30
0.0
 10
89.77170844672338
 20
189.7852116369932
 30
0.0
 10
88.28880449610335
 20
189.8387186445332
 30
0.0
 10
87.21247231298335
 20
189.8701262982531
 30
0.0
 10
86.64683519432339
 20
189.8923384077531
 30
0.0
  0
SPLINE
  5
654
330
1F
100
AcDbEntity
  8
0
  6
Continuous
347
0
 62
     7
100
AcDbSpline
210
0.0
220
0.0
230
1.0
 70
     8
 71
     3
 72
    17
 73
    13
 74
     0
 42
0.0000000001
 43
0.0000000001
 40
0.0
 40
0.0
 40
0.0
 40
0.0
 40
0.0094535621
 40
0.027585244
 40
0.054564319
 40
0.0904448893
 40
0.1860423308
 40
0.3117967754
 40
0.4615810251
 40
0.6307594852
 40
0.8123599066
 40
1.0
 40
1.0
 40
1.0
 40
1.0
 10
96.19633638484336
 20
188.5986643961731
 30
0.0
 10
96.18793009482337
 20
188.5924749927531
 30
0.0
 10
96.15626237304335
 20
188.5875711823931
 30
0.0
 10
96.09747934100338
 20
188.5809080435731
 30
0.0
 10
96.00753197454335
 20
188.5772192422131
 30
0.0
 10
95.83292456912335
 20
188.5728202517732
 30
0.0
 10
95.54864436044335
 20
188.5712635924532
 30
0.0
 10
95.13892198202339
 20
188.5706684933131
 30
0.0
 10
94.64780702826337
 20
188.5713803384731
 30
0.0
 10
94.09507671894337
 20
188.5740788522531
 30
0.0
 10
93.50056197198336
 20
188.5813125995332
 30
0.0
 10
93.09293293202336
 20
188.5914498436731
 30
0.0
 10
92.88585724762333
 20
188.5986637433931
 30
0.0
  0
SPLINE
  5
657
330
1F
100
AcDbEntity
  8
0
  6
Continuous
347
0
 62
     7
100
AcDbSpline
210
0.0
220
0.0
230
1.0
 70
     8
 71
     3
 72
    22
 73
    18
 74
     0
 42
0.0000000001
 43
0.0000000001
 40
0.0
 40
0.0
 40
0.0
 40
0.0
 40
0.1957141106
 40
0.3833553181
 40
0.5562952636999999
 40
0.7074005069
 40
0.7733406861
 40
0.8319849628
 40
0.8821779811
 40
0.9239796824
 40
0.957153131
 40
0.9702048283
 40
0.9808694545000001
 40
0.9891909913
 40
0.9951611112000001
 40
0.9987612459
 40
1.0
 40
1.0
 40
1.0
 40
1.0
 10
92.78029092586337
 20
186.2233449913732
 30
0.0
 10
93.13889203492337
 20
186.2205765005931
 30
0.0
 10
93.84132490996336
 20
186.2180290355332
 30
0.0
 10
94.86063837298337
 20
186.2189381548732
 30
0.0
 10
95.79821198932336
 20
186.2211470861931
 30
0.0
 10
96.51278988960334
 20
186.2221429592331
 30
0.0
 10
97.01794597098336
 20
186.2218297518332
 30
0.0
 10
97.33818725582339
 20
186.2211801696931
 30
0.0
 10
97.61422688662336
 20
186.2202181777131
 30
0.0
 10
97.84351225228335
 20
186.2192922486532
 30
0.0
 10
98.00494838356335
 20
186.2185968042731
 30
0.0
 10
98.10896853366339
 20
186.2186078786731
 30
0.0
 10
98.16813446054337
 20
186.2185670278532
 30
0.0
 10
98.21266371362333
 20
186.2195617832932
 30
0.0
 10
98.24816399568337
 20
186.2190513271132
 30
0.0
 10
98.26313035132338
 20
186.2222878865531
 30
0.0
 10
98.27701968600334
 20
186.2210765732531
 30
0.0
 10
98.27694047102332
 20
186.2233449913732
 30
0.0
  0
SPLINE
  5
664
330
1F
100
AcDbEntity
  8
0
  6
Continuous
347
0
 62
     7
100
AcDbSpline
210
0.0
220
0.0
230
1.0
 70
     8
 71
     3
 72
    17
 73
    13
 74
     0
 42
0.0000000001
 43
0.0000000001
 40
0.0
 40
0.0
 40
0.0
 40
0.0
 40
0.0046051167
 40
0.0167790401
 40
0.03680109
 40
0.064691298
 40
0.1440163256
 40
0.2545787747
 40
0.396088336
 40
0.5679463025
 40
0.7694762354000001
 40
1.0
 40
1.0
 40
1.0
 40
1.0
 10
-425.8458477278366
 20
-84.61882525106685
 30
0.0
 10
-425.8458477278366
 20
-84.61689424146684
 30
0.0
 10
-425.8361595048966
 20
-84.61507161620685
 30
0.0
 10
-425.8235527076566
 20
-84.61230761614685
 30
0.0
 10
-425.7970438020766
 20
-84.60975351406684
 30
0.0
 10
-425.7447289435365
 20
-84.60545993870686
 30
0.0
 10
-425.6528798333567
 20
-84.60069691546686
 30
0.0
 10
-425.5143383705366
 20
-84.59518656072686
 30
0.0
 10
-425.3365363080566
 20
-84.58977372420685
 30
0.0
 10
-425.1207402346967
 20
-84.58438848478686
 30
0.0
 10
-424.8675481426567
 20
-84.57911259236685
 30
0.0
 10
-424.6864123454166
 20
-84.57588967526685
 30
0.0
 10
-424.5897628409766
 20
-84.57427997312685
 30
0.0
  0
SPLINE
  5
665
330
1F
100
AcDbEntity
  8
0
  6
Continuous
347
0
 62
     7
100
AcDbSpline
210
0.0
220
0.0
230
1.0
 70
     8
 71
     3
 72
    11
 73
     7
 74
     0
 42
0.0000000001
 43
0.0000000001
 40
0.0
 40
0.0
 40
0.0
 40
0.0
 40
0.2076076723
 40
0.499553352
 40
0.7917374785
 40
1.0
 40
1.0
 40
1.0
 40
1.0
 10
-424.5897628409766
 20
-84.57427997312685
 30
0.0
 10
-423.2423566864165
 20
-84.55183886484684
 30
0.0
 10
-419.9997042258366
 20
-84.53104243958684
 30
0.0
 10
-414.8605204071965
 20
-84.51807498774684
 30
0.0
 10
-409.7170844431366
 20
-84.53091010050686
 30
0.0
 10
-406.4686346509966
 20
-84.55167864164686
 30
0.0
 10
-405.1169757744366
 20
-84.57403097946684
 30
0.0
  0
SPLINE
  5
666
330
1F
100
AcDbEntity
  8
0
  6
Continuous
347
0
 62
     7
100
AcDbSpline
210
0.0
220
0.0
230
1.0
 70
     8
 71
     3
 72
    17
 73
    13
 74
     0
 42
0.0000000001
 43
0.0000000001
 40
0.0
 40
0.0
 40
0.0
 40
0.0
 40
0.2304863832
 40
0.4320040627
 40
0.6038672202
 40
0.7453917126999999
 40
0.8559701995000001
 40
0.9353077107
 40
0.9632022098
 40
0.983226791
 40
0.9954007411
 40
1.0
 40
1.0
 40
1.0
 40
1.0
 10
-405.1169757744366
 20
-84.57403097946684
 30
0.0
 10
-405.0191894498166
 20
-84.57564806792685
 30
0.0
 10
-404.8359143858365
 20
-84.57888641552684
 30
0.0
 10
-404.5797211669566
 20
-84.58418897032684
 30
0.0
 10
-404.3613478470367
 20
-84.58960333592685
 30
0.0
 10
-404.1814086158566
 20
-84.59504562628683
 30
0.0
 10
-404.0411969328567
 20
-84.60058963094684
 30
0.0
 10
-403.9482338828166
 20
-84.60537688832684
 30
0.0
 10
-403.8952895640166
 20
-84.60970141866686
 30
0.0
 10
-403.8684525793366
 20
-84.61226211458684
 30
0.0
 10
-403.8557072708165
 20
-84.61505804752686
 30
0.0
 10
-403.8458906559566
 20
-84.61687370048686
 30
0.0
 10
-403.8458906559566
 20
-84.61882525106685
 30
0.0
  0
SPLINE
  5
667
330
1F
100
AcDbEntity
  8
0
  6
Continuous
347
0
 62
     7
100
AcDbSpline
210
0.0
220
0.0
230
1.0
 70
     8
 71
     3
 72
    17
 73
    13
 74
     0
 42
0.0000000001
 43
0.0000000001
 40
0.0
 40
0.0
 40
0.0
 40
0.0
 40
0.0046051167
 40
0.0167790401
 40
0.03680109
 40
0.064691298
 40
0.1440163256
 40
0.2545787747
 40
0.396088336
 40
0.5679463025
 40
0.7694762354000001
 40
1.0
 40
1.0
 40
1.0
 40
1.0
 10
-469.8458477286766
 20
-84.61882525106685
 30
0.0
 10
-469.8458477286766
 20
-84.61689424146684
 30
0.0
 10
-469.8361595057366
 20
-84.61507161620685
 30
0.0
 10
-469.8235527084965
 20
-84.61230761614685
 30
0.0
 10
-469.7970438003766
 20
-84.60975351406684
 30
0.0
 10
-469.7447289443766
 20
-84.60545993870686
 30
0.0
 10
-469.6528798341966
 20
-84.60069691546686
 30
0.0
 10
-469.5143383713765
 20
-84.59518656072686
 30
0.0
 10
-469.3365363088966
 20
-84.58977372420685
 30
0.0
 10
-469.1207402329966
 20
-84.58438848478686
 30
0.0
 10
-468.8675481409566
 20
-84.57911259236685
 30
0.0
 10
-468.6864123437166
 20
-84.57588967526685
 30
0.0
 10
-468.5897628418167
 20
-84.57427997312685
 30
0.0
  0
SPLINE
  5
668
330
1F
100
AcDbEntity
  8
0
  6
Continuous
347
0
 62
     7
100
AcDbSpline
210
0.0
220
0.0
230
1.0
 70
     8
 71
     3
 72
    11
 73
     7
 74
     0
 42
0.0000000001
 43
0.0000000001
 40
0.0
 40
0.0
 40
0.0
 40
0.0
 40
0.2076076723
 40
0.499553352
 40
0.7917374785
 40
1.0
 40
1.0
 40
1.0
 40
1.0
 10
-468.5897628418167
 20
-84.57427997312685
 30
0.0
 10
-467.2423566847166
 20
-84.55183886484684
 30
0.0
 10
-463.9997042241366
 20
-84.53104243958684
 30
0.0
 10
-458.8605204080366
 20
-84.51807498774684
 30
0.0
 10
-453.7170844439767
 20
-84.53091010050686
 30
0.0
 10
-450.4686346518366
 20
-84.55167864164686
 30
0.0
 10
-449.1169757752766
 20
-84.57403097946684
 30
0.0
  0
SPLINE
  5
669
330
1F
100
AcDbEntity
  8
0
  6
Continuous
347
0
 62
     7
100
AcDbSpline
210
0.0
220
0.0
230
1.0
 70
     8
 71
     3
 72
    17
 73
    13
 74
     0
 42
0.0000000001
 43
0.0000000001
 40
0.0
 40
0.0
 40
0.0
 40
0.0
 40
0.2304863832
 40
0.4320040627
 40
0.6038672202
 40
0.7453917126999999
 40
0.8559701995000001
 40
0.9353077107
 40
0.9632022098
 40
0.983226791
 40
0.9954007411
 40
1.0
 40
1.0
 40
1.0
 40
1.0
 10
-449.1169757752766
 20
-84.57403097946684
 30
0.0
 10
-449.0191894506567
 20
-84.57564806792685
 30
0.0
 10
-448.8359143866766
 20
-84.57888641552684
 30
0.0
 10
-448.5797211677966
 20
-84.58418897032684
 30
0.0
 10
-448.3613478478766
 20
-84.58960333592685
 30
0.0
 10
-448.1814086141567
 20
-84.59504562628683
 30
0.0
 10
-448.0411969336966
 20
-84.60058963094684
 30
0.0
 10
-447.9482338836566
 20
-84.60537688832684
 30
0.0
 10
-447.8952895623166
 20
-84.60970141866686
 30
0.0
 10
-447.8684525776366
 20
-84.61226211458684
 30
0.0
 10
-447.8557072691166
 20
-84.61505804752686
 30
0.0
 10
-447.8458906567965
 20
-84.61687370048686
 30
0.0
 10
-447.8458906567965
 20
-84.61882525106685
 30
0.0
  0
LINE
  5
679
330
1F
100
AcDbEntity
  8
0
  6
Continuous
347
0
 62
     7
100
AcDbLine
 10
-518.5828211638567
 20
135.9967375072731
 30
0.0
 11
-520.5760368726166
 21
135.9982450252131
 31
0.0
  0
LINE
  5
67A
330
1F
100
AcDbEntity
  8
0
  6
Continuous
347
0
 62
     7
100
AcDbLine
 10
-526.0726858462766
 20
130.5015949415732
 30
0.0
 11
-526.0711785924966
 21
128.5083798271731
 31
0.0
  0
LINE
  5
67B
330
1F
100
AcDbEntity
  8
0
  6
Continuous
347
0
 62
     7
100
AcDbLine
 10
-526.0711788541166
 20
-88.46552422262687
 30
0.0
 11
-526.0726863720566
 21
-90.45873989836687
 31
0.0
  0
LINE
  5
67C
330
1F
100
AcDbEntity
  8
0
  6
Continuous
347
0
 62
     7
100
AcDbLine
 10
-520.5760363138166
 20
-95.95538889488688
 30
0.0
 11
-518.5828211613166
 21
-95.95388163856686
 31
0.0
  0
SPLINE
  5
67E
330
1F
100
AcDbEntity
  8
0
  6
Continuous
347
0
 62
     7
100
AcDbSpline
210
0.0
220
0.0
230
1.0
 70
     8
 71
     3
 72
    15
 73
    11
 74
     0
 42
0.0000000001
 43
0.0000000001
 40
0.0
 40
0.0
 40
0.0
 40
0.0
 40
0.008337619
 40
0.0242462754
 40
0.0811465529
 40
0.1731970254
 40
0.2985516884
 40
0.4522782715999999
 40
0.6262979267000001
 40
1.0
 40
1.0
 40
1.0
 40
1.0
 10
-520.5760362553966
 20
-95.95538911332683
 30
0.0
 10
-520.5805465130766
 20
-95.95174127708684
 30
0.0
 10
-520.5869148366365
 20
-95.93493483368685
 30
0.0
 10
-520.6007191448166
 20
-95.88128018610685
 30
0.0
 10
-520.6146234680366
 20
-95.76606942084685
 30
0.0
 10
-520.6311080934366
 20
-95.57665205520685
 30
0.0
 10
-520.6458764789367
 20
-95.31852518258684
 30
0.0
 10
-520.6589884720166
 20
-95.00366715342685
 30
0.0
 10
-520.6734331573766
 20
-94.51580100952684
 30
0.0
 10
-520.6793093025966
 20
-94.13477332352684
 30
0.0
 10
-520.6815990287766
 20
-93.87478513128684
 30
0.0
  0
SPLINE
  5
67F
330
1F
100
AcDbEntity
  8
0
  6
Continuous
347
0
 62
     7
100
AcDbSpline
210
0.0
220
0.0
230
1.0
 70
     8
 71
     3
 72
    15
 73
    11
 74
     0
 42
0.0000000001
 43
0.0000000001
 40
0.0
 40
0.0
 40
0.0
 40
0.0
 40
0.0083377247
 40
0.0242464895
 40
0.0811469566
 40
0.1731975552
 40
0.2985522603
 40
0.4522787963
 40
0.6262983249
 40
1.0
 40
1.0
 40
1.0
 40
1.0
 10
-526.0726859504166
 20
-90.45873958848685
 30
0.0
 10
-526.0690379770166
 20
-90.46324983346685
 30
0.0
 10
-526.0522314243966
 20
-90.46961814178684
 30
0.0
 10
-525.9985763958166
 20
-90.48342244234684
 30
0.0
 10
-525.8833653587766
 20
-90.49732675540686
 30
0.0
 10
-525.6939476324566
 20
-90.51381136048686
 30
0.0
 10
-525.4358205998166
 20
-90.52857972058683
 30
0.0
 10
-525.1209625401766
 20
-90.54169168318685
 30
0.0
 10
-524.6330966197966
 20
-90.55613632790686
 30
0.0
 10
-524.2520691598565
 20
-90.56201245280685
 30
0.0
 10
-523.9920811479566
 20
-90.56430216374685
 30
0.0
  0
SPLINE
  5
680
330
1F
100
AcDbEntity
  8
0
  6
Continuous
347
0
 62
     7
100
AcDbSpline
210
0.0
220
0.0
230
1.0
 70
     8
 71
     3
 72
    15
 73
    11
 74
     0
 42
0.0000000001
 43
0.0000000001
 40
0.0
 40
0.0
 40
0.0
 40
0.0
 40
0.3737016752
 40
0.5477212038
 40
0.7014477398000001
 40
0.8268024449
 40
0.9188530434000001
 40
0.9757535104
 40
0.9916622753000001
 40
1.0
 40
1.0
 40
1.0
 40
1.0
 10
-523.9920811530366
 20
130.6071576895532
 30
0.0
 10
-524.2520691623967
 20
130.6048679709932
 30
0.0
 10
-524.6330966223366
 20
130.5989918359331
 30
0.0
 10
-525.1209625452566
 20
130.5845471785131
 30
0.0
 10
-525.4358206023566
 20
130.5714352082932
 30
0.0
 10
-525.6939476349966
 20
130.5566668405731
 30
0.0
 10
-525.8833653613167
 20
130.5401822278732
 30
0.0
 10
-525.9985763958166
 20
130.5262779122731
 30
0.0
 10
-526.0522314243966
 20
130.5124736091731
 30
0.0
 10
-526.0690379770166
 20
130.5061053008531
 30
0.0
 10
-526.0726859504166
 20
130.5015950533332
 30
0.0
  0
SPLINE
  5
681
330
1F
100
AcDbEntity
  8
0
  6
Continuous
347
0
 62
     7
100
AcDbSpline
210
0.0
220
0.0
230
1.0
 70
     8
 71
     3
 72
    15
 73
    11
 74
     0
 42
0.0000000001
 43
0.0000000001
 40
0.0
 40
0.0
 40
0.0
 40
0.0
 40
0.3737010372
 40
0.5477202796
 40
0.7014466509
 40
0.8268013702
 40
0.9188521821
 40
0.975753035
 40
0.9916620365000001
 40
1.0
 40
1.0
 40
1.0
 40
1.0
 10
-520.6815990846566
 20
133.9176429608732
 30
0.0
 10
-520.6793093635566
 20
134.1776300837731
 30
0.0
 10
-520.6734332437367
 20
134.5586562559332
 30
0.0
 10
-520.6589886447366
 20
135.0465205811931
 30
0.0
 10
-520.6458767329366
 20
135.3613778153331
 30
0.0
 10
-520.6311084236366
 20
135.6195044136331
 30
0.0
 10
-520.6146238769766
 20
135.8089223431531
 30
0.0
 10
-520.6007195943967
 20
135.9241336062531
 30
0.0
 10
-520.5869153344765
 20
135.9777893206331
 30
0.0
 10
-520.5805470642566
 20
135.9945960739132
 30
0.0
 10
-520.5760368548366
 20
135.9982443419532
 30
0.0
  0
SPLINE
  5
682
330
1F
100
AcDbEntity
  8
0
  6
Continuous
347
0
 62
     7
100
AcDbSpline
210
0.0
220
0.0
230
1.0
 70
     8
 71
     3
 72
     9
 73
     5
 74
     0
 42
0.0000000001
 43
0.0000000001
 40
0.0
 40
0.0
 40
0.0
 40
0.0
 40
0.4997394597
 40
1.0
 40
1.0
 40
1.0
 40
1.0
 10
-519.6707903214166
 20
124.0866891633332
 30
0.0
 10
-519.7615420677766
 20
123.8109623894131
 30
0.0
 10
-519.9015156130765
 20
123.2442024281931
 30
0.0
 10
-519.9442852430566
 20
122.6620907933332
 30
0.0
 10
-519.9442852430566
 20
122.3715104372331
 30
0.0
  0
LINE
  5
683
330
1F
100
AcDbEntity
  8
0
  6
Continuous
347
0
 62
     7
100
AcDbLine
 10
-512.4323658117567
 20
-87.82472868176686
 30
0.0
 11
-514.4425807549966
 21
-87.82507438338686
 31
0.0
  0
SPLINE
  5
684
330
1F
100
AcDbEntity
  8
0
  6
Continuous
347
0
 62
     7
100
AcDbSpline
210
0.0
220
0.0
230
1.0
 70
     8
 71
     3
 72
    17
 73
    13
 74
     0
 42
0.0000000001
 43
0.0000000001
 40
0.0
 40
0.0
 40
0.0
 40
0.0
 40
0.0046041531
 40
0.0167749503
 40
0.0367924
 40
0.0646771328
 40
0.1439909223
 40
0.2545456196
 40
0.3960545962
 40
0.5679188162
 40
0.7694604572
 40
1.0
 40
1.0
 40
1.0
 40
1.0
 10
-403.8458906559566
 20
-84.61882525106685
 30
0.0
 10
-403.8458906559566
 20
-84.62075585934684
 30
0.0
 10
-403.8555755311766
 20
-84.62257973174685
 30
0.0
 10
-403.8681800246366
 20
-84.62534300282684
 30
0.0
 10
-403.8946826259366
 20
-84.62789781356685
 30
0.0
 10
-403.9469889170566
 20
-84.63219147274685
 30
0.0
 10
-404.0388275598966
 20
-84.63695510304686
 30
0.0
 10
-404.1773609861566
 20
-84.64246574480686
 30
0.0
 10
-404.3551622713966
 20
-84.64787891914686
 30
0.0
 10
-404.5709657869567
 20
-84.65326447606684
 30
0.0
 10
-404.8241722045966
 20
-84.65854070630685
 30
0.0
 10
-405.0053196553566
 20
-84.66176381898686
 30
0.0
 10
-405.1019758450766
 20
-84.66337362526686
 30
0.0
  0
SPLINE
  5
685
330
1F
100
AcDbEntity
  8
0
  6
Continuous
347
0
 62
     7
100
AcDbSpline
210
0.0
220
0.0
230
1.0
 70
     8
 71
     3
 72
    11
 73
     7
 74
     0
 42
0.0000000001
 43
0.0000000001
 40
0.0
 40
0.0
 40
0.0
 40
0.0
 40
0.2076077116
 40
0.499553418
 40
0.7917375356
 40
1.0
 40
1.0
 40
1.0
 40
1.0
 10
-405.1019758450766
 20
-84.66337362526686
 30
0.0
 10
-406.4493823552366
 20
-84.68581461924686
 30
0.0
 10
-409.6920354787566
 20
-84.70661123754685
 30
0.0
 10
-414.8312200416166
 20
-84.71957855730685
 30
0.0
 10
-419.9746561250566
 20
-84.70674355630683
 30
0.0
 10
-423.2231057216167
 20
-84.68597481958685
 30
0.0
 10
-424.5747643289366
 20
-84.66362258082683
 30
0.0
  0
SPLINE
  5
686
330
1F
100
AcDbEntity
  8
0
  6
Continuous
347
0
 62
     7
100
AcDbSpline
210
0.0
220
0.0
230
1.0
 70
     8
 71
     3
 72
    17
 73
    13
 74
     0
 42
0.0000000001
 43
0.0000000001
 40
0.0
 40
0.0
 40
0.0
 40
0.0
 40
0.2305020348
 40
0.4320313272
 40
0.6039006917
 40
0.74542462
 40
0.8559954276999999
 40
0.9353217838
 40
0.9632108452
 40
0.9832308565000001
 40
0.9954017
 40
1.0
 40
1.0
 40
1.0
 40
1.0
 10
-424.5747643289366
 20
-84.66362258082683
 30
0.0
 10
-424.6725572092965
 20
-84.66200539076685
 30
0.0
 10
-424.8558436778766
 20
-84.65876685266686
 30
0.0
 10
-425.1120508692966
 20
-84.65346396258684
 30
0.0
 10
-425.3304313215366
 20
-84.64804928202683
 30
0.0
 10
-425.5103694986167
 20
-84.64260665892685
 30
0.0
 10
-425.6505728961366
 20
-84.63706237486686
 30
0.0
 10
-425.7435252908766
 20
-84.63227451042684
 30
0.0
 10
-425.7964609203366
 20
-84.62794990388686
 30
0.0
 10
-425.8232915245366
 20
-84.62538849422685
 30
0.0
 10
-425.8360344962566
 20
-84.62259330550684
 30
0.0
 10
-425.8458477278366
 20
-84.62077639524685
 30
0.0
 10
-425.8458477278366
 20
-84.61882525106685
 30
0.0
  0
SPLINE
  5
687
330
1F
100
AcDbEntity
  8
0
  6
Continuous
347
0
 62
     7
100
AcDbSpline
210
0.0
220
0.0
230
1.0
 70
     8
 71
     3
 72
    17
 73
    13
 74
     0
 42
0.0000000001
 43
0.0000000001
 40
0.0
 40
0.0
 40
0.0
 40
0.0
 40
0.0046041531
 40
0.0167749503
 40
0.0367924
 40
0.0646771328
 40
0.1439909223
 40
0.2545456196
 40
0.3960545962
 40
0.5679188162
 40
0.7694604572
 40
1.0
 40
1.0
 40
1.0
 40
1.0
 10
-447.8458906567965
 20
-84.61882525106685
 30
0.0
 10
-447.8458906567965
 20
-84.62075585934684
 30
0.0
 10
-447.8555755320166
 20
-84.62257973174685
 30
0.0
 10
-447.8681800254766
 20
-84.62534300282684
 30
0.0
 10
-447.8946826267767
 20
-84.62789781356685
 30
0.0
 10
-447.9469889178966
 20
-84.63219147274685
 30
0.0
 10
-448.0388275607366
 20
-84.63695510304686
 30
0.0
 10
-448.1773609844566
 20
-84.64246574480686
 30
0.0
 10
-448.3551622696966
 20
-84.64787891914686
 30
0.0
 10
-448.5709657877966
 20
-84.65326447606684
 30
0.0
 10
-448.8241722054366
 20
-84.65854070630685
 30
0.0
 10
-449.0053196561967
 20
-84.66176381898686
 30
0.0
 10
-449.1019758433766
 20
-84.66337362526686
 30
0.0
  0
SPLINE
  5
688
330
1F
100
AcDbEntity
  8
0
  6
Continuous
347
0
 62
     7
100
AcDbSpline
210
0.0
220
0.0
230
1.0
 70
     8
 71
     3
 72
    11
 73
     7
 74
     0
 42
0.0000000001
 43
0.0000000001
 40
0.0
 40
0.0
 40
0.0
 40
0.0
 40
0.2076077116
 40
0.499553418
 40
0.7917375356
 40
1.0
 40
1.0
 40
1.0
 40
1.0
 10
-449.1019758433766
 20
-84.66337362526686
 30
0.0
 10
-450.4493823560766
 20
-84.68581461924686
 30
0.0
 10
-453.6920354770566
 20
-84.70661123754685
 30
0.0
 10
-458.8312200399166
 20
-84.71957855730685
 30
0.0
 10
-463.9746561258967
 20
-84.70674355630683
 30
0.0
 10
-467.2231057224566
 20
-84.68597481958685
 30
0.0
 10
-468.5747643272366
 20
-84.66362258082683
 30
0.0
  0
SPLINE
  5
689
330
1F
100
AcDbEntity
  8
0
  6
Continuous
347
0
 62
     7
100
AcDbSpline
210
0.0
220
0.0
230
1.0
 70
     8
 71
     3
 72
    17
 73
    13
 74
     0
 42
0.0000000001
 43
0.0000000001
 40
0.0
 40
0.0
 40
0.0
 40
0.0
 40
0.2305020348
 40
0.4320313272
 40
0.6039006917
 40
0.74542462
 40
0.8559954276999999
 40
0.9353217838
 40
0.9632108452
 40
0.9832308565000001
 40
0.9954017
 40
1.0
 40
1.0
 40
1.0
 40
1.0
 10
-468.5747643272366
 20
-84.66362258082683
 30
0.0
 10
-468.6725572101366
 20
-84.66200539076685
 30
0.0
 10
-468.8558436787166
 20
-84.65876685266686
 30
0.0
 10
-469.1120508701366
 20
-84.65346396258684
 30
0.0
 10
-469.3304313223766
 20
-84.64804928202683
 30
0.0
 10
-469.5103694994566
 20
-84.64260665892685
 30
0.0
 10
-469.6505728969767
 20
-84.63706237486686
 30
0.0
 10
-469.7435252917165
 20
-84.63227451042684
 30
0.0
 10
-469.7964609211766
 20
-84.62794990388686
 30
0.0
 10
-469.8232915253766
 20
-84.62538849422685
 30
0.0
 10
-469.8360344970966
 20
-84.62259330550684
 30
0.0
 10
-469.8458477286766
 20
-84.62077639524685
 30
0.0
 10
-469.8458477286766
 20
-84.61882525106685
 30
0.0
  0
SPLINE
  5
68A
330
1F
100
AcDbEntity
  8
0
  6
Continuous
347
0
 62
     7
100
AcDbSpline
210
0.0
220
0.0
230
1.0
 70
     8
 71
     3
 72
    11
 73
     7
 74
     0
 42
0.0000000001
 43
0.0000000001
 40
0.0
 40
0.0
 40
0.0
 40
0.0
 40
0.246852213
 40
0.4997731074
 40
0.7525872256
 40
1.0
 40
1.0
 40
1.0
 40
1.0
 10
-520.6815840173766
 20
-93.87478491030684
 30
0.0
 10
-521.0998063102165
 20
-93.85499648404684
 30
0.0
 10
-521.9454476694766
 20
-93.64394600698684
 30
0.0
 10
-523.0133301692166
 20
-92.89799059516686
 30
0.0
 10
-523.7605858121166
 20
-91.82990362542685
 30
0.0
 10
-523.9722451728966
 20
-90.98347767540686
 30
0.0
 10
-523.9920809777766
 20
-90.56430578324685
 30
0.0
  0
LINE
  5
68B
330
1F
100
AcDbEntity
  8
0
  6
Continuous
347
0
 62
     7
100
AcDbLine
 10
-523.9920804189767
 20
-90.56430576038687
 30
0.0
 11
-524.0924784122366
 21
-88.46552164198684
 31
0.0
  0
LINE
  5
68C
330
1F
100
AcDbEntity
  8
0
  6
Continuous
347
0
 62
     7
100
AcDbLine
 10
-518.5828218293366
 20
-93.97518468664686
 30
0.0
 11
-520.6815841138966
 21
-93.87478718614688
 31
0.0
  0
SPLINE
  5
68D
330
1F
100
AcDbEntity
  8
0
  6
Continuous
347
0
 62
     7
100
AcDbSpline
210
0.0
220
0.0
230
1.0
 70
     8
 71
     3
 72
    11
 73
     7
 74
     0
 42
0.0000000001
 43
0.0000000001
 40
0.0
 40
0.0
 40
0.0
 40
0.0
 40
0.246852213
 40
0.4997731074
 40
0.7525872256
 40
1.0
 40
1.0
 40
1.0
 40
1.0
 10
-523.9920818642366
 20
130.6071426603731
 30
0.0
 10
-523.9722934405166
 20
131.0253649532131
 30
0.0
 10
-523.7612429634565
 20
131.8710063175532
 30
0.0
 10
-523.0152875490966
 20
132.9388888223731
 30
0.0
 10
-521.9472005768166
 20
133.6861444678132
 30
0.0
 10
-521.1007746191766
 20
133.8978038260531
 30
0.0
 10
-520.6816027270166
 20
133.9176396309331
 30
0.0
  0
LINE
  5
68E
330
1F
100
AcDbEntity
  8
0
  6
Continuous
347
0
 62
     7
100
AcDbLine
 10
-520.6816027041567
 20
133.9176390721331
 30
0.0
 11
-518.5828185984566
 21
134.0180370653931
 31
0.0
  0
LINE
  5
68F
330
1F
100
AcDbEntity
  8
0
  6
Continuous
347
0
 62
     7
100
AcDbLine
 10
-524.0924816354966
 20
128.5083804723332
 30
0.0
 11
-523.9920841426167
 21
130.6071427543531
 31
0.0
  0
LINE
  5
690
330
1F
100
AcDbEntity
  8
0
  6
Continuous
347
0
 62
     7
100
AcDbLine
 10
-514.4425806559367
 20
127.8679298914131
 30
0.0
 11
-512.4323658117567
 21
127.8675814237331
 31
0.0
  0
ELLIPSE
  5
693
330
1F
100
AcDbEntity
  8
0
  6
Continuous
347
0
 62
     7
100
AcDbEllipse
 10
87.0993971848034
 20
-84.77784571026683
 30
0.0
 11
30.90893517718001
 21
0.90160320822
 31
0.0
210
0.0
220
0.0
230
0.9999999999999999
 40
0.0255899161
 41
-1.6942122643
 42
-1.6349300279
  0
ELLIPSE
  5
694
330
1F
100
AcDbEntity
  8
0
  6
Continuous
347
0
 62
     7
100
AcDbEllipse
 10
84.73206011862337
 20
-79.87152603854683
 30
0.0
 11
15.77681840312
 21
-8.064505336539998
 31
0.0
210
0.0
220
0.0
230
1.0
 40
0.1001297519
 41
-1.272570502
 42
-1.2486227082
  0
ELLIPSE
  5
695
330
1F
100
AcDbEntity
  8
0
  6
Continuous
347
0
 62
     7
100
AcDbEllipse
 10
80.82888181120336
 20
-76.06921807040686
 30
0.0
 11
-7.612516537699999
 21
14.7308115213
 31
0.0
210
0.0
220
0.0
230
1.0
 40
0.106266793
 41
-2.2953698598
 42
-2.2670157029
  0
ELLIPSE
  5
696
330
1F
100
AcDbEntity
  8
0
  6
Continuous
347
0
 62
     7
100
AcDbEllipse
 10
80.82888181120336
 20
116.1120736800331
 30
0.0
 11
7.612516537699999
 21
14.7308115213
 31
0.0
210
0.0
220
0.0
230
1.0
 40
0.106266793
 41
-0.8745769507
 42
-0.8462227939
  0
ELLIPSE
  5
697
330
1F
100
AcDbEntity
  8
0
  6
Continuous
347
0
 62
     7
100
AcDbEllipse
 10
84.70973267026335
 20
119.8926312090732
 30
0.0
 11
3.944339617019999
 21
3.84240553844
 31
0.0
210
0.0
220
0.0
230
1.0
 40
0.9988137613999999
 41
0.0150604807
 42
0.3873734662
  0
ELLIPSE
  5
698
330
1F
100
AcDbEntity
  8
0
  6
Continuous
347
0
 62
     7
100
AcDbEllipse
 10
84.73206011608337
 20
119.9143816430931
 30
0.0
 11
15.77681840312
 21
8.064505336539998
 31
0.0
210
0.0
220
0.0
230
1.0
 40
0.1001297519
 41
1.2486227081
 42
1.2725705019
  0
ELLIPSE
  5
699
330
1F
100
AcDbEntity
  8
0
  6
Continuous
347
0
 62
     7
100
AcDbEllipse
 10
87.0993971848034
 20
124.8207013173532
 30
0.0
 11
30.90893517718001
 21
-0.90160320822
 31
0.0
210
0.0
220
0.0
230
0.9999999999999999
 40
0.0255899161
 41
1.6349300279
 42
1.6942122635
  0
ELLIPSE
  5
69D
330
1F
100
AcDbEntity
  8
0
  6
Continuous
347
0
 62
     7
100
AcDbEllipse
 10
84.70973267026335
 20
-79.84977560198686
 30
0.0
 11
3.944339617019999
 21
-3.84240553844
 31
0.0
210
0.0
220
0.0
230
1.0
 40
0.9988137613999999
 41
-0.3873734662
 42
-0.0150604807
  0
ELLIPSE
  5
6A4
330
1F
100
AcDbEntity
  8
0
  6
Continuous
347
0
 62
     7
100
AcDbEllipse
 10
200.2539526405434
 20
-82.31801445010684
 30
0.0
 11
0.002373530940000001
 21
5.50021968534
 31
0.0
210
0.0
220
0.0
230
1.0
 40
0.2129507426
 41
-4.7103625463
 42
-4.3931332244
  0
ELLIPSE
  5
6AA
330
1F
100
AcDbEntity
  8
0
  6
Continuous
347
0
 62
     7
100
AcDbEllipse
 10
-514.4353114045366
 20
-82.31801445010684
 30
0.0
 11
5.070595942099998
 21
2.16308101038
 31
0.0
210
0.0
220
0.0
230
1.0
 40
0.9973235129000004
 41
2.7393398155
 42
3.0565691374
  0
ELLIPSE
  5
6AB
330
1F
100
AcDbEntity
  8
0
  6
Continuous
347
0
 62
     7
100
AcDbEllipse
 10
-513.5753552986966
 20
-81.45805834680684
 30
0.0
 11
3.889383470899998
 21
3.889383470899998
 31
0.0
210
0.0
220
0.0
230
1.0
 40
0.9999238505
 41
2.3562325657
 42
3.926952741499999
  0
ELLIPSE
  5
6AD
330
1F
100
AcDbEntity
  8
0
  6
Continuous
347
0
 62
     7
100
AcDbEllipse
 10
-513.5753552986966
 20
121.5009139513531
 30
0.0
 11
3.889383470899998
 21
-3.889383470899998
 31
0.0
210
0.0
220
0.0
230
1.0
 40
0.9999238505
 41
2.3562325639
 42
3.926952743399999
  0
ELLIPSE
  5
740
330
1F
100
AcDbEntity
  8
0
  6
Continuous
347
0
 62
     7
100
AcDbEllipse
 10
-360.1163830021165
 20
121.5009139513531
 30
0.0
 11
-3.889383470899998
 21
-3.889383470899998
 31
0.0
210
0.0
220
0.0
230
-1.0
 40
0.9999238505
 41
2.3562325639
 42
3.926952743399999
  0
ELLIPSE
  5
741
330
1F
100
AcDbEntity
  8
0
  6
Continuous
347
0
 62
     7
100
AcDbEllipse
 10
-360.1163830021165
 20
-81.45805834680684
 30
0.0
 11
-3.889383470899998
 21
3.889383470899998
 31
0.0
210
0.0
220
0.0
230
-1.0
 40
0.9999238505
 41
2.3562325657
 42
3.926952741499999
  0
ELLIPSE
  5
742
330
1F
100
AcDbEntity
  8
0
  6
Continuous
347
0
 62
     7
100
AcDbEllipse
 10
-359.2564268962766
 20
-82.31801445010684
 30
0.0
 11
-5.070595942099998
 21
2.16308101038
 31
0.0
210
0.0
220
0.0
230
-1.0
 40
0.9973235129000004
 41
2.7393398155
 42
3.0565691374
  0
LINE
  5
743
330
1F
100
AcDbEntity
  8
0
  6
Continuous
347
0
 62
     7
100
AcDbLine
 10
-359.2491576448765
 20
127.8679298914131
 30
0.0
 11
-361.2593724890565
 21
127.8675814237331
 31
0.0
  0
LINE
  5
744
330
1F
100
AcDbEntity
  8
0
  6
Continuous
347
0
 62
     7
100
AcDbLine
 10
-349.5992566653166
 20
128.5083804723332
 30
0.0
 11
-349.6996541581965
 21
130.6071427543531
 31
0.0
  0
LINE
  5
745
330
1F
100
AcDbEntity
  8
0
  6
Continuous
347
0
 62
     7
100
AcDbLine
 10
-353.0101355966565
 20
133.9176390721331
 30
0.0
 11
-355.1089197023566
 21
134.0180370653931
 31
0.0
  0
SPLINE
  5
746
330
1F
100
AcDbEntity
  8
0
  6
Continuous
347
0
 62
     7
100
AcDbSpline
210
0.0
220
0.0
230
1.0
 70
     8
 71
     3
 72
    11
 73
     7
 74
     0
 42
0.0000000001
 43
0.0000000001
 40
0.0
 40
0.0
 40
0.0
 40
0.0
 40
0.246852213
 40
0.4997731074
 40
0.7525872256
 40
1.0
 40
1.0
 40
1.0
 40
1.0
 10
-349.6996564365766
 20
130.6071426603731
 30
0.0
 10
-349.7194448602966
 20
131.0253649532131
 30
0.0
 10
-349.9304953373567
 20
131.8710063175532
 30
0.0
 10
-350.6764507517166
 20
132.9388888223731
 30
0.0
 10
-351.7445377239966
 20
133.6861444678132
 30
0.0
 10
-352.5909636816366
 20
133.8978038260531
 30
0.0
 10
-353.0101355737966
 20
133.9176396309331
 30
0.0
  0
LINE
  5
747
330
1F
100
AcDbEntity
  8
0
  6
Continuous
347
0
 62
     7
100
AcDbLine
 10
-355.1089164714766
 20
-93.97518468664686
 30
0.0
 11
-353.0101541869166
 21
-93.87478718614688
 31
0.0
  0
LINE
  5
748
330
1F
100
AcDbEntity
  8
0
  6
Continuous
347
0
 62
     7
100
AcDbLine
 10
-349.6996578818365
 20
-90.56430576038687
 30
0.0
 11
-349.5992598885766
 21
-88.46552164198684
 31
0.0
  0
SPLINE
  5
749
330
1F
100
AcDbEntity
  8
0
  6
Continuous
347
0
 62
     7
100
AcDbSpline
210
0.0
220
0.0
230
1.0
 70
     8
 71
     3
 72
    11
 73
     7
 74
     0
 42
0.0000000001
 43
0.0000000001
 40
0.0
 40
0.0
 40
0.0
 40
0.0
 40
0.246852213
 40
0.4997731074
 40
0.7525872256
 40
1.0
 40
1.0
 40
1.0
 40
1.0
 10
-353.0101542834366
 20
-93.87478491030684
 30
0.0
 10
-352.5919319905967
 20
-93.85499648404684
 30
0.0
 10
-351.7462906313366
 20
-93.64394600698684
 30
0.0
 10
-350.6784081315966
 20
-92.89799059516686
 30
0.0
 10
-349.9311524886966
 20
-91.82990362542685
 30
0.0
 10
-349.7194931279166
 20
-90.98347767540686
 30
0.0
 10
-349.6996573230366
 20
-90.56430578324685
 30
0.0
  0
SPLINE
  5
74A
330
1F
100
AcDbEntity
  8
0
  6
Continuous
347
0
 62
     7
100
AcDbSpline
210
0.0
220
0.0
230
1.0
 70
     8
 71
     3
 72
    17
 73
    13
 74
     0
 42
0.0000000001
 43
0.0000000001
 40
0.0
 40
0.0
 40
0.0
 40
0.0
 40
0.2305020348
 40
0.4320313272
 40
0.6039006917
 40
0.74542462
 40
0.8559954276999999
 40
0.9353217838
 40
0.9632108452
 40
0.9832308565000001
 40
0.9954017
 40
1.0
 40
1.0
 40
1.0
 40
1.0
 10
-405.1169739735766
 20
-84.66362258082683
 30
0.0
 10
-405.0191810906766
 20
-84.66200539076685
 30
0.0
 10
-404.8358946220966
 20
-84.65876685266686
 30
0.0
 10
-404.5796874306766
 20
-84.65346396258684
 30
0.0
 10
-404.3613069784366
 20
-84.64804928202683
 30
0.0
 10
-404.1813688013566
 20
-84.64260665892685
 30
0.0
 10
-404.0411654038365
 20
-84.63706237486686
 30
0.0
 10
-403.9482130090967
 20
-84.63227451042684
 30
0.0
 10
-403.8952773796366
 20
-84.62794990388686
 30
0.0
 10
-403.8684467754366
 20
-84.62538849422685
 30
0.0
 10
-403.8557038037166
 20
-84.62259330550684
 30
0.0
 10
-403.8458905721366
 20
-84.62077639524685
 30
0.0
 10
-403.8458905721366
 20
-84.61882525106685
 30
0.0
  0
SPLINE
  5
74B
330
1F
100
AcDbEntity
  8
0
  6
Continuous
347
0
 62
     7
100
AcDbSpline
210
0.0
220
0.0
230
1.0
 70
     8
 71
     3
 72
    11
 73
     7
 74
     0
 42
0.0000000001
 43
0.0000000001
 40
0.0
 40
0.0
 40
0.0
 40
0.0
 40
0.2076077116
 40
0.499553418
 40
0.7917375356
 40
1.0
 40
1.0
 40
1.0
 40
1.0
 10
-424.5897624574366
 20
-84.66337362526686
 30
0.0
 10
-423.2423559447366
 20
-84.68581461924686
 30
0.0
 10
-419.9997028237566
 20
-84.70661123754685
 30
0.0
 10
-414.8605182608966
 20
-84.71957855730685
 30
0.0
 10
-409.7170821749165
 20
-84.70674355630683
 30
0.0
 10
-406.4686325783566
 20
-84.68597481958685
 30
0.0
 10
-405.1169739735766
 20
-84.66362258082683
 30
0.0
  0
SPLINE
  5
74C
330
1F
100
AcDbEntity
  8
0
  6
Continuous
347
0
 62
     7
100
AcDbSpline
210
0.0
220
0.0
230
1.0
 70
     8
 71
     3
 72
    17
 73
    13
 74
     0
 42
0.0000000001
 43
0.0000000001
 40
0.0
 40
0.0
 40
0.0
 40
0.0
 40
0.0046041531
 40
0.0167749503
 40
0.0367924
 40
0.0646771328
 40
0.1439909223
 40
0.2545456196
 40
0.3960545962
 40
0.5679188162
 40
0.7694604572
 40
1.0
 40
1.0
 40
1.0
 40
1.0
 10
-425.8458476440167
 20
-84.61882525106685
 30
0.0
 10
-425.8458476440167
 20
-84.62075585934684
 30
0.0
 10
-425.8361627687966
 20
-84.62257973174685
 30
0.0
 10
-425.8235582753366
 20
-84.62534300282684
 30
0.0
 10
-425.7970556740365
 20
-84.62789781356685
 30
0.0
 10
-425.7447493829166
 20
-84.63219147274685
 30
0.0
 10
-425.6529107400765
 20
-84.63695510304686
 30
0.0
 10
-425.5143773163566
 20
-84.64246574480686
 30
0.0
 10
-425.3365760311166
 20
-84.64787891914686
 30
0.0
 10
-425.1207725130166
 20
-84.65326447606684
 30
0.0
 10
-424.8675660953766
 20
-84.65854070630685
 30
0.0
 10
-424.6864186446165
 20
-84.66176381898686
 30
0.0
 10
-424.5897624574366
 20
-84.66337362526686
 30
0.0
  0
LINE
  5
74D
330
1F
100
AcDbEntity
  8
0
  6
Continuous
347
0
 62
     7
100
AcDbLine
 10
-361.2593724890565
 20
-87.82472868176686
 30
0.0
 11
-359.2491575458166
 21
-87.82507438338686
 31
0.0
  0
SPLINE
  5
74E
330
1F
100
AcDbEntity
  8
0
  6
Continuous
347
0
 62
     7
100
AcDbSpline
210
0.0
220
0.0
230
1.0
 70
     8
 71
     3
 72
     9
 73
     5
 74
     0
 42
0.0000000001
 43
0.0000000001
 40
0.0
 40
0.0
 40
0.0
 40
0.0
 40
0.4997394597
 40
1.0
 40
1.0
 40
1.0
 40
1.0
 10
-354.0209479793966
 20
124.0866891633332
 30
0.0
 10
-353.9301962330366
 20
123.8109623894131
 30
0.0
 10
-353.7902226877367
 20
123.2442024281931
 30
0.0
 10
-353.7474530577566
 20
122.6620907933332
 30
0.0
 10
-353.7474530577566
 20
122.3715104372331
 30
0.0
  0
SPLINE
  5
74F
330
1F
100
AcDbEntity
  8
0
  6
Continuous
347
0
 62
     7
100
AcDbSpline
210
0.0
220
0.0
230
1.0
 70
     8
 71
     3
 72
    15
 73
    11
 74
     0
 42
0.0000000001
 43
0.0000000001
 40
0.0
 40
0.0
 40
0.0
 40
0.0
 40
0.3737010372
 40
0.5477202796
 40
0.7014466509
 40
0.8268013702
 40
0.9188521821
 40
0.975753035
 40
0.9916620365000001
 40
1.0
 40
1.0
 40
1.0
 40
1.0
 10
-353.0101392161566
 20
133.9176429608732
 30
0.0
 10
-353.0124289372566
 20
134.1776300837731
 30
0.0
 10
-353.0183050570765
 20
134.5586562559332
 30
0.0
 10
-353.0327496560766
 20
135.0465205811931
 30
0.0
 10
-353.0458615678766
 20
135.3613778153331
 30
0.0
 10
-353.0606298771766
 20
135.6195044136331
 30
0.0
 10
-353.0771144238366
 20
135.8089223431531
 30
0.0
 10
-353.0910187064165
 20
135.9241336062531
 30
0.0
 10
-353.1048229663367
 20
135.9777893206331
 30
0.0
 10
-353.1111912365566
 20
135.9945960739132
 30
0.0
 10
-353.1157014459766
 20
135.9982443419532
 30
0.0
  0
SPLINE
  5
750
330
1F
100
AcDbEntity
  8
0
  6
Continuous
347
0
 62
     7
100
AcDbSpline
210
0.0
220
0.0
230
1.0
 70
     8
 71
     3
 72
    15
 73
    11
 74
     0
 42
0.0000000001
 43
0.0000000001
 40
0.0
 40
0.0
 40
0.0
 40
0.0
 40
0.3737016752
 40
0.5477212038
 40
0.7014477398000001
 40
0.8268024449
 40
0.9188530434000001
 40
0.9757535104
 40
0.9916622753000001
 40
1.0
 40
1.0
 40
1.0
 40
1.0
 10
-349.6996571477766
 20
130.6071576895532
 30
0.0
 10
-349.4396691384165
 20
130.6048679709932
 30
0.0
 10
-349.0586416784766
 20
130.5989918359331
 30
0.0
 10
-348.5707757555566
 20
130.5845471785131
 30
0.0
 10
-348.2559176984566
 20
130.5714352082932
 30
0.0
 10
-347.9977906658166
 20
130.5566668405731
 30
0.0
 10
-347.8083729394965
 20
130.5401822278732
 30
0.0
 10
-347.6931619049966
 20
130.5262779122731
 30
0.0
 10
-347.6395068764166
 20
130.5124736091731
 30
0.0
 10
-347.6227003237966
 20
130.5061053008531
 30
0.0
 10
-347.6190523503966
 20
130.5015950533332
 30
0.0
  0
SPLINE
  5
751
330
1F
100
AcDbEntity
  8
0
  6
Continuous
347
0
 62
     7
100
AcDbSpline
210
0.0
220
0.0
230
1.0
 70
     8
 71
     3
 72
    15
 73
    11
 74
     0
 42
0.0000000001
 43
0.0000000001
 40
0.0
 40
0.0
 40
0.0
 40
0.0
 40
0.0083377247
 40
0.0242464895
 40
0.0811469566
 40
0.1731975552
 40
0.2985522603
 40
0.4522787963
 40
0.6262983249
 40
1.0
 40
1.0
 40
1.0
 40
1.0
 10
-347.6190523503966
 20
-90.45873958848685
 30
0.0
 10
-347.6227003237966
 20
-90.46324983346685
 30
0.0
 10
-347.6395068764166
 20
-90.46961814178684
 30
0.0
 10
-347.6931619049966
 20
-90.48342244234684
 30
0.0
 10
-347.8083729420366
 20
-90.49732675540686
 30
0.0
 10
-347.9977906683566
 20
-90.51381136048686
 30
0.0
 10
-348.2559177009966
 20
-90.52857972058683
 30
0.0
 10
-348.5707757606366
 20
-90.54169168318685
 30
0.0
 10
-349.0586416810166
 20
-90.55613632790686
 30
0.0
 10
-349.4396691409567
 20
-90.56201245280685
 30
0.0
 10
-349.6996571528566
 20
-90.56430216374685
 30
0.0
  0
SPLINE
  5
752
330
1F
100
AcDbEntity
  8
0
  6
Continuous
347
0
 62
     7
100
AcDbSpline
210
0.0
220
0.0
230
1.0
 70
     8
 71
     3
 72
    15
 73
    11
 74
     0
 42
0.0000000001
 43
0.0000000001
 40
0.0
 40
0.0
 40
0.0
 40
0.0
 40
0.008337619
 40
0.0242462754
 40
0.0811465529
 40
0.1731970254
 40
0.2985516884
 40
0.4522782715999999
 40
0.6262979267000001
 40
1.0
 40
1.0
 40
1.0
 40
1.0
 10
-353.1157020454166
 20
-95.95538911332683
 30
0.0
 10
-353.1111917877366
 20
-95.95174127708684
 30
0.0
 10
-353.1048234641767
 20
-95.93493483368685
 30
0.0
 10
-353.0910191559966
 20
-95.88128018610685
 30
0.0
 10
-353.0771148327766
 20
-95.76606942084685
 30
0.0
 10
-353.0606302073766
 20
-95.57665205520685
 30
0.0
 10
-353.0458618218765
 20
-95.31852518258684
 30
0.0
 10
-353.0327498287966
 20
-95.00366715342685
 30
0.0
 10
-353.0183051434366
 20
-94.51580100952684
 30
0.0
 10
-353.0124289982166
 20
-94.13477332352684
 30
0.0
 10
-353.0101392720366
 20
-93.87478513128684
 30
0.0
  0
LINE
  5
753
330
1F
100
AcDbEntity
  8
0
  6
Continuous
347
0
 62
     7
100
AcDbLine
 10
-353.1157019869966
 20
-95.95538889488688
 30
0.0
 11
-355.1089171394966
 21
-95.95388163856686
 31
0.0
  0
LINE
  5
754
330
1F
100
AcDbEntity
  8
0
  6
Continuous
347
0
 62
     7
100
AcDbLine
 10
-347.6205594466966
 20
-88.46552422262687
 30
0.0
 11
-347.6190519287566
 21
-90.45873989836687
 31
0.0
  0
LINE
  5
755
330
1F
100
AcDbEntity
  8
0
  6
Continuous
347
0
 62
     7
100
AcDbLine
 10
-347.6190524545366
 20
130.5015949415732
 30
0.0
 11
-347.6205597083166
 21
128.5083798271731
 31
0.0
  0
LINE
  5
756
330
1F
100
AcDbEntity
  8
0
  6
Continuous
347
0
 62
     7
100
AcDbLine
 10
-355.1089171369565
 20
135.9967375072731
 30
0.0
 11
-353.1157014281966
 21
135.9982450252131
 31
0.0
  0
SPLINE
  5
757
330
1F
100
AcDbEntity
  8
0
  6
Continuous
347
0
 62
     7
100
AcDbSpline
210
0.0
220
0.0
230
1.0
 70
     8
 71
     3
 72
    17
 73
    13
 74
     0
 42
0.0000000001
 43
0.0000000001
 40
0.0
 40
0.0
 40
0.0
 40
0.0
 40
0.2304863832
 40
0.4320040627
 40
0.6038672202
 40
0.7453917126999999
 40
0.8559701995000001
 40
0.9353077107
 40
0.9632022098
 40
0.983226791
 40
0.9954007411
 40
1.0
 40
1.0
 40
1.0
 40
1.0
 10
-424.5747625255366
 20
-84.57403097946684
 30
0.0
 10
-424.6725488501565
 20
-84.57564806792685
 30
0.0
 10
-424.8558239141366
 20
-84.57888641552684
 30
0.0
 10
-425.1120171330166
 20
-84.58418897032684
 30
0.0
 10
-425.3303904529366
 20
-84.58960333592685
 30
0.0
 10
-425.5103296866565
 20
-84.59504562628683
 30
0.0
 10
-425.6505413671166
 20
-84.60058963094684
 30
0.0
 10
-425.7435044171566
 20
-84.60537688832684
 30
0.0
 10
-425.7964487384966
 20
-84.60970141866686
 30
0.0
 10
-425.8232857231766
 20
-84.61226211458684
 30
0.0
 10
-425.8360310316966
 20
-84.61505804752686
 30
0.0
 10
-425.8458476440167
 20
-84.61687370048686
 30
0.0
 10
-425.8458476440167
 20
-84.61882525106685
 30
0.0
  0
SPLINE
  5
758
330
1F
100
AcDbEntity
  8
0
  6
Continuous
347
0
 62
     7
100
AcDbSpline
210
0.0
220
0.0
230
1.0
 70
     8
 71
     3
 72
    11
 73
     7
 74
     0
 42
0.0000000001
 43
0.0000000001
 40
0.0
 40
0.0
 40
0.0
 40
0.0
 40
0.2076076723
 40
0.499553352
 40
0.7917374785
 40
1.0
 40
1.0
 40
1.0
 40
1.0
 10
-405.1019754589965
 20
-84.57427997312685
 30
0.0
 10
-406.4493816160966
 20
-84.55183886484684
 30
0.0
 10
-409.6920340766766
 20
-84.53104243958684
 30
0.0
 10
-414.8312178927766
 20
-84.51807498774684
 30
0.0
 10
-419.9746538568365
 20
-84.53091010050686
 30
0.0
 10
-423.2231036489766
 20
-84.55167864164686
 30
0.0
 10
-424.5747625255366
 20
-84.57403097946684
 30
0.0
  0
SPLINE
  5
759
330
1F
100
AcDbEntity
  8
0
  6
Continuous
347
0
 62
     7
100
AcDbSpline
210
0.0
220
0.0
230
1.0
 70
     8
 71
     3
 72
    17
 73
    13
 74
     0
 42
0.0000000001
 43
0.0000000001
 40
0.0
 40
0.0
 40
0.0
 40
0.0
 40
0.0046051167
 40
0.0167790401
 40
0.03680109
 40
0.064691298
 40
0.1440163256
 40
0.2545787747
 40
0.396088336
 40
0.5679463025
 40
0.7694762354000001
 40
1.0
 40
1.0
 40
1.0
 40
1.0
 10
-403.8458905721366
 20
-84.61882525106685
 30
0.0
 10
-403.8458905721366
 20
-84.61689424146684
 30
0.0
 10
-403.8555787950766
 20
-84.61507161620685
 30
0.0
 10
-403.8681855923166
 20
-84.61230761614685
 30
0.0
 10
-403.8946945004366
 20
-84.60975351406684
 30
0.0
 10
-403.9470093564366
 20
-84.60545993870686
 30
0.0
 10
-404.0388584666166
 20
-84.60069691546686
 30
0.0
 10
-404.1773999294367
 20
-84.59518656072686
 30
0.0
 10
-404.3552019919166
 20
-84.58977372420685
 30
0.0
 10
-404.5709980678166
 20
-84.58438848478686
 30
0.0
 10
-404.8241901598566
 20
-84.57911259236685
 30
0.0
 10
-405.0053259570966
 20
-84.57588967526685
 30
0.0
 10
-405.1019754589965
 20
-84.57427997312685
 30
0.0
  0
ARC
  5
75A
330
1F
100
AcDbEntity
  8
0
  6
Continuous
347
0
 62
     7
100
AcDbCircle
 10
-361.0987277074767
 20
120.5185692459932
 30
0.0
 40
2.50002005964
100
AcDbArc
 50
0.0013421604000243
 51
89.9986568867
  0
ARC
  5
75B
330
1F
100
AcDbEntity
  8
0
  6
Continuous
347
0
 62
     7
100
AcDbCircle
 10
-361.0987277252566
 20
-80.47571362874686
 30
0.0
 40
2.50002007742
100
AcDbArc
 50
270.0013429024
 51
359.9986581285
  0
ARC
  5
75C
330
1F
100
AcDbEntity
  8
0
  6
Continuous
347
0
 62
     7
100
AcDbCircle
 10
-361.0812740136565
 20
120.5360229271132
 30
0.0
 40
2.50002012314
100
AcDbArc
 50
0.0013438565999883
 51
89.99865467780002
  0
ARC
  5
75D
330
1F
100
AcDbEntity
  8
0
  6
Continuous
347
0
 62
     7
100
AcDbCircle
 10
-361.0813640718966
 20
-80.49307727448686
 30
0.0
 40
2.50011081892
100
AcDbArc
 50
270.00341087
 51
359.9965890312
  0
CIRCLE
  5
75E
330
1F
100
AcDbEntity
  8
0
  6
Continuous
347
0
 62
     7
100
AcDbCircle
 10
-386.0458691516766
 20
-65.97857219636685
 30
0.0
 40
2.75073187978
  0
CIRCLE
  5
75F
330
1F
100
AcDbEntity
  8
0
  6
Continuous
347
0
 62
     7
100
AcDbCircle
 10
-386.0458691516766
 20
106.0214278034531
 30
0.0
 40
2.75073187978
  0
CIRCLE
  5
760
330
1F
100
AcDbEntity
  8
0
  6
Continuous
347
0
 62
     7
100
AcDbCircle
 10
-386.0458691516766
 20
-65.97857219636685
 30
0.0
 40
3.450000001179999
  0
CIRCLE
  5
761
330
1F
100
AcDbEntity
  8
0
  6
Continuous
347
0
 62
     7
100
AcDbCircle
 10
-386.0458691516766
 20
106.0214278034531
 30
0.0
 40
3.450000001179999
  0
ARC
  5
762
330
1F
100
AcDbEntity
  8
0
  6
Continuous
347
0
 62
     7
100
AcDbCircle
 10
-353.1141429451566
 20
-90.46029840172687
 30
0.0
 40
5.495100866519999
100
AcDbArc
 50
269.9837452366
 51
0.0162547034999973
  0
ARC
  5
763
330
1F
100
AcDbEntity
  8
0
  6
Continuous
347
0
 62
     7
100
AcDbCircle
 10
-353.1141429451566
 20
130.5031540062731
 30
0.0
 40
5.495100866519999
100
AcDbArc
 50
359.983745107
 51
90.01625472790002
  0
ARC
  5
764
330
1F
100
AcDbEntity
  8
0
  6
Continuous
347
0
 62
     7
100
AcDbCircle
 10
-352.6951397369367
 20
-90.87930160994685
 30
0.0
 40
5.495265082599999
100
AcDbArc
 50
269.9832196371
 51
0.0167793584000331
  0
ARC
  5
765
330
1F
100
AcDbEntity
  8
0
  6
Continuous
347
0
 62
     7
100
AcDbCircle
 10
-352.6952567979166
 20
130.9220401560531
 30
0.0
 40
5.49540816842
100
AcDbArc
 50
359.9864384064001
 51
90.01356261739998
  0
ARC
  5
766
330
1F
100
AcDbEntity
  8
0
  6
Continuous
347
0
 62
     7
100
AcDbCircle
 10
-359.2476853567367
 20
122.3648876259932
 30
0.0
 40
5.503054360899999
100
AcDbArc
 50
18.2330160201
 51
90.0153287528
  0
ARC
  5
767
330
1F
100
AcDbEntity
  8
0
  6
Continuous
347
0
 62
     7
100
AcDbCircle
 10
-359.2478308098366
 20
-82.32178096784685
 30
0.0
 40
5.50332716706
100
AcDbArc
 50
269.9861863516
 51
341.7649754131
  0
LINE
  5
768
330
1F
100
AcDbEntity
  8
0
  6
Continuous
347
0
 62
     7
100
AcDbLine
 10
-349.5992573384166
 20
128.5083798068532
 30
0.0
 11
-347.6205595000366
 21
128.5083798068532
 31
0.0
  0
LINE
  5
769
330
1F
100
AcDbEntity
  8
0
  6
Continuous
347
0
 62
     7
100
AcDbLine
 10
-361.2593724890565
 20
127.8675814237331
 30
0.0
 11
-378.7326732015167
 21
127.8675786500531
 31
0.0
  0
LINE
  5
76A
330
1F
100
AcDbEntity
  8
0
  6
Continuous
347
0
 62
     7
100
AcDbLine
 10
-378.8181666728966
 20
127.0011233827131
 30
0.0
 11
-360.1159641535766
 21
127.0011233827131
 31
0.0
  0
LINE
  5
76B
330
1F
100
AcDbEntity
  8
0
  6
Continuous
347
0
 62
     7
100
AcDbLine
 10
-379.1425249878566
 20
123.8359356567131
 30
0.0
 11
-376.0432660835166
 21
123.8359356567131
 31
0.0
  0
LINE
  5
76C
330
1F
100
AcDbEntity
  8
0
  6
Continuous
347
0
 62
     7
100
AcDbLine
 10
-376.0507061067366
 20
123.8184819019331
 30
0.0
 11
-379.1619093128167
 21
123.8184819019331
 31
0.0
  0
LINE
  5
76D
330
1F
100
AcDbEntity
  8
0
  6
Continuous
347
0
 62
     7
100
AcDbLine
 10
-361.0811709048966
 20
123.0360308531731
 30
0.0
 11
-375.2396650033966
 21
123.0360308531731
 31
0.0
  0
LINE
  5
76E
330
1F
100
AcDbEntity
  8
0
  6
Continuous
347
0
 62
     7
100
AcDbLine
 10
-375.2239496119166
 20
123.0185771187131
 30
0.0
 11
-361.0986246215766
 21
123.0185771187131
 31
0.0
  0
LINE
  5
76F
330
1F
100
AcDbEntity
  8
0
  6
Continuous
347
0
 62
     7
100
AcDbLine
 10
-354.6161735707566
 20
102.7991302831132
 30
0.0
 11
-354.5987204992366
 21
102.7949721253131
 31
0.0
  0
LINE
  5
770
330
1F
100
AcDbEntity
  8
0
  6
Continuous
347
0
 62
     7
100
AcDbLine
 10
-357.7988150439165
 20
102.4553876203332
 30
0.0
 11
-353.7460015010965
 21
102.8850143988732
 31
0.0
  0
LINE
  5
771
330
1F
100
AcDbEntity
  8
0
  6
Continuous
347
0
 62
     7
100
AcDbLine
 10
-359.2589564746565
 20
106.3239536957331
 30
0.0
 11
-358.5987198525365
 21
106.3933473593331
 31
0.0
  0
LINE
  5
772
330
1F
100
AcDbEntity
  8
0
  6
Continuous
347
0
 62
     7
100
AcDbLine
 10
-358.5812660952166
 20
106.3776319500732
 30
0.0
 11
-359.2216795362566
 21
106.3103217824331
 31
0.0
  0
LINE
  5
773
330
1F
100
AcDbEntity
  8
0
  6
Continuous
347
0
 62
     7
100
AcDbLine
 10
-357.7813612967566
 20
102.4747719656131
 30
0.0
 11
-354.6161735707566
 21
102.8074466012531
 31
0.0
  0
LINE
  5
774
330
1F
100
AcDbEntity
  8
0
  6
Continuous
347
0
 62
     7
100
AcDbLine
 10
-356.3994162323567
 20
100.6712956690931
 30
0.0
 11
-357.2472182222966
 21
100.5821881129932
 31
0.0
  0
LINE
  5
775
330
1F
100
AcDbEntity
  8
0
  6
Continuous
347
0
 62
     7
100
AcDbLine
 10
-357.7813612967566
 20
104.8097224595332
 30
0.0
 11
-357.7988150312166
 21
104.8027015236132
 31
0.0
  0
LINE
  5
776
330
1F
100
AcDbEntity
  8
0
  6
Continuous
347
0
 62
     7
100
AcDbLine
 10
-357.7813612942167
 20
-64.76686685498686
 30
0.0
 11
-357.7988150312166
 21
-64.75984594192684
 31
0.0
  0
LINE
  5
777
330
1F
100
AcDbEntity
  8
0
  6
Continuous
347
0
 62
     7
100
AcDbLine
 10
-379.1619093305966
 20
123.8184819044731
 30
0.0
 11
-379.1425249903966
 21
123.8359356592531
 31
0.0
  0
LINE
  5
778
330
1F
100
AcDbEntity
  8
0
  6
Continuous
347
0
 62
     7
100
AcDbLine
 10
-379.1425249903966
 20
-83.79308005216686
 30
0.0
 11
-379.1619093280566
 21
-83.77562630754684
 31
0.0
  0
LINE
  5
779
330
1F
100
AcDbEntity
  8
0
  6
Continuous
347
0
 62
     7
100
AcDbLine
 10
-380.9558076630366
 20
125.2029244289531
 30
0.0
 11
-378.7302370290966
 21
127.8646699131731
 31
0.0
  0
LINE
  5
77A
330
1F
100
AcDbEntity
  8
0
  6
Continuous
347
0
 62
     7
100
AcDbLine
 10
-378.8264829910366
 20
127.0098502385131
 30
0.0
 11
-381.0445223674966
 21
124.3588601150531
 31
0.0
  0
LINE
  5
77B
330
1F
100
AcDbEntity
  8
0
  6
Continuous
347
0
 62
     7
100
AcDbLine
 10
-361.2622868545766
 20
127.8646699131731
 30
0.0
 11
-355.1089171496566
 21
134.0180396155531
 31
0.0
  0
LINE
  5
77C
330
1F
100
AcDbEntity
  8
0
  6
Continuous
347
0
 62
     7
100
AcDbLine
 10
-353.1157014281966
 20
135.9982450252131
 30
0.0
 11
-352.6964845069166
 21
136.4174620404731
 31
0.0
  0
LINE
  5
77D
330
1F
100
AcDbEntity
  8
0
  6
Continuous
347
0
 62
     7
100
AcDbLine
 10
-360.1159641535766
 20
127.0011233827131
 30
0.0
 11
-359.2491576448765
 21
127.8679298914131
 31
0.0
  0
LINE
  5
77E
330
1F
100
AcDbEntity
  8
0
  6
Continuous
347
0
 62
     7
100
AcDbLine
 10
-361.0986246215766
 20
123.0185771187131
 30
0.0
 11
-361.0811709048966
 21
123.0360308531731
 31
0.0
  0
LINE
  5
77F
330
1F
100
AcDbEntity
  8
0
  6
Continuous
347
0
 62
     7
100
AcDbLine
 10
-358.5812661002966
 20
120.5361260485732
 30
0.0
 11
-358.5987198347566
 21
120.5186722861731
 31
0.0
  0
LINE
  5
780
330
1F
100
AcDbEntity
  8
0
  6
Continuous
347
0
 62
     7
100
AcDbLine
 10
-355.1089171496566
 20
-93.97518400846687
 30
0.0
 11
-361.2593724890565
 21
-87.82472866906684
 31
0.0
  0
LINE
  5
781
330
1F
100
AcDbEntity
  8
0
  6
Continuous
347
0
 62
     7
100
AcDbLine
 10
-352.6964845069166
 20
-96.37460643338687
 30
0.0
 11
-353.1157019869966
 21
-95.95538889488688
 31
0.0
  0
LINE
  5
782
330
1F
100
AcDbEntity
  8
0
  6
Continuous
347
0
 62
     7
100
AcDbLine
 10
-359.2491575458166
 20
-87.82507438338686
 30
0.0
 11
-360.1159641510366
 21
-86.95826777562687
 31
0.0
  0
LINE
  5
783
330
1F
100
AcDbEntity
  8
0
  6
Continuous
347
0
 62
     7
100
AcDbLine
 10
-361.0811709074367
 20
-82.99317524862687
 30
0.0
 11
-361.0986246215766
 21
-82.97572151162686
 31
0.0
  0
LINE
  5
784
330
1F
100
AcDbEntity
  8
0
  6
Continuous
347
0
 62
     7
100
AcDbLine
 10
-358.5987198347566
 20
-80.47581668924687
 30
0.0
 11
-358.5812661002966
 21
-80.49327044148686
 31
0.0
  0
LINE
  5
785
330
1F
100
AcDbEntity
  8
0
  6
Continuous
347
0
 62
     7
100
AcDbLine
 10
-381.0391358656966
 20
-84.31600451812687
 30
0.0
 11
-378.8255657563967
 21
-86.97572149992686
 31
0.0
  0
LINE
  5
786
330
1F
100
AcDbEntity
  8
0
  6
Continuous
347
0
 62
     7
100
AcDbLine
 10
-378.7363314974767
 20
-87.82472866906684
 30
0.0
 11
-380.9504211561566
 21
-85.16006882186687
 31
0.0
  0
LINE
  5
787
330
1F
100
AcDbEntity
  8
0
  6
Continuous
347
0
 62
     7
100
AcDbLine
 10
-347.1998349134966
 20
130.9208124749931
 30
0.0
 11
-347.6190524545366
 21
130.5015949415732
 31
0.0
  0
LINE
  5
788
330
1F
100
AcDbEntity
  8
0
  6
Continuous
347
0
 62
     7
100
AcDbLine
 10
-349.5992573384166
 20
128.5083797916132
 30
0.0
 11
-354.0209479793966
 21
124.0866891633332
 31
0.0
  0
LINE
  5
789
330
1F
100
AcDbEntity
  8
0
  6
Continuous
347
0
 62
     7
100
AcDbLine
 10
-353.7460015010965
 20
122.3715048416132
 30
0.0
 11
-354.6161735707566
 21
121.5013328049731
 31
0.0
  0
LINE
  5
78A
330
1F
100
AcDbEntity
  8
0
  6
Continuous
347
0
 62
     7
100
AcDbLine
 10
-357.2472182349966
 20
100.5821881129932
 30
0.0
 11
-354.6074467022565
 21
102.7908139649731
 31
0.0
  0
LINE
  5
78B
330
1F
100
AcDbEntity
  8
0
  6
Continuous
347
0
 62
     7
100
AcDbLine
 10
-353.7489100576366
 20
102.8874507313131
 30
0.0
 11
-356.3994162323567
 21
100.6712956665531
 31
0.0
  0
LINE
  5
78C
330
1F
100
AcDbEntity
  8
0
  6
Continuous
347
0
 62
     7
100
AcDbLine
 10
-349.9885000752965
 20
25.42142780743313
 30
0.0
 11
-351.9937026587367
 21
25.42142780743313
 31
0.0
  0
LINE
  5
78D
330
1F
100
AcDbEntity
  8
0
  6
Continuous
347
0
 62
     7
100
AcDbLine
 10
-351.9264007308566
 20
25.33412588399314
 30
0.0
 11
-350.5082793024367
 21
25.33412588399314
 31
0.0
  0
LINE
  5
78E
330
1F
100
AcDbEntity
  8
0
  6
Continuous
347
0
 62
     7
100
AcDbLine
 10
-349.9885000752965
 20
14.62142780219316
 30
0.0
 11
-350.5082793024367
 21
14.70872972817315
 31
0.0
  0
LINE
  5
78F
330
1F
100
AcDbEntity
  8
0
  6
Continuous
347
0
 62
     7
100
AcDbLine
 10
-356.3994162323567
 20
-60.63374985072686
 30
0.0
 11
-353.7459958775365
 21
-62.83850050090685
 31
0.0
  0
LINE
  5
790
330
1F
100
AcDbEntity
  8
0
  6
Continuous
347
0
 62
     7
100
AcDbLine
 10
-354.5987198439166
 20
-62.74887556966686
 30
0.0
 11
-357.2472182349966
 21
-60.54464225398686
 31
0.0
  0
LINE
  5
791
330
1F
100
AcDbEntity
  8
0
  6
Continuous
347
0
 62
     7
100
AcDbLine
 10
-347.6190519287566
 20
-90.45873989836687
 30
0.0
 11
-347.1998349134966
 21
-90.87795686790687
 31
0.0
  0
LINE
  5
792
330
1F
100
AcDbEntity
  8
0
  6
Continuous
347
0
 62
     7
100
AcDbLine
 10
-354.0209479793966
 20
-84.04383355624685
 30
0.0
 11
-349.5992573384166
 21
-88.46552418452686
 31
0.0
  0
LINE
  5
793
330
1F
100
AcDbEntity
  8
0
  6
Continuous
347
0
 62
     7
100
AcDbLine
 10
-354.6161735707566
 20
-81.45847720042684
 30
0.0
 11
-353.7459958749965
 21
-82.32865486316686
 31
0.0
  0
LINE
  5
794
330
1F
100
AcDbEntity
  8
0
  6
Continuous
347
0
 62
     7
100
AcDbLine
 10
-357.7813612967566
 20
102.4747719630731
 30
0.0
 11
-357.7988150464566
 21
102.4553876254132
 31
0.0
  0
LINE
  5
795
330
1F
100
AcDbEntity
  8
0
  6
Continuous
347
0
 62
     7
100
AcDbLine
 10
-350.5082793024367
 20
14.70872972817315
 30
0.0
 11
-351.9264007308566
 21
14.70872972817315
 31
0.0
  0
LINE
  5
796
330
1F
100
AcDbEntity
  8
0
  6
Continuous
347
0
 62
     7
100
AcDbLine
 10
-351.9937026587367
 20
14.62142780219316
 30
0.0
 11
-349.9885000752965
 21
14.62142780219316
 31
0.0
  0
LINE
  5
797
330
1F
100
AcDbEntity
  8
0
  6
Continuous
347
0
 62
     7
100
AcDbLine
 10
-357.7988150439165
 20
-62.41253201832686
 30
0.0
 11
-357.7813612967566
 21
-62.43191635598686
 31
0.0
  0
LINE
  5
798
330
1F
100
AcDbEntity
  8
0
  6
Continuous
347
0
 62
     7
100
AcDbLine
 10
-350.5082793024367
 20
25.33412588399314
 30
0.0
 11
-349.9885000752965
 21
25.42142780743313
 31
0.0
  0
LINE
  5
799
330
1F
100
AcDbEntity
  8
0
  6
Continuous
347
0
 62
     7
100
AcDbLine
 10
-376.0507061067366
 20
123.8184819222531
 30
0.0
 11
-376.0432660835166
 21
123.8359356592531
 31
0.0
  0
LINE
  5
79A
330
1F
100
AcDbEntity
  8
0
  6
Continuous
347
0
 62
     7
100
AcDbLine
 10
-376.0432660835166
 20
-83.79308005216686
 30
0.0
 11
-376.0507061067366
 21
-83.77562631770687
 31
0.0
  0
LINE
  5
79B
330
1F
100
AcDbEntity
  8
0
  6
Continuous
347
0
 62
     7
100
AcDbLine
 10
-380.9504211561566
 20
-85.16006882186687
 30
0.0
 11
-381.0391358656966
 21
-84.31600448256685
 31
0.0
  0
LINE
  5
79C
330
1F
100
AcDbEntity
  8
0
  6
Continuous
347
0
 62
     7
100
AcDbLine
 10
-378.8255657563967
 20
-86.97572149992686
 30
0.0
 11
-379.1619093128167
 21
-83.77562630500685
 31
0.0
  0
LINE
  5
79D
330
1F
100
AcDbEntity
  8
0
  6
Continuous
347
0
 62
     7
100
AcDbLine
 10
-379.1425249878566
 20
-83.79308005216686
 30
0.0
 11
-378.8098503522166
 21
-86.95826777562687
 31
0.0
  0
LINE
  5
79E
330
1F
100
AcDbEntity
  8
0
  6
Continuous
347
0
 62
     7
100
AcDbLine
 10
-375.2239495941366
 20
-82.97572149892684
 30
0.0
 11
-375.2297711496766
 21
-82.92033308290686
 31
0.0
  0
LINE
  5
79F
330
1F
100
AcDbEntity
  8
0
  6
Continuous
347
0
 62
     7
100
AcDbLine
 10
-378.8216369047166
 20
-86.97572151262685
 30
0.0
 11
-378.7363314974767
 21
-87.82472867160686
 31
0.0
  0
LINE
  5
7A0
330
1F
100
AcDbEntity
  8
0
  6
Continuous
347
0
 62
     7
100
AcDbLine
 10
-381.0445223674966
 20
124.3588600896531
 30
0.0
 11
-380.9558076630366
 21
125.2029244289531
 31
0.0
  0
LINE
  5
7A1
330
1F
100
AcDbEntity
  8
0
  6
Continuous
347
0
 62
     7
100
AcDbLine
 10
-379.1619093128167
 20
123.8184819019331
 30
0.0
 11
-378.7326732015167
 21
127.8675786500531
 31
0.0
  0
LINE
  5
7A2
330
1F
100
AcDbEntity
  8
0
  6
Continuous
347
0
 62
     7
100
AcDbLine
 10
-378.8098503522166
 20
127.0011233827131
 30
0.0
 11
-379.1425249878566
 21
123.8359356567131
 31
0.0
  0
LINE
  5
7A3
330
1F
100
AcDbEntity
  8
0
  6
Continuous
347
0
 62
     7
100
AcDbLine
 10
-375.2297711522165
 20
122.9631886798331
 30
0.0
 11
-375.2239495941366
 21
123.0185770958531
 31
0.0
  0
LINE
  5
7A4
330
1F
100
AcDbEntity
  8
0
  6
Continuous
347
0
 62
     7
100
AcDbLine
 10
-351.9937026587367
 20
14.62142776663315
 30
0.0
 11
-351.9264007308566
 21
14.70872972563315
 31
0.0
  0
LINE
  5
7A5
330
1F
100
AcDbEntity
  8
0
  6
Continuous
347
0
 62
     7
100
AcDbLine
 10
-353.7459958749965
 20
-62.83850050090685
 30
0.0
 11
-354.5987198362966
 21
-62.75280442642686
 31
0.0
  0
LINE
  5
7A6
330
1F
100
AcDbEntity
  8
0
  6
Continuous
347
0
 62
     7
100
AcDbLine
 10
-357.2472182222966
 20
-60.54464225398686
 30
0.0
 11
-356.3994162323567
 21
-60.63374985072686
 31
0.0
  0
LINE
  5
7A7
330
1F
100
AcDbEntity
  8
0
  6
Continuous
347
0
 62
     7
100
AcDbLine
 10
-357.7988150439165
 20
-62.41253202086686
 30
0.0
 11
-354.5987198439166
 21
-62.74887556966686
 31
0.0
  0
LINE
  5
7A8
330
1F
100
AcDbEntity
  8
0
  6
Continuous
347
0
 62
     7
100
AcDbLine
 10
-354.6161735707566
 20
-62.76459099416686
 30
0.0
 11
-357.7813612967566
 21
-62.43191635852684
 31
0.0
  0
LINE
  5
7A9
330
1F
100
AcDbEntity
  8
0
  6
Continuous
347
0
 62
     7
100
AcDbLine
 10
-359.2216795362566
 20
-66.26746617534684
 30
0.0
 11
-358.5812660952166
 21
-66.33477634298686
 31
0.0
  0
LINE
  5
7AA
330
1F
100
AcDbEntity
  8
0
  6
Continuous
347
0
 62
     7
100
AcDbLine
 10
-358.5987198525365
 20
-66.35049176240688
 30
0.0
 11
-359.2589564746565
 21
-66.28109809880684
 31
0.0
  0
LINE
  5
7AB
330
1F
100
AcDbEntity
  8
0
  6
Continuous
347
0
 62
     7
100
AcDbLine
 10
-351.9937026587367
 20
25.42142780743313
 30
0.0
 11
-351.9264007308566
 21
25.33412588399314
 31
0.0
  0
LINE
  5
7AC
330
1F
100
AcDbEntity
  8
0
  6
Continuous
347
0
 62
     7
100
AcDbLine
 10
-375.2297711496766
 20
-82.92033308290686
 30
0.0
 11
-375.2414331151766
 21
-82.97635282100686
 31
0.0
  0
LINE
  5
7AD
330
1F
100
AcDbEntity
  8
0
  6
Continuous
347
0
 62
     7
100
AcDbLine
 10
-378.8177080555766
 20
-86.95826777562687
 30
0.0
 11
-378.8216369047166
 21
-86.97572151262685
 31
0.0
  0
LINE
  5
7AE
330
1F
100
AcDbEntity
  8
0
  6
Continuous
347
0
 62
     7
100
AcDbLine
 10
-378.8223248306966
 20
127.0185764542331
 30
0.0
 11
-378.8181666728966
 21
127.0011233827131
 31
0.0
  0
LINE
  5
7AF
330
1F
100
AcDbEntity
  8
0
  6
Continuous
347
0
 62
     7
100
AcDbLine
 10
-375.2414331151766
 20
123.0192084255531
 30
0.0
 11
-375.2297711522165
 21
122.9631886798331
 31
0.0
  0
LINE
  5
7B0
330
1F
100
AcDbEntity
  8
0
  6
Continuous
347
0
 62
     7
100
AcDbLine
 10
-358.5987198347566
 20
-66.35049176240688
 30
0.0
 11
-358.5987198347566
 21
-80.47581668924687
 31
0.0
  0
LINE
  5
7B1
330
1F
100
AcDbEntity
  8
0
  6
Continuous
347
0
 62
     7
100
AcDbLine
 10
-358.5987198347566
 20
120.5186722861731
 30
0.0
 11
-358.5987198347566
 21
106.3933473593331
 31
0.0
  0
LINE
  5
7B2
330
1F
100
AcDbEntity
  8
0
  6
Continuous
347
0
 62
     7
100
AcDbLine
 10
-358.5812661002966
 20
106.3776319500732
 30
0.0
 11
-358.5812661002966
 21
120.5361260485732
 31
0.0
  0
LINE
  5
7B3
330
1F
100
AcDbEntity
  8
0
  6
Continuous
347
0
 62
     7
100
AcDbLine
 10
-358.5812661002966
 20
-80.49327044148686
 30
0.0
 11
-358.5812661002966
 21
-66.33477634298686
 31
0.0
  0
LINE
  5
7B4
330
1F
100
AcDbEntity
  8
0
  6
Continuous
347
0
 62
     7
100
AcDbLine
 10
-357.7988150439165
 20
102.4553876203332
 30
0.0
 11
-357.7988150439165
 21
104.8027015236132
 31
0.0
  0
LINE
  5
7B5
330
1F
100
AcDbEntity
  8
0
  6
Continuous
347
0
 62
     7
100
AcDbLine
 10
-357.7988150439165
 20
-64.75984592668686
 30
0.0
 11
-357.7988150439165
 21
-62.41253202086686
 31
0.0
  0
LINE
  5
7B6
330
1F
100
AcDbEntity
  8
0
  6
Continuous
347
0
 62
     7
100
AcDbLine
 10
-357.7813612967566
 20
-62.43191635852684
 30
0.0
 11
-357.7813612967566
 21
-64.76686685244684
 31
0.0
  0
LINE
  5
7B7
330
1F
100
AcDbEntity
  8
0
  6
Continuous
347
0
 62
     7
100
AcDbLine
 10
-357.7813612967566
 20
104.8097224595332
 30
0.0
 11
-357.7813612967566
 21
102.4747719656131
 31
0.0
  0
LINE
  5
7B8
330
1F
100
AcDbEntity
  8
0
  6
Continuous
347
0
 62
     7
100
AcDbLine
 10
-357.2472182222966
 20
100.5821881129932
 30
0.0
 11
-357.2472182222966
 21
-60.54464225398686
 31
0.0
  0
LINE
  5
7B9
330
1F
100
AcDbEntity
  8
0
  6
Continuous
347
0
 62
     7
100
AcDbLine
 10
-356.3994162323567
 20
-60.63374985072686
 30
0.0
 11
-356.3994162323567
 21
100.6712956690931
 31
0.0
  0
LINE
  5
7BA
330
1F
100
AcDbEntity
  8
0
  6
Continuous
347
0
 62
     7
100
AcDbLine
 10
-355.1089171471166
 20
-93.97518400846687
 30
0.0
 11
-355.1089171471166
 21
-95.95388184684685
 31
0.0
  0
LINE
  5
7BB
330
1F
100
AcDbEntity
  8
0
  6
Continuous
347
0
 62
     7
100
AcDbLine
 10
-355.1089171471166
 20
135.9967374539332
 30
0.0
 11
-355.1089171471166
 21
134.0180396155531
 31
0.0
  0
LINE
  5
7BC
330
1F
100
AcDbEntity
  8
0
  6
Continuous
347
0
 62
     7
100
AcDbLine
 10
-354.6161735707566
 20
-62.75673328064686
 30
0.0
 11
-354.6161735707566
 21
-81.45847720042684
 31
0.0
  0
LINE
  5
7BD
330
1F
100
AcDbEntity
  8
0
  6
Continuous
347
0
 62
     7
100
AcDbLine
 10
-354.6161735707566
 20
121.5013328049731
 30
0.0
 11
-354.6161735707566
 21
102.7991302831132
 31
0.0
  0
LINE
  5
7BE
330
1F
100
AcDbEntity
  8
0
  6
Continuous
347
0
 62
     7
100
AcDbLine
 10
-353.7460015010965
 20
102.8850143988732
 30
0.0
 11
-353.7460015010965
 21
122.3715048416132
 31
0.0
  0
LINE
  5
7BF
330
1F
100
AcDbEntity
  8
0
  6
Continuous
347
0
 62
     7
100
AcDbLine
 10
-353.7459958749965
 20
-82.32865486316686
 30
0.0
 11
-353.7459958749965
 21
-62.83850050090685
 31
0.0
  0
LINE
  5
7C0
330
1F
100
AcDbEntity
  8
0
  6
Continuous
347
0
 62
     7
100
AcDbLine
 10
-351.9937026587367
 20
25.42142784299314
 30
0.0
 11
-351.9937026587367
 21
14.62142776663315
 31
0.0
  0
LINE
  5
7C1
330
1F
100
AcDbEntity
  8
0
  6
Continuous
347
0
 62
     7
100
AcDbLine
 10
-351.9264007308566
 20
14.70872972563315
 30
0.0
 11
-351.9264007308566
 21
25.33412588653314
 31
0.0
  0
LINE
  5
7C2
330
1F
100
AcDbEntity
  8
0
  6
Continuous
347
0
 62
     7
100
AcDbLine
 10
-350.5082793024367
 20
25.33412588653314
 30
0.0
 11
-350.5082793024367
 21
14.70872972563315
 31
0.0
  0
LINE
  5
7C3
330
1F
100
AcDbEntity
  8
0
  6
Continuous
347
0
 62
     7
100
AcDbLine
 10
-349.9885000752965
 20
25.42142784299314
 30
0.0
 11
-349.9885000752965
 21
14.62142776663315
 31
0.0
  0
LINE
  5
7C4
330
1F
100
AcDbEntity
  8
0
  6
Continuous
347
0
 62
     7
100
AcDbLine
 10
-349.5992573384166
 20
128.5083797916132
 30
0.0
 11
-349.5992573384166
 21
-88.46552418452686
 31
0.0
  0
LINE
  5
7C5
330
1F
100
AcDbEntity
  8
0
  6
Continuous
347
0
 62
     7
100
AcDbLine
 10
-347.6205594466966
 20
-88.46552422262687
 30
0.0
 11
-347.6205597083166
 21
128.5083798271731
 31
0.0
  0
LINE
  5
7C6
330
1F
100
AcDbEntity
  8
0
  6
Continuous
347
0
 62
     7
100
AcDbLine
 10
-347.1998349134966
 20
-90.87795686790687
 30
0.0
 11
-347.1998349134966
 21
130.9208124749931
 31
0.0
  0
LINE
  5
7C7
330
1F
100
AcDbEntity
  8
0
  6
Continuous
347
0
 62
     7
100
AcDbLine
 10
-354.5987198362966
 20
-62.75280442642686
 30
0.0
 11
-354.6161735707566
 21
-62.75673328064686
 31
0.0
  0
LINE
  5
7C8
330
1F
100
AcDbEntity
  8
0
  6
Continuous
347
0
 62
     7
100
AcDbLine
 10
-361.0986246215766
 20
-82.97572151162686
 30
0.0
 11
-375.2239496119166
 21
-82.97572151162686
 31
0.0
  0
LINE
  5
7C9
330
1F
100
AcDbEntity
  8
0
  6
Continuous
347
0
 62
     7
100
AcDbLine
 10
-375.2396650033966
 20
-82.99317524862687
 30
0.0
 11
-361.0811709074367
 21
-82.99317524862687
 31
0.0
  0
LINE
  5
7CA
330
1F
100
AcDbEntity
  8
0
  6
Continuous
347
0
 62
     7
100
AcDbLine
 10
-379.1619093128167
 20
-83.77562630500685
 30
0.0
 11
-376.0507061067366
 21
-83.77562630500685
 31
0.0
  0
LINE
  5
7CB
330
1F
100
AcDbEntity
  8
0
  6
Continuous
347
0
 62
     7
100
AcDbLine
 10
-376.0432660835166
 20
-83.79308005216686
 30
0.0
 11
-379.1425249878566
 21
-83.79308005216686
 31
0.0
  0
LINE
  5
7CC
330
1F
100
AcDbEntity
  8
0
  6
Continuous
347
0
 62
     7
100
AcDbLine
 10
-360.1159641510366
 20
-86.95826777562687
 30
0.0
 11
-378.8177080555766
 21
-86.95826777562687
 31
0.0
  0
LINE
  5
7CD
330
1F
100
AcDbEntity
  8
0
  6
Continuous
347
0
 62
     7
100
AcDbLine
 10
-378.7363314974767
 20
-87.82472867160686
 30
0.0
 11
-361.2593724890565
 21
-87.82472868176686
 31
0.0
  0
LINE
  5
7CE
330
1F
100
AcDbEntity
  8
0
  6
Continuous
347
0
 62
     7
100
AcDbLine
 10
-347.6205595000366
 20
-88.46552419976686
 30
0.0
 11
-349.5992573384166
 21
-88.46552419976686
 31
0.0
  0
LINE
  5
7CF
330
1F
100
AcDbEntity
  8
0
  6
Continuous
347
0
 62
     7
100
AcDbLine
 10
-375.2239496119166
 20
-82.97572151162686
 30
0.0
 11
-375.2396650033966
 21
-82.99317524862687
 31
0.0
  0
LINE
  5
7D0
330
1F
100
AcDbEntity
  8
0
  6
Continuous
347
0
 62
     7
100
AcDbLine
 10
-359.2216795362566
 20
-66.26746617788686
 30
0.0
 11
-359.2589564746565
 21
-66.28109808864687
 31
0.0
  0
LINE
  5
7D1
330
1F
100
AcDbEntity
  8
0
  6
Continuous
347
0
 62
     7
100
AcDbLine
 10
-359.2589564746565
 20
106.3239536957331
 30
0.0
 11
-359.2216795362566
 21
106.3103217824331
 31
0.0
  0
LINE
  5
7D2
330
1F
100
AcDbEntity
  8
0
  6
Continuous
347
0
 62
     7
100
AcDbLine
 10
-375.2396650033966
 20
123.0360308531731
 30
0.0
 11
-375.2239496119166
 21
123.0185771187131
 31
0.0
  0
LINE
  5
7D3
330
1F
100
AcDbEntity
  8
0
  6
Continuous
347
0
 62
     7
100
AcDbLine
 10
-359.2589564746565
 20
-66.28109809880684
 30
0.0
 11
-357.7988150439165
 21
-64.75984592668686
 31
0.0
  0
LINE
  5
7D4
330
1F
100
AcDbEntity
  8
0
  6
Continuous
347
0
 62
     7
100
AcDbLine
 10
-376.0507061067366
 20
-83.77562630500685
 30
0.0
 11
-375.2268603909566
 21
-82.91730048038687
 31
0.0
  0
LINE
  5
7D5
330
1F
100
AcDbEntity
  8
0
  6
Continuous
347
0
 62
     7
100
AcDbLine
 10
-357.7813612967566
 20
-64.76686685244684
 30
0.0
 11
-359.2216795362566
 21
-66.26746617534684
 31
0.0
  0
LINE
  5
7D6
330
1F
100
AcDbEntity
  8
0
  6
Continuous
347
0
 62
     7
100
AcDbLine
 10
-375.2679589955766
 20
-82.98945356188685
 30
0.0
 11
-376.0432660835166
 21
-83.79308005216686
 31
0.0
  0
LINE
  5
7D7
330
1F
100
AcDbEntity
  8
0
  6
Continuous
347
0
 62
     7
100
AcDbLine
 10
-358.5812661002966
 20
-66.33477634298686
 30
0.0
 11
-358.5987198347566
 21
-66.35049176240688
 31
0.0
  0
LINE
  5
7D8
330
1F
100
AcDbEntity
  8
0
  6
Continuous
347
0
 62
     7
100
AcDbLine
 10
-358.5987198347566
 20
106.3933473593331
 30
0.0
 11
-358.5812661002966
 21
106.3776319500732
 31
0.0
  0
LINE
  5
7D9
330
1F
100
AcDbEntity
  8
0
  6
Continuous
347
0
 62
     7
100
AcDbLine
 10
-376.0432660835166
 20
123.8359356567131
 30
0.0
 11
-375.2679589955766
 21
123.0323091689731
 31
0.0
  0
LINE
  5
7DA
330
1F
100
AcDbEntity
  8
0
  6
Continuous
347
0
 62
     7
100
AcDbLine
 10
-375.2268603909566
 20
122.9601560798531
 30
0.0
 11
-376.0507061067366
 21
123.8184819019331
 31
0.0
  0
LINE
  5
7DB
330
1F
100
AcDbEntity
  8
0
  6
Continuous
347
0
 62
     7
100
AcDbLine
 10
-357.7988150439165
 20
104.8027015236132
 30
0.0
 11
-359.2589564746565
 21
106.3239536957331
 31
0.0
  0
LINE
  5
7DC
330
1F
100
AcDbEntity
  8
0
  6
Continuous
347
0
 62
     7
100
AcDbLine
 10
-359.2216795362566
 20
106.3103217824331
 30
0.0
 11
-357.7813612967566
 21
104.8097224595332
 31
0.0
  0
ELLIPSE
  5
7DD
330
1F
100
AcDbEntity
  8
0
  6
Continuous
347
0
 62
     7
100
AcDbEllipse
 10
-66.60948532823664
 20
-79.84977560198686
 30
0.0
 11
-3.944339617019999
 21
-3.84240553844
 31
0.0
210
0.0
220
0.0
230
-1.0
 40
0.9988137613999999
 41
-0.3873734662
 42
-0.0150604807
  0
ELLIPSE
  5
7DE
330
1F
100
AcDbEntity
  8
0
  6
Continuous
347
0
 62
     7
100
AcDbEllipse
 10
-68.99914984277669
 20
124.8207013173532
 30
0.0
 11
-30.90893517718001
 21
-0.9016032082200001
 31
0.0
210
0.0
220
0.0
230
-0.9999999999999999
 40
0.0255899161
 41
1.6349300279
 42
1.6942122635
  0
ELLIPSE
  5
7DF
330
1F
100
AcDbEntity
  8
0
  6
Continuous
347
0
 62
     7
100
AcDbEllipse
 10
-66.63181277405667
 20
119.9143816430931
 30
0.0
 11
-15.77681840312
 21
8.064505336539998
 31
0.0
210
0.0
220
0.0
230
-1.0
 40
0.1001297519
 41
1.2486227081
 42
1.2725705019
  0
ELLIPSE
  5
7E0
330
1F
100
AcDbEntity
  8
0
  6
Continuous
347
0
 62
     7
100
AcDbEllipse
 10
-66.60948532823664
 20
119.8926312090732
 30
0.0
 11
-3.944339617019999
 21
3.84240553844
 31
0.0
210
0.0
220
0.0
230
-1.0
 40
0.9988137613999999
 41
0.0150604807
 42
0.3873734662
  0
ELLIPSE
  5
7E1
330
1F
100
AcDbEntity
  8
0
  6
Continuous
347
0
 62
     7
100
AcDbEllipse
 10
-62.72863446917665
 20
116.1120736800331
 30
0.0
 11
-7.612516537699999
 21
14.7308115213
 31
0.0
210
0.0
220
0.0
230
-0.9999999999999999
 40
0.106266793
 41
-0.8745769507
 42
-0.8462227939
  0
ELLIPSE
  5
7E2
330
1F
100
AcDbEntity
  8
0
  6
Continuous
347
0
 62
     7
100
AcDbEllipse
 10
-62.72863446917665
 20
-76.06921807040686
 30
0.0
 11
7.612516537699999
 21
14.7308115213
 31
0.0
210
0.0
220
0.0
230
-0.9999999999999999
 40
0.106266793
 41
-2.2953698598
 42
-2.2670157029
  0
ELLIPSE
  5
7E3
330
1F
100
AcDbEntity
  8
0
  6
Continuous
347
0
 62
     7
100
AcDbEllipse
 10
-66.63181277659666
 20
-79.87152603854683
 30
0.0
 11
-15.77681840312
 21
-8.064505336539998
 31
0.0
210
0.0
220
0.0
230
-1.0
 40
0.1001297519
 41
-1.272570502
 42
-1.2486227082
  0
ELLIPSE
  5
7E4
330
1F
100
AcDbEntity
  8
0
  6
Continuous
347
0
 62
     7
100
AcDbEllipse
 10
-68.99914984277669
 20
-84.77784571026683
 30
0.0
 11
-30.90893517718001
 21
0.9016032082200001
 31
0.0
210
0.0
220
0.0
230
-0.9999999999999999
 40
0.0255899161
 41
-1.6942122643
 42
-1.6349300279
  0
SPLINE
  5
7E5
330
1F
100
AcDbEntity
  8
0
  6
Continuous
347
0
 62
     7
100
AcDbSpline
210
0.0
220
0.0
230
1.0
 70
     8
 71
     3
 72
    22
 73
    18
 74
     0
 42
0.0000000001
 43
0.0000000001
 40
0.0
 40
0.0
 40
0.0
 40
0.0
 40
0.1957141106
 40
0.3833553181
 40
0.5562952636999999
 40
0.7074005069
 40
0.7733406861
 40
0.8319849628
 40
0.8821779811
 40
0.9239796824
 40
0.957153131
 40
0.9702048283
 40
0.9808694545000001
 40
0.9891909913
 40
0.9951611112000001
 40
0.9987612459
 40
1.0
 40
1.0
 40
1.0
 40
1.0
 10
-74.68004358383666
 20
186.2233449913732
 30
0.0
 10
-75.03864469289667
 20
186.2205765005931
 30
0.0
 10
-75.74107756793666
 20
186.2180290355332
 30
0.0
 10
-76.76039103095667
 20
186.2189381548732
 30
0.0
 10
-77.69796464729666
 20
186.2211470861931
 30
0.0
 10
-78.41254254757663
 20
186.2221429592331
 30
0.0
 10
-78.91769862895666
 20
186.2218297518332
 30
0.0
 10
-79.23793991379668
 20
186.2211801696931
 30
0.0
 10
-79.51397954459665
 20
186.2202181777131
 30
0.0
 10
-79.74326491025664
 20
186.2192922486532
 30
0.0
 10
-79.90470104153664
 20
186.2185968042731
 30
0.0
 10
-80.00872119163668
 20
186.2186078786731
 30
0.0
 10
-80.06788711851667
 20
186.2185670278532
 30
0.0
 10
-80.11241637159662
 20
186.2195617832932
 30
0.0
 10
-80.14791665365667
 20
186.2190513271132
 30
0.0
 10
-80.16288300929668
 20
186.2222878865531
 30
0.0
 10
-80.17677234397664
 20
186.2210765732531
 30
0.0
 10
-80.17669312899662
 20
186.2233449913732
 30
0.0
  0
SPLINE
  5
7E6
330
1F
100
AcDbEntity
  8
0
  6
Continuous
347
0
 62
     7
100
AcDbSpline
210
0.0
220
0.0
230
1.0
 70
     8
 71
     3
 72
    17
 73
    13
 74
     0
 42
0.0000000001
 43
0.0000000001
 40
0.0
 40
0.0
 40
0.0
 40
0.0
 40
0.0094535621
 40
0.027585244
 40
0.054564319
 40
0.0904448893
 40
0.1860423308
 40
0.3117967754
 40
0.4615810251
 40
0.6307594852
 40
0.8123599066
 40
1.0
 40
1.0
 40
1.0
 40
1.0
 10
-78.09608904281666
 20
188.5986643961731
 30
0.0
 10
-78.08768275279667
 20
188.5924749927531
 30
0.0
 10
-78.05601503101664
 20
188.5875711823931
 30
0.0
 10
-77.99723199897667
 20
188.5809080435731
 30
0.0
 10
-77.90728463251665
 20
188.5772192422131
 30
0.0
 10
-77.73267722709664
 20
188.5728202517732
 30
0.0
 10
-77.44839701841664
 20
188.5712635924532
 30
0.0
 10
-77.03867463999669
 20
188.5706684933131
 30
0.0
 10
-76.54755968623667
 20
188.5713803384731
 30
0.0
 10
-75.99482937691667
 20
188.5740788522531
 30
0.0
 10
-75.40031462995665
 20
188.5813125995332
 30
0.0
 10
-74.99268558999665
 20
188.5914498436731
 30
0.0
 10
-74.78560990559663
 20
188.5986637433931
 30
0.0
  0
SPLINE
  5
7E7
330
1F
100
AcDbEntity
  8
0
  6
Continuous
347
0
 62
     7
100
AcDbSpline
210
0.0
220
0.0
230
1.0
 70
     8
 71
     3
 72
    11
 73
     7
 74
     0
 42
0.0000000001
 43
0.0000000001
 40
0.0
 40
0.0
 40
0.0
 40
0.0
 40
0.1510276949
 40
0.3837532915
 40
0.6760560146
 40
1.0
 40
1.0
 40
1.0
 40
1.0
 10
-73.77479739839663
 20
189.5644837523131
 30
0.0
 10
-73.51665248923666
 20
189.6193541454932
 30
0.0
 10
-72.84962509329668
 20
189.7018099749931
 30
0.0
 10
-71.67146110469668
 20
189.7852116369932
 30
0.0
 10
-70.18855715407665
 20
189.8387186445332
 30
0.0
 10
-69.11222497095665
 20
189.8701262982531
 30
0.0
 10
-68.54658785229668
 20
189.8923384077531
 30
0.0
  0
SPLINE
  5
7E8
330
1F
100
AcDbEntity
  8
0
  6
Continuous
347
0
 62
     7
100
AcDbSpline
210
0.0
220
0.0
230
1.0
 70
     8
 71
     3
 72
     9
 73
     5
 74
     0
 42
0.0000000001
 43
0.0000000001
 40
0.0
 40
0.0
 40
0.0
 40
0.0
 40
0.722998005
 40
1.0
 40
1.0
 40
1.0
 40
1.0
 10
-78.19648881407664
 20
188.6246242299532
 30
0.0
 10
-78.17162026081667
 20
188.6299102087131
 30
0.0
 10
-78.13349569647664
 20
188.6234239580331
 30
0.0
 10
-78.10391469137664
 20
188.6044671836531
 30
0.0
 10
-78.09609132119667
 20
188.5986640050131
 30
0.0
  0
LINE
  5
7E9
330
1F
100
AcDbEntity
  8
0
  6
Continuous
347
0
 62
     7
100
AcDbLine
 10
-74.78560626323667
 20
188.5986633344532
 30
0.0
 11
-74.68004403341664
 21
186.2233525072331
 31
0.0
  0
LINE
  5
7EA
330
1F
100
AcDbEntity
  8
0
  6
Continuous
347
0
 62
     7
100
AcDbLine
 10
-74.68004343397664
 20
-148.1821430263869
 30
0.0
 11
-74.78560620735666
 21
-150.5574650931068
 31
0.0
  0
SPLINE
  5
7EB
330
1F
100
AcDbEntity
  8
0
  6
Continuous
347
0
 62
     7
100
AcDbSpline
210
0.0
220
0.0
230
1.0
 70
     8
 71
     3
 72
     9
 73
     5
 74
     0
 42
0.0000000001
 43
0.0000000001
 40
0.0
 40
0.0
 40
0.0
 40
0.0
 40
0.3697498062
 40
1.0
 40
1.0
 40
1.0
 40
1.0
 10
-79.99047477397664
 20
-148.1773851618868
 30
0.0
 10
-79.33596413735665
 20
-148.1773758426268
 30
0.0
 10
-77.56583327071667
 20
-148.1848968512068
 30
0.0
 10
-75.79564433713668
 20
-148.1735336506669
 30
0.0
 10
-74.68004358129667
 20
-148.1821463690268
 30
0.0
  0
SPLINE
  5
7EC
330
1F
100
AcDbEntity
  8
0
  6
Continuous
347
0
 62
     7
100
AcDbSpline
210
0.0
220
0.0
230
1.0
 70
     8
 71
     3
 72
    11
 73
     7
 74
     0
 42
0.0000000001
 43
0.0000000001
 40
0.0
 40
0.0
 40
0.0
 40
0.0
 40
0.0632094401
 40
0.250551861
 40
0.563209017
 40
1.0
 40
1.0
 40
1.0
 40
1.0
 10
-80.17669312899662
 20
-148.1821463690268
 30
0.0
 10
-80.17683025343666
 20
-148.1782196230068
 30
0.0
 10
-80.15197310477669
 20
-148.1822985988468
 30
0.0
 10
-80.12594892517669
 20
-148.1760162492068
 30
0.0
 10
-80.06249293321667
 20
-148.1784662468469
 30
0.0
 10
-80.01762599729665
 20
-148.1773855505068
 30
0.0
 10
-79.99047477397664
 20
-148.1773851618868
 30
0.0
  0
SPLINE
  5
7ED
330
1F
100
AcDbEntity
  8
0
  6
Continuous
347
0
 62
     7
100
AcDbSpline
210
0.0
220
0.0
230
1.0
 70
     8
 71
     3
 72
    11
 73
     7
 74
     0
 42
0.0000000001
 43
0.0000000001
 40
0.0
 40
0.0
 40
0.0
 40
0.0
 40
0.3237366084
 40
0.616045506
 40
0.8488198785
 40
1.0
 40
1.0
 40
1.0
 40
1.0
 10
-68.54658785991668
 20
-151.8511397879469
 30
0.0
 10
-69.11186319367667
 20
-151.8289420929468
 30
0.0
 10
-70.18784168941664
 20
-151.7974472638869
 30
0.0
 10
-71.67048285163668
 20
-151.7440740533868
 30
0.0
 10
-72.84901913057664
 20
-151.6607502855668
 30
0.0
 10
-73.5163918166567
 20
-151.5782109332469
 30
0.0
 10
-73.77479740347664
 20
-151.5232851299668
 30
0.0
  0
SPLINE
  5
7EE
330
1F
100
AcDbEntity
  8
0
  6
Continuous
347
0
 62
     7
100
AcDbSpline
210
0.0
220
0.0
230
1.0
 70
     8
 71
     3
 72
     9
 73
     5
 74
     0
 42
0.0000000001
 43
0.0000000001
 40
0.0
 40
0.0
 40
0.0
 40
0.0
 40
0.2770350715
 40
1.0
 40
1.0
 40
1.0
 40
1.0
 10
-78.09608759755668
 20
-150.5574652175669
 30
0.0
 10
-78.10391187959664
 20
-150.5632690972469
 30
0.0
 10
-78.13349590729666
 20
-150.5822206138268
 30
0.0
 10
-78.17161820849665
 20
-150.5887120359469
 30
0.0
 10
-78.19648559081665
 20
-150.5834262959469
 30
0.0
  0
SPLINE
  5
7EF
330
1F
100
AcDbEntity
  8
0
  6
Continuous
347
0
 62
     7
100
AcDbSpline
210
0.0
220
0.0
230
1.0
 70
     8
 71
     3
 72
    17
 73
    13
 74
     0
 42
0.0000000001
 43
0.0000000001
 40
0.0
 40
0.0
 40
0.0
 40
0.0
 40
0.1866157186
 40
0.3684410553
 40
0.5370413994
 40
0.6876999090000001
 40
0.8130014960999999
 40
0.9091920554999999
 40
0.9448719265000001
 40
0.9721635011
 40
0.9905179143999999
 40
1.0
 40
1.0
 40
1.0
 40
1.0
 10
-74.78559119595667
 20
-150.5574657738268
 30
0.0
 10
-74.99153747697665
 20
-150.5502910967869
 30
0.0
 10
-75.39828532235668
 20
-150.5401539720268
 30
0.0
 10
-75.99128185289663
 20
-150.5329101765068
 30
0.0
 10
-76.54459036781668
 20
-150.5301892243668
 30
0.0
 10
-77.03553484185667
 20
-150.5294693985268
 30
0.0
 10
-77.44638005013667
 20
-150.5300611143869
 30
0.0
 10
-77.73059504685668
 20
-150.5315942482268
 30
0.0
 10
-77.90598267931668
 20
-150.5359789206868
 30
0.0
 10
-77.99630642551665
 20
-150.5396399192068
 30
0.0
 10
-78.05569818125664
 20
-150.5463200506268
 30
0.0
 10
-78.08765603961663
 20
-150.5512575769469
 30
0.0
 10
-78.09608815635667
 20
-150.5574651235868
 30
0.0
  0
SPLINE
  5
7F0
330
1F
100
AcDbEntity
  8
0
  6
Continuous
347
0
 62
     7
100
AcDbSpline
210
0.0
220
0.0
230
1.0
 70
     8
 71
     3
 72
    10
 73
     6
 74
     0
 42
0.0000000001
 43
0.0000000001
 40
0.0
 40
0.0
 40
0.0
 40
0.0
 40
0.1459263037
 40
0.3688466504
 40
1.0
 40
1.0
 40
1.0
 40
1.0
 10
-64.6497452192767
 20
110.5156449516531
 30
0.0
 10
-64.60056994551664
 20
110.5354145234932
 30
0.0
 10
-64.46828218113669
 20
110.5630906479731
 30
0.0
 10
-64.10846642375665
 20
110.6073223273531
 30
0.0
 10
-63.79977838987665
 20
110.6422109215331
 30
0.0
 10
-63.57321537081665
 20
110.6771077783332
 30
0.0
  0
SPLINE
  5
7F1
330
1F
100
AcDbEntity
  8
0
  6
Continuous
347
0
 62
     7
100
AcDbSpline
210
0.0
220
0.0
230
1.0
 70
     8
 71
     3
 72
    10
 73
     6
 74
     0
 42
0.0000000001
 43
0.0000000001
 40
0.0
 40
0.0
 40
0.0
 40
0.0
 40
0.1505618895
 40
0.3759250312
 40
1.0
 40
1.0
 40
1.0
 40
1.0
 10
-56.43202512439666
 20
118.2482058923931
 30
0.0
 10
-56.45015744271669
 20
118.1906158297732
 30
0.0
 10
-56.51828978549665
 20
118.0548388267532
 30
0.0
 10
-56.72979553723667
 20
117.7146219786131
 30
0.0
 10
-56.92913974357666
 20
117.4376999010131
 30
0.0
 10
-57.07658201409666
 20
117.2354831705732
 30
0.0
  0
SPLINE
  5
7F2
330
1F
100
AcDbEntity
  8
0
  6
Continuous
347
0
 62
     7
100
AcDbSpline
210
0.0
220
0.0
230
1.0
 70
     8
 71
     3
 72
    10
 73
     6
 74
     0
 42
0.0000000001
 43
0.0000000001
 40
0.0
 40
0.0
 40
0.0
 40
0.0
 40
0.6271371925
 40
0.8498307662000001
 40
1.0
 40
1.0
 40
1.0
 40
1.0
 10
-63.57950707527664
 20
-70.62039974530684
 30
0.0
 10
-63.80303602115669
 20
-70.58715537948684
 30
0.0
 10
-64.10793354445664
 20
-70.55496451930684
 30
0.0
 10
-64.46557036791663
 20
-70.51472546338685
 30
0.0
 10
-64.59849660193663
 20
-70.49016866210685
 30
0.0
 10
-64.64974144991663
 20
-70.47278475478684
 30
0.0
  0
SPLINE
  5
7F3
330
1F
100
AcDbEntity
  8
0
  6
Continuous
347
0
 62
     7
100
AcDbSpline
210
0.0
220
0.0
230
1.0
 70
     8
 71
     3
 72
    10
 73
     6
 74
     0
 42
0.0000000001
 43
0.0000000001
 40
0.0
 40
0.0
 40
0.0
 40
0.0
 40
0.1484436797
 40
0.3712691378
 40
1.0
 40
1.0
 40
1.0
 40
1.0
 10
-56.94124513973668
 20
-78.36055635030685
 30
0.0
 10
-56.95867253947665
 20
-78.30501831558685
 30
0.0
 10
-56.98075335637665
 20
-78.16015692128684
 30
0.0
 10
-57.01443436597665
 20
-77.77009151142686
 30
0.0
 10
-57.04330128055662
 20
-77.43691058774684
 30
0.0
 10
-57.07658201409666
 20
-77.19262756602686
 30
0.0
  0
SPLINE
  5
7F4
330
1F
100
AcDbEntity
  8
0
  6
Continuous
347
0
 62
     7
100
AcDbSpline
210
0.0
220
0.0
230
1.0
 70
     8
 71
     3
 72
    10
 73
     6
 74
     0
 42
0.0000000001
 43
0.0000000001
 40
0.0
 40
0.0
 40
0.0
 40
0.0
 40
0.6287311093
 40
0.8515833406000001
 40
1.0
 40
1.0
 40
1.0
 40
1.0
 10
-57.07658201409666
 20
117.2354831705732
 30
0.0
 10
-57.04330191047663
 20
117.4797668679332
 30
0.0
 10
-57.01441714477667
 20
117.8129582538731
 30
0.0
 10
-56.98076873861666
 20
118.2030257541531
 30
0.0
 10
-56.95868248611666
 20
118.3478890407531
 30
0.0
 10
-56.94124534801665
 20
118.4034130318132
 30
0.0
  0
SPLINE
  5
7F5
330
1F
100
AcDbEntity
  8
0
  6
Continuous
347
0
 62
     7
100
AcDbSpline
210
0.0
220
0.0
230
1.0
 70
     8
 71
     3
 72
    10
 73
     6
 74
     0
 42
0.0000000001
 43
0.0000000001
 40
0.0
 40
0.0
 40
0.0
 40
0.0
 40
0.6281635125
 40
0.8536957807
 40
1.0
 40
1.0
 40
1.0
 40
1.0
 10
-63.57224461075666
 20
110.6770963915131
 30
0.0
 10
-63.7559606466767
 20
110.5278039392732
 30
0.0
 10
-64.00665713791668
 20
110.3254691750332
 30
0.0
 10
-64.31219837341666
 20
110.1055997062131
 30
0.0
 10
-64.43224080541663
 20
110.0315898313732
 30
0.0
 10
-64.48297898435663
 20
110.0100125948732
 30
0.0
  0
SPLINE
  5
7F6
330
1F
100
AcDbEntity
  8
0
  6
Continuous
347
0
 62
     7
100
AcDbSpline
210
0.0
220
0.0
230
1.0
 70
     8
 71
     3
 72
    10
 73
     6
 74
     0
 42
0.0000000001
 43
0.0000000001
 40
0.0
 40
0.0
 40
0.0
 40
0.0
 40
0.6240769808
 40
0.8494098199
 40
1.0
 40
1.0
 40
1.0
 40
1.0
 10
-57.07658201409666
 20
-77.19262756602686
 30
0.0
 10
-56.92914012711665
 20
-77.39484496448685
 30
0.0
 10
-56.72979488699667
 20
-77.67175123566686
 30
0.0
 10
-56.51830676285667
 20
-78.01198029866686
 30
0.0
 10
-56.45017418639665
 20
-78.14775291002684
 30
0.0
 10
-56.43202573653667
 20
-78.20534966300686
 30
0.0
  0
SPLINE
  5
7F7
330
1F
100
AcDbEntity
  8
0
  6
Continuous
347
0
 62
     7
100
AcDbSpline
210
0.0
220
0.0
230
1.0
 70
     8
 71
     3
 72
    10
 73
     6
 74
     0
 42
0.0000000001
 43
0.0000000001
 40
0.0
 40
0.0
 40
0.0
 40
0.0
 40
0.150592564
 40
0.3759263901
 40
1.0
 40
1.0
 40
1.0
 40
1.0
 10
-64.48287090227669
 20
-69.96726758954685
 30
0.0
 10
-64.42570562163667
 20
-69.98673548812685
 30
0.0
 10
-64.29153358619669
 20
-70.05797120036685
 30
0.0
 10
-63.95625557755665
 20
-70.27722396226686
 30
0.0
 10
-63.68400576645666
 20
-70.48288149100684
 30
0.0
 10
-63.48523243781668
 20
-70.63493242896685
 30
0.0
  0
SPLINE
  5
7F8
330
1F
100
AcDbEntity
  8
0
  6
Continuous
347
0
 62
     7
100
AcDbSpline
210
0.0
220
0.0
230
1.0
 70
     8
 71
     3
 72
     8
 73
     4
 74
     0
 42
0.0000000001
 43
0.0000000001
 40
0.0
 40
0.0
 40
0.0
 40
0.0
 40
1.0
 40
1.0
 40
1.0
 40
1.0
 10
-67.04122857193664
 20
125.6678158004132
 30
0.0
 10
-67.68975020351667
 20
125.6499653001731
 30
0.0
 10
-68.34502340655666
 20
125.5133804907932
 30
0.0
 10
-68.9464742102567
 20
125.2701606724331
 30
0.0
  0
SPLINE
  5
7F9
330
1F
100
AcDbEntity
  8
0
  6
Continuous
347
0
 62
     7
100
AcDbSpline
210
0.0
220
0.0
230
1.0
 70
     8
 71
     3
 72
     8
 73
     4
 74
     0
 42
0.0000000001
 43
0.0000000001
 40
0.0
 40
0.0
 40
0.0
 40
0.0
 40
1.0
 40
1.0
 40
1.0
 40
1.0
 10
-68.9464742102567
 20
-85.22730506788686
 30
0.0
 10
-68.34502340655666
 20
-85.47052488370684
 30
0.0
 10
-67.68975020605666
 20
-85.60710969308685
 30
0.0
 10
-67.04122857193664
 20
-85.62496019332684
 30
0.0
  0
ARC
  5
7FA
330
1F
100
AcDbEntity
  8
0
  6
Continuous
347
0
 62
     7
100
AcDbCircle
 10
-77.68005712913669
 20
186.1352495338331
 30
0.0
 40
2.49824207742
100
AcDbArc
 50
99.58588636579998
 51
177.9791188387
  0
ARC
  5
7FB
330
1F
100
AcDbEntity
  8
0
  6
Continuous
347
0
 62
     7
100
AcDbCircle
 10
-77.67670891129663
 20
186.1792553716531
 30
0.0
 40
2.50000000126
100
AcDbArc
 50
102.0000000274
 51
177.9999999937
  0
ARC
  5
7FC
330
1F
100
AcDbEntity
  8
0
  6
Continuous
347
0
 62
     7
100
AcDbCircle
 10
-72.68176077065664
 20
139.9958168598731
 30
0.0
 40
46.2706859827
100
AcDbArc
 50
90.00627504100001
 51
92.4751917117
  0
ARC
  5
7FD
330
1F
100
AcDbEntity
  8
0
  6
Continuous
347
0
 62
     7
100
AcDbCircle
 10
-73.16199494353663
 20
142.1894602424532
 30
0.0
 40
46.43759580382
100
AcDbArc
 50
89.41371506390001
 51
92.00366202200001
  0
ARC
  5
7FE
330
1F
100
AcDbEntity
  8
0
  6
Continuous
347
0
 62
     7
100
AcDbCircle
 10
-66.52415424413667
 20
138.6970035367531
 30
0.0
 40
51.23526885767999
100
AcDbArc
 50
90.01366407479999
 51
92.26225069390001
  0
ARC
  5
7FF
330
1F
100
AcDbEntity
  8
0
  6
Continuous
347
0
 62
     7
100
AcDbCircle
 10
-77.68005712405665
 20
-148.0940509064068
 30
0.0
 40
2.4982420825
100
AcDbArc
 50
182.020881285
 51
260.4141136563
  0
ARC
  5
800
330
1F
100
AcDbEntity
  8
0
  6
Continuous
347
0
 62
     7
100
AcDbCircle
 10
-77.67670891129663
 20
-148.1380567518468
 30
0.0
 40
2.50000000126
100
AcDbArc
 50
182.0000000063
 51
257.9999999726
  0
ARC
  5
801
330
1F
100
AcDbEntity
  8
0
  6
Continuous
347
0
 62
     7
100
AcDbCircle
 10
-72.68193202761665
 20
-101.9546451031069
 30
0.0
 40
46.27066666854
100
AcDbArc
 50
267.5250202093
 51
269.9939370207
  0
ARC
  5
802
330
1F
100
AcDbEntity
  8
0
  6
Continuous
347
0
 62
     7
100
AcDbCircle
 10
-73.16200332807665
 20
-104.1485196002868
 30
0.0
 40
46.43733720642
100
AcDbArc
 50
267.9963601181
 51
270.5862945608
  0
ARC
  5
803
330
1F
100
AcDbEntity
  8
0
  6
Continuous
347
0
 62
     7
100
AcDbCircle
 10
-66.53221891939666
 20
-100.6551522029868
 30
0.0
 40
51.23559222762
100
AcDbArc
 50
267.7467890591
 51
269.9953545836
  0
ARC
  5
804
330
1F
100
AcDbEntity
  8
0
  6
Continuous
347
0
 62
     7
100
AcDbCircle
 10
-56.64653327297663
 20
118.4573891748131
 30
0.0
 40
0.2996185701799999
100
AcDbArc
 50
190.3707131079001
 51
315.7231722466
  0
ARC
  5
805
330
1F
100
AcDbEntity
  8
0
  6
Continuous
347
0
 62
     7
100
AcDbCircle
 10
-74.95629125079665
 20
130.7778427253731
 30
0.0
 40
2.4981216103
100
AcDbArc
 50
89.99089447520002
 51
180.0091055819001
  0
ARC
  5
806
330
1F
100
AcDbEntity
  8
0
  6
Continuous
347
0
 62
     7
100
AcDbCircle
 10
-75.09597055487663
 20
130.9175220548532
 30
0.0
 40
2.49813114292
100
AcDbArc
 50
89.98852698040002
 51
180.0114736036001
  0
ARC
  5
807
330
1F
100
AcDbEntity
  8
0
  6
Continuous
347
0
 62
     7
100
AcDbCircle
 10
-66.22897643215666
 20
119.5219558544132
 30
0.0
 40
3.39737109704
100
AcDbArc
 50
91.49999991709998
 51
179.9999999494
  0
ARC
  5
808
330
1F
100
AcDbEntity
  8
0
  6
Continuous
347
0
 62
     7
100
AcDbCircle
 10
-66.59797432763665
 20
119.8814176424731
 30
0.0
 40
3.49741907068
100
AcDbArc
 50
91.4905461925
 51
180.0094509743001
  0
ARC
  5
809
330
1F
100
AcDbEntity
  8
0
  6
Continuous
347
0
 62
     7
100
AcDbCircle
 10
-66.23371195481667
 20
119.5265681311931
 30
0.0
 40
3.497423185479999
100
AcDbArc
 50
91.47546753910001
 51
180.0245037854
  0
CIRCLE
  5
80A
330
1F
100
AcDbEntity
  8
0
  6
Continuous
347
0
 62
     7
100
AcDbCircle
 10
-73.44987632865667
 20
129.5214278036131
 30
0.0
 40
3.50000000024
  0
CIRCLE
  5
80B
330
1F
100
AcDbEntity
  8
0
  6
Continuous
347
0
 62
     7
100
AcDbCircle
 10
-63.57950166253664
 20
117.1802588715731
 30
0.0
 40
3.50000000024
  0
ARC
  5
80C
330
1F
100
AcDbEntity
  8
0
  6
Continuous
347
0
 62
     7
100
AcDbCircle
 10
-75.10048868147666
 20
130.9220401560531
 30
0.0
 40
5.49540816842
100
AcDbArc
 50
89.98643738060001
 51
180.0135615956
  0
ARC
  5
80D
330
1F
100
AcDbEntity
  8
0
  6
Continuous
347
0
 62
     7
100
AcDbCircle
 10
-66.56486172177665
 20
119.8491608362731
 30
0.0
 40
5.495595145439999
100
AcDbArc
 50
91.48460762309998
 51
180.0153914209
  0
ARC
  5
80E
330
1F
100
AcDbEntity
  8
0
  6
Continuous
347
0
 62
     7
100
AcDbCircle
 10
-66.86758355981667
 20
120.1800671162931
 30
0.0
 40
5.50317739342
100
AcDbArc
 50
136.5274688851
 51
151.1819799105
  0
ARC
  5
80F
330
1F
100
AcDbEntity
  8
0
  6
Continuous
347
0
 62
     7
100
AcDbCircle
 10
-66.81708284547662
 20
120.1550018959132
 30
0.0
 40
5.55953958702
100
AcDbArc
 50
151.2064318277
 51
179.9724139712
  0
ARC
  5
810
330
1F
100
AcDbEntity
  8
0
  6
Continuous
347
0
 62
     7
100
AcDbCircle
 10
-73.44987632865667
 20
129.5214278036131
 30
0.0
 40
5.84999999924
100
AcDbArc
 50
315.382482113
 51
39.92607682030001
  0
ARC
  5
811
330
1F
100
AcDbEntity
  8
0
  6
Continuous
347
0
 62
     7
100
AcDbCircle
 10
-73.44987632865667
 20
129.5214278036131
 30
0.0
 40
5.84999999924
100
AcDbArc
 50
226.801048572
 51
295.4150066374
  0
ARC
  5
812
330
1F
100
AcDbEntity
  8
0
  6
Continuous
347
0
 62
     7
100
AcDbCircle
 10
-73.42194304441665
 20
129.4919357137531
 30
0.0
 40
5.948119302619999
100
AcDbArc
 50
316.7256549544
 51
346.7748915838
  0
ARC
  5
813
330
1F
100
AcDbEntity
  8
0
  6
Continuous
347
0
 62
     7
100
AcDbCircle
 10
-73.42333330579666
 20
129.4966829788331
 30
0.0
 40
5.952788086779999
100
AcDbArc
 50
279.1552022071
 51
294.3559523227
  0
ARC
  5
814
330
1F
100
AcDbEntity
  8
0
  6
Continuous
347
0
 62
     7
100
AcDbCircle
 10
-73.44995050427667
 20
129.4992517087731
 30
0.0
 40
5.97705774868
100
AcDbArc
 50
346.7680426150001
 51
36.4240068016
  0
ARC
  5
815
330
1F
100
AcDbEntity
  8
0
  6
Continuous
347
0
 62
     7
100
AcDbCircle
 10
-73.42794623027663
 20
129.5208088081531
 30
0.0
 40
5.97729130168
100
AcDbArc
 50
230.541682836
 51
279.15073284
  0
ARC
  5
816
330
1F
100
AcDbEntity
  8
0
  6
Continuous
347
0
 62
     7
100
AcDbCircle
 10
-63.57950166253664
 20
117.1802588715731
 30
0.0
 40
6.50315413362
100
AcDbArc
 50
201.5912370219
 51
270.0620553637
  0
ARC
  5
817
330
1F
100
AcDbEntity
  8
0
  6
Continuous
347
0
 62
     7
100
AcDbCircle
 10
-63.57950166253664
 20
117.1802588715731
 30
0.0
 40
6.50315413362
100
AcDbArc
 50
0.4865573543000018
 51
64.75863546499998
  0
ARC
  5
818
330
1F
100
AcDbEntity
  8
0
  6
Continuous
347
0
 62
     7
100
AcDbCircle
 10
-63.57950166253664
 20
117.1802588715731
 30
0.0
 40
6.750000000099999
100
AcDbArc
 50
210.7664859752
 51
260.8772747408
  0
ARC
  5
819
330
1F
100
AcDbEntity
  8
0
  6
Continuous
347
0
 62
     7
100
AcDbCircle
 10
-63.57950166253664
 20
117.1802588715731
 30
0.0
 40
6.750000000099999
100
AcDbArc
 50
10.44047676
 51
56.9688883985
  0
ARC
  5
81A
330
1F
100
AcDbEntity
  8
0
  6
Continuous
347
0
 62
     7
100
AcDbCircle
 10
-69.97198841017666
 20
129.8627313729731
 30
0.0
 40
8.78636184304
100
AcDbArc
 50
211.6145649790001
 51
214.3436279523
  0
ARC
  5
81B
330
1F
100
AcDbEntity
  8
0
  6
Continuous
347
0
 62
     7
100
AcDbCircle
 10
-73.88264963633665
 20
125.9554485144531
 30
0.0
 40
8.81966161896
100
AcDbArc
 50
53.53247219309999
 51
56.1008656417
  0
ARC
  5
81C
330
1F
100
AcDbEntity
  8
0
  6
Continuous
347
0
 62
     7
100
AcDbCircle
 10
-56.34827499979667
 20
117.3210853844331
 30
0.0
 40
13.51768173776
100
AcDbArc
 50
190.8039329171
 51
195.4176778578
  0
ARC
  5
81D
330
1F
100
AcDbEntity
  8
0
  6
Continuous
347
0
 62
     7
100
AcDbCircle
 10
-69.34274541161662
 20
142.3084822878731
 30
0.0
 40
16.8960192178
100
AcDbArc
 50
270.1931746239
 51
270.8523492971
  0
ARC
  5
81E
330
1F
100
AcDbEntity
  8
0
  6
Continuous
347
0
 62
     7
100
AcDbCircle
 10
-91.28550647139664
 20
127.7497299093731
 30
0.0
 40
20.6471920939
100
AcDbArc
 50
349.7445631114
 51
350.2061729494
  0
ARC
  5
81F
330
1F
100
AcDbEntity
  8
0
  6
Continuous
347
0
 62
     7
100
AcDbCircle
 10
-64.69709283349664
 20
110.2197121373732
 30
0.0
 40
0.29969353574
100
AcDbArc
 50
315.5873188284
 51
80.90361796920001
  0
ARC
  5
820
330
1F
100
AcDbEntity
  8
0
  6
Continuous
347
0
 62
     7
100
AcDbCircle
 10
-55.14005440633665
 20
100.1563945729131
 30
0.0
 40
0.36385049404
100
AcDbArc
 50
130.442662028
 51
225.6585708721
  0
ARC
  5
821
330
1F
100
AcDbEntity
  8
0
  6
Continuous
347
0
 62
     7
100
AcDbCircle
 10
-54.42122683459664
 20
99.45390466725311
 30
0.0
 40
0.36385049404
100
AcDbArc
 50
225.6585714565
 51
309.2791983463
  0
ARC
  5
822
330
1F
100
AcDbEntity
  8
0
  6
Continuous
347
0
 62
     7
100
AcDbCircle
 10
-55.14005440633665
 20
100.1563945729131
 30
0.0
 40
0.50000000076
100
AcDbArc
 50
130.4426582501
 51
225.6585812287
  0
ARC
  5
823
330
1F
100
AcDbEntity
  8
0
  6
Continuous
347
0
 62
     7
100
AcDbCircle
 10
-54.42122683459664
 20
99.45390466725311
 30
0.0
 40
0.50000000076
100
AcDbArc
 50
225.6585618686
 51
309.2791925196
  0
CIRCLE
  5
824
330
1F
100
AcDbEntity
  8
0
  6
Continuous
347
0
 62
     7
100
AcDbCircle
 10
-45.04987632917667
 20
99.42142780307316
 30
0.0
 40
3.450000001179999
  0
ARC
  5
825
330
1F
100
AcDbEntity
  8
0
  6
Continuous
347
0
 62
     7
100
AcDbCircle
 10
-51.57227722643665
 20
95.97058927677313
 30
0.0
 40
4.000000001
100
AcDbArc
 50
103.9633831863
 51
129.2792016291
  0
ARC
  5
826
330
1F
100
AcDbEntity
  8
0
  6
Continuous
347
0
 62
     7
100
AcDbCircle
 10
-51.57227722643665
 20
95.97058927677313
 30
0.0
 40
4.13614950518
100
AcDbArc
 50
103.3587653076
 51
129.2792008166
  0
ARC
  5
827
330
1F
100
AcDbEntity
  8
0
  6
Continuous
347
0
 62
     7
100
AcDbCircle
 10
-51.57227722643665
 20
95.97058927677313
 30
0.0
 40
5.863850492239999
100
AcDbArc
 50
95.76313039940001
 51
130.4426622451
  0
ARC
  5
828
330
1F
100
AcDbEntity
  8
0
  6
Continuous
347
0
 62
     7
100
AcDbCircle
 10
-51.57227722643665
 20
95.97058927677313
 30
0.0
 40
5.999999998959999
100
AcDbArc
 50
95.16207611189999
 51
130.4426619253
  0
CIRCLE
  5
829
330
1F
100
AcDbEntity
  8
0
  6
Continuous
347
0
 62
     7
100
AcDbCircle
 10
-45.04987632917667
 20
99.42142780307316
 30
0.0
 40
7.500000001239999
  0
ARC
  5
82A
330
1F
100
AcDbEntity
  8
0
  6
Continuous
347
0
 62
     7
100
AcDbCircle
 10
-63.64896798537663
 20
109.5696031023132
 30
0.0
 40
13.78906541394
100
AcDbArc
 50
74.2260374675
 51
78.10164997040002
  0
ARC
  5
82B
330
1F
100
AcDbEntity
  8
0
  6
Continuous
347
0
 62
     7
100
AcDbCircle
 10
-41.74987632771668
 20
106.0214278034531
 30
0.0
 40
5.86385049478
100
AcDbArc
 50
311.3158863991
 51
175.55401125
  0
ARC
  5
82C
330
1F
100
AcDbEntity
  8
0
  6
Continuous
347
0
 62
     7
100
AcDbCircle
 10
-41.74987632771668
 20
106.0214278034531
 30
0.0
 40
5.999999998959999
100
AcDbArc
 50
310.7148320621
 51
176.155065521
  0
ARC
  5
82D
330
1F
100
AcDbEntity
  8
0
  6
Continuous
347
0
 62
     7
100
AcDbCircle
 10
-74.95630780143665
 20
-90.73500366892685
 30
0.0
 40
2.49810472946
100
AcDbArc
 50
179.9888597697
 51
270.0111404703
  0
ARC
  5
82E
330
1F
100
AcDbEntity
  8
0
  6
Continuous
347
0
 62
     7
100
AcDbCircle
 10
-75.09597055487663
 20
-90.87466644522686
 30
0.0
 40
2.498131148
100
AcDbArc
 50
179.9885210234
 51
270.0114781004
  0
ARC
  5
82F
330
1F
100
AcDbEntity
  8
0
  6
Continuous
347
0
 62
     7
100
AcDbCircle
 10
-66.59797433779664
 20
-79.83856204300687
 30
0.0
 40
3.49741906052
100
AcDbArc
 50
179.9905469803
 51
268.5094531733
  0
CIRCLE
  5
830
330
1F
100
AcDbEntity
  8
0
  6
Continuous
347
0
 62
     7
100
AcDbCircle
 10
-73.44987632865667
 20
-89.47857219652684
 30
0.0
 40
3.50000000024
  0
ARC
  5
831
330
1F
100
AcDbEntity
  8
0
  6
Continuous
347
0
 62
     7
100
AcDbCircle
 10
-75.10060574245665
 20
-90.87930160994685
 30
0.0
 40
5.495265082599999
100
AcDbArc
 50
179.9832206416
 51
270.0167803629
  0
ARC
  5
832
330
1F
100
AcDbEntity
  8
0
  6
Continuous
347
0
 62
     7
100
AcDbCircle
 10
-66.56498484573669
 20
-79.80642517306686
 30
0.0
 40
5.49545971264
100
AcDbArc
 50
179.9844164207
 51
268.5155835629
  0
ARC
  5
833
330
1F
100
AcDbEntity
  8
0
  6
Continuous
347
0
 62
     7
100
AcDbCircle
 10
-66.86758621157665
 20
-80.13720778556686
 30
0.0
 40
5.503176768579999
100
AcDbArc
 50
208.8180686632
 51
223.4725825947
  0
ARC
  5
834
330
1F
100
AcDbEntity
  8
0
  6
Continuous
347
0
 62
     7
100
AcDbCircle
 10
-66.82094272091663
 20
-80.11279175362685
 30
0.0
 40
5.55567906642
100
AcDbArc
 50
180.0009615879
 51
208.806406777
  0
ARC
  5
835
330
1F
100
AcDbEntity
  8
0
  6
Continuous
347
0
 62
     7
100
AcDbCircle
 10
-73.44987632865667
 20
-89.47857219652684
 30
0.0
 40
5.84999999924
100
AcDbArc
 50
64.58499335940002
 51
133.1989514264
  0
ARC
  5
836
330
1F
100
AcDbEntity
  8
0
  6
Continuous
347
0
 62
     7
100
AcDbCircle
 10
-73.44987632865667
 20
-89.47857219652684
 30
0.0
 40
5.84999999924
100
AcDbArc
 50
320.073923172
 51
44.6175178831
  0
ARC
  5
837
330
1F
100
AcDbEntity
  8
0
  6
Continuous
347
0
 62
     7
100
AcDbCircle
 10
-73.42192128169665
 20
-89.44906843536685
 30
0.0
 40
5.948095446939999
100
AcDbArc
 50
13.2250469259
 51
43.27440687399999
  0
ARC
  5
838
330
1F
100
AcDbEntity
  8
0
  6
Continuous
347
0
 62
     7
100
AcDbCircle
 10
-73.42333483995665
 20
-89.45383330010688
 30
0.0
 40
5.95279418278
100
AcDbArc
 50
65.64405751700001
 51
80.84479230660001
  0
ARC
  5
839
330
1F
100
AcDbEntity
  8
0
  6
Continuous
347
0
 62
     7
100
AcDbCircle
 10
-73.42804757373668
 20
-89.47767677032684
 30
0.0
 40
5.97701346886
100
AcDbArc
 50
90.2093165135
 51
129.4592511217
  0
ARC
  5
83A
330
1F
100
AcDbEntity
  8
0
  6
Continuous
347
0
 62
     7
100
AcDbCircle
 10
-73.45148976713665
 20
-89.45608025014687
 30
0.0
 40
5.978483885019999
100
AcDbArc
 50
323.5823164706
 51
13.22563413629999
  0
ARC
  5
83B
330
1F
100
AcDbEntity
  8
0
  6
Continuous
347
0
 62
     7
100
AcDbCircle
 10
-73.42847677531668
 20
-89.48866175470687
 30
0.0
 40
5.98799683018
100
AcDbArc
 50
80.84924457090001
 51
90.20482576459997
  0
ARC
  5
83C
330
1F
100
AcDbEntity
  8
0
  6
Continuous
347
0
 62
     7
100
AcDbCircle
 10
-73.85521010777666
 20
-85.95156193534686
 30
0.0
 40
8.7719904824
100
AcDbArc
 50
303.8921187115
 51
306.4744745809
  0
ARC
  5
83D
330
1F
100
AcDbEntity
  8
0
  6
Continuous
347
0
 62
     7
100
AcDbCircle
 10
-69.93522282457661
 20
-89.84368815666687
 30
0.0
 40
8.8301818824
100
AcDbArc
 50
145.663098024
 51
148.3786118494
  0
ARC
  5
83E
330
1F
100
AcDbEntity
  8
0
  6
Continuous
347
0
 62
     7
100
AcDbCircle
 10
-69.34274540907663
 20
-102.2656268712869
 30
0.0
 40
16.89601940576
100
AcDbArc
 50
89.1476507154
 51
89.80682538139999
  0
ARC
  5
83F
330
1F
100
AcDbEntity
  8
0
  6
Continuous
347
0
 62
     7
100
AcDbCircle
 10
-91.28550618183667
 20
-87.70687421338687
 30
0.0
 40
20.64719179418
100
AcDbArc
 50
9.793826944899996
 51
10.2554367903
  0
ARC
  5
840
330
1F
100
AcDbEntity
  8
0
  6
Continuous
347
0
 62
     7
100
AcDbCircle
 10
-56.64653413403667
 20
-78.41453028096686
 30
0.0
 40
0.29961565934
100
AcDbArc
 50
44.2751921997
 51
169.6277709523
  0
ARC
  5
841
330
1F
100
AcDbEntity
  8
0
  6
Continuous
347
0
 62
     7
100
AcDbCircle
 10
-64.69693026841665
 20
-70.17690985758685
 30
0.0
 40
0.29961857526
100
AcDbArc
 50
279.0535918297
 51
44.40599795450002
  0
ARC
  5
842
330
1F
100
AcDbEntity
  8
0
  6
Continuous
347
0
 62
     7
100
AcDbCircle
 10
-55.14005440633665
 20
-60.11353896582686
 30
0.0
 40
0.36385049404
100
AcDbArc
 50
134.3414291298
 51
229.5573380207001
  0
ARC
  5
843
330
1F
100
AcDbEntity
  8
0
  6
Continuous
347
0
 62
     7
100
AcDbCircle
 10
-54.42122683459664
 20
-59.41104906270684
 30
0.0
 40
0.36385049404
100
AcDbArc
 50
50.72080169140001
 51
134.3414285395
  0
ARC
  5
844
330
1F
100
AcDbEntity
  8
0
  6
Continuous
347
0
 62
     7
100
AcDbCircle
 10
-55.14005440633665
 20
-60.11353896582686
 30
0.0
 40
0.50000000076
100
AcDbArc
 50
134.3414407982
 51
229.5573354954
  0
ARC
  5
845
330
1F
100
AcDbEntity
  8
0
  6
Continuous
347
0
 62
     7
100
AcDbCircle
 10
-54.42122683459664
 20
-59.41104906270684
 30
0.0
 40
0.50000000076
100
AcDbArc
 50
50.7207989583
 51
134.3414209921
  0
CIRCLE
  5
846
330
1F
100
AcDbEntity
  8
0
  6
Continuous
347
0
 62
     7
100
AcDbCircle
 10
-45.04987632917667
 20
-59.37857219598686
 30
0.0
 40
3.450000001179999
  0
CIRCLE
  5
847
330
1F
100
AcDbEntity
  8
0
  6
Continuous
347
0
 62
     7
100
AcDbCircle
 10
-63.57950166253664
 20
-77.13740326702685
 30
0.0
 40
3.50000000024
  0
ARC
  5
848
330
1F
100
AcDbEntity
  8
0
  6
Continuous
347
0
 62
     7
100
AcDbCircle
 10
-51.57227722643665
 20
-55.92773366968686
 30
0.0
 40
4.000000001
100
AcDbArc
 50
230.7207994362
 51
256.036617004
  0
ARC
  5
849
330
1F
100
AcDbEntity
  8
0
  6
Continuous
347
0
 62
     7
100
AcDbCircle
 10
-51.57227722643665
 20
-55.92773366968686
 30
0.0
 40
4.13614950518
100
AcDbArc
 50
230.7207991801
 51
256.6412346931
  0
ARC
  5
84A
330
1F
100
AcDbEntity
  8
0
  6
Continuous
347
0
 62
     7
100
AcDbCircle
 10
-51.57227722643665
 20
-55.92773366968686
 30
0.0
 40
5.863850492239999
100
AcDbArc
 50
229.5573377579
 51
264.2368695998
  0
ARC
  5
84B
330
1F
100
AcDbEntity
  8
0
  6
Continuous
347
0
 62
     7
100
AcDbCircle
 10
-41.74987632771668
 20
-65.97857219636685
 30
0.0
 40
5.86385049478
100
AcDbArc
 50
184.4459887486001
 51
48.68411360049998
  0
ARC
  5
84C
330
1F
100
AcDbEntity
  8
0
  6
Continuous
347
0
 62
     7
100
AcDbCircle
 10
-51.57227722643665
 20
-55.92773366968686
 30
0.0
 40
5.999999998959999
100
AcDbArc
 50
229.5573375535
 51
264.8379239286
  0
ARC
  5
84D
330
1F
100
AcDbEntity
  8
0
  6
Continuous
347
0
 62
     7
100
AcDbCircle
 10
-41.74987632771668
 20
-65.97857219636685
 30
0.0
 40
5.999999998959999
100
AcDbArc
 50
183.8449344937001
 51
49.2851677523
  0
ARC
  5
84E
330
1F
100
AcDbEntity
  8
0
  6
Continuous
347
0
 62
     7
100
AcDbCircle
 10
-63.57950166253664
 20
-77.13740326702685
 30
0.0
 40
6.50315413362
100
AcDbArc
 50
295.2413645086
 51
359.5134426435
  0
ARC
  5
84F
330
1F
100
AcDbEntity
  8
0
  6
Continuous
347
0
 62
     7
100
AcDbCircle
 10
-63.57950166253664
 20
-77.13740326702685
 30
0.0
 40
6.50315413362
100
AcDbArc
 50
89.16941568580002
 51
158.4087629768
  0
ARC
  5
850
330
1F
100
AcDbEntity
  8
0
  6
Continuous
347
0
 62
     7
100
AcDbCircle
 10
-63.57950166253664
 20
-77.13740326702685
 30
0.0
 40
6.750000000099999
100
AcDbArc
 50
99.12333368530001
 51
149.2335140198
  0
ARC
  5
851
330
1F
100
AcDbEntity
  8
0
  6
Continuous
347
0
 62
     7
100
AcDbCircle
 10
-63.57950166253664
 20
-77.13740326702685
 30
0.0
 40
6.750000000099999
100
AcDbArc
 50
303.0311116169
 51
349.5596166776
  0
CIRCLE
  5
852
330
1F
100
AcDbEntity
  8
0
  6
Continuous
347
0
 62
     7
100
AcDbCircle
 10
-45.04987632917667
 20
-59.37857219598686
 30
0.0
 40
7.500000001239999
  0
ARC
  5
853
330
1F
100
AcDbEntity
  8
0
  6
Continuous
347
0
 62
     7
100
AcDbCircle
 10
-63.61687276889666
 20
-69.65707982536688
 30
0.0
 40
13.65491693446
100
AcDbArc
 50
281.8793271773
 51
285.7930243169
  0
ARC
  5
854
330
1F
100
AcDbEntity
  8
0
  6
Continuous
347
0
 62
     7
100
AcDbCircle
 10
-56.21011232971665
 20
-77.31040870714685
 30
0.0
 40
13.65942848246
100
AcDbArc
 50
164.6062737813
 51
169.1721154399
  0
ARC
  5
855
330
1F
100
AcDbEntity
  8
0
  6
Continuous
347
0
 62
     7
100
AcDbCircle
 10
-66.22897643215666
 20
-79.47910024732684
 30
0.0
 40
3.39737109704
100
AcDbArc
 50
180.0
 51
268.5000001482
  0
ARC
  5
856
330
1F
100
AcDbEntity
  8
0
  6
Continuous
347
0
 62
     7
100
AcDbCircle
 10
-66.23371105057663
 20
-79.48371350708683
 30
0.0
 40
3.49742317024
100
AcDbArc
 50
179.9754654525
 51
268.5245021742
  0
ARC
  5
857
330
1F
100
AcDbEntity
  8
0
  6
Continuous
347
0
 62
     7
100
AcDbCircle
 10
-64.88465875757663
 20
-79.39971221712685
 30
0.0
 40
8.875796233639997
100
AcDbArc
 50
80.92845334740001
 51
81.54420998040003
  0
LINE
  5
858
330
1F
100
AcDbEntity
  8
0
  6
Continuous
347
0
 62
     7
100
AcDbLine
 10
-80.17669312899662
 20
186.2233449888331
 30
0.0
 11
-80.59591055319666
 21
174.2185286708531
 31
0.0
  0
LINE
  5
859
330
1F
100
AcDbEntity
  8
0
  6
Continuous
347
0
 62
     7
100
AcDbLine
 10
-72.68682833227663
 20
186.2665041151132
 30
0.0
 11
-72.68682833227663
 21
188.6246243747331
 31
0.0
  0
LINE
  5
85A
330
1F
100
AcDbEntity
  8
0
  6
Continuous
347
0
 62
     7
100
AcDbLine
 10
-73.17957190863666
 20
289.2185283351131
 30
0.0
 11
-74.04974960185663
 21
189.5060408592932
 31
0.0
  0
LINE
  5
85B
330
1F
100
AcDbEntity
  8
0
  6
Continuous
347
0
 62
     7
100
AcDbLine
 10
-67.67978132581663
 20
289.2185283300332
 30
0.0
 11
-68.54658783451663
 21
189.8923406023131
 31
0.0
  0
LINE
  5
85C
330
1F
100
AcDbEntity
  8
0
  6
Continuous
347
0
 62
     7
100
AcDbLine
 10
-74.68004405119663
 20
186.2233329644731
 30
0.0
 11
-75.09926097247663
 21
174.2185283330331
 31
0.0
  0
LINE
  5
85D
330
1F
100
AcDbEntity
  8
0
  6
Continuous
347
0
 62
     7
100
AcDbLine
 10
-48.63383614879668
 20
287.2185283320731
 30
0.0
 11
-48.65322048899664
 21
289.2185283351131
 31
0.0
  0
LINE
  5
85E
330
1F
100
AcDbEntity
  8
0
  6
Continuous
347
0
 62
     7
100
AcDbLine
 10
-49.06307227787664
 20
189.9325888835131
 30
0.0
 11
-48.97757880649667
 21
289.2185283300332
 31
0.0
  0
LINE
  5
85F
330
1F
100
AcDbEntity
  8
0
  6
Continuous
347
0
 62
     7
100
AcDbLine
 10
-46.75122311189666
 20
287.2185283346132
 30
0.0
 11
-46.83993781635664
 21
190.4983349529331
 31
0.0
  0
LINE
  5
860
330
1F
100
AcDbEntity
  8
0
  6
Continuous
347
0
 62
     7
100
AcDbLine
 10
-48.65322049153664
 20
289.2185283351131
 30
0.0
 11
-73.17957190863666
 21
289.2185283351131
 31
0.0
  0
LINE
  5
861
330
1F
100
AcDbEntity
  8
0
  6
Continuous
347
0
 62
     7
100
AcDbLine
 10
-46.83993781635664
 20
190.4983349478531
 30
0.0
 11
-49.06550845029665
 21
189.9325634809731
 31
0.0
  0
LINE
  5
862
330
1F
100
AcDbEntity
  8
0
  6
Continuous
347
0
 62
     7
100
AcDbLine
 10
-78.19648813843668
 20
188.6246243747331
 30
0.0
 11
-73.77479749745663
 21
189.5644837319932
 31
0.0
  0
LINE
  5
863
330
1F
100
AcDbEntity
  8
0
  6
Continuous
347
0
 62
     7
100
AcDbLine
 10
-66.53345862481663
 20
189.9325634809731
 30
0.0
 11
-72.68682832973664
 21
188.6246243747331
 31
0.0
  0
LINE
  5
864
330
1F
100
AcDbEntity
  8
0
  6
Continuous
347
0
 62
     7
100
AcDbLine
 10
-66.53637299033664
 20
189.9322709364731
 30
0.0
 11
-49.06307227787664
 21
189.9325888835131
 31
0.0
  0
LINE
  5
865
330
1F
100
AcDbEntity
  8
0
  6
Continuous
347
0
 62
     7
100
AcDbLine
 10
-80.17669355063666
 20
-148.1821343192669
 30
0.0
 11
-80.59591056335665
 21
-136.1773297132268
 31
0.0
  0
LINE
  5
866
330
1F
100
AcDbEntity
  8
0
  6
Continuous
347
0
 62
     7
100
AcDbLine
 10
-75.09926097247663
 20
-136.1773297132268
 30
0.0
 11
-74.68004349239663
 21
-148.1821493027269
 31
0.0
  0
LINE
  5
867
330
1F
100
AcDbEntity
  8
0
  6
Continuous
347
0
 62
     7
100
AcDbLine
 10
-73.17957190863666
 20
-251.1773297153068
 30
0.0
 11
-74.04974960439665
 21
-151.4648422394868
 31
0.0
  0
LINE
  5
868
330
1F
100
AcDbEntity
  8
0
  6
Continuous
347
0
 62
     7
100
AcDbLine
 10
-68.54658793357663
 20
-151.8511308369868
 30
0.0
 11
-67.67978132835665
 21
-251.1773297102268
 31
0.0
  0
LINE
  5
869
330
1F
100
AcDbEntity
  8
0
  6
Continuous
347
0
 62
     7
100
AcDbLine
 10
-72.68682833227663
 20
-150.5834257523868
 30
0.0
 11
-72.68682833227663
 21
-148.2253054927669
 31
0.0
  0
LINE
  5
86A
330
1F
100
AcDbEntity
  8
0
  6
Continuous
347
0
 62
     7
100
AcDbLine
 10
-48.97803742381666
 20
-251.1773297102268
 30
0.0
 11
-49.05941398191665
 21
-151.8907454110469
 31
0.0
  0
LINE
  5
86B
330
1F
100
AcDbEntity
  8
0
  6
Continuous
347
0
 62
     7
100
AcDbLine
 10
-46.84532432069665
 20
-152.4571363280469
 30
0.0
 11
-46.75660961369667
 21
-249.1773297148068
 31
0.0
  0
LINE
  5
86C
330
1F
100
AcDbEntity
  8
0
  6
Continuous
347
0
 62
     7
100
AcDbLine
 10
-48.65322048899664
 20
-251.1773297153068
 30
0.0
 11
-48.63383615133662
 21
-249.1773297097268
 31
0.0
  0
LINE
  5
86D
330
1F
100
AcDbEntity
  8
0
  6
Continuous
347
0
 62
     7
100
AcDbLine
 10
-49.05941398191665
 20
-151.8907454110469
 30
0.0
 11
-66.53637299033664
 21
-151.8907442604269
 31
0.0
  0
LINE
  5
86E
330
1F
100
AcDbEntity
  8
0
  6
Continuous
347
0
 62
     7
100
AcDbLine
 10
-72.68682832973664
 20
-150.5834257523868
 30
0.0
 11
-66.53637298779665
 21
-151.8907453932669
 31
0.0
  0
LINE
  5
86F
330
1F
100
AcDbEntity
  8
0
  6
Continuous
347
0
 62
     7
100
AcDbLine
 10
-49.05941398191665
 20
-151.8907453932669
 30
0.0
 11
-46.84532432069665
 21
-152.4571363280469
 31
0.0
  0
LINE
  5
870
330
1F
100
AcDbEntity
  8
0
  6
Continuous
347
0
 62
     7
100
AcDbLine
 10
-73.77479749745663
 20
-151.5232851121868
 30
0.0
 11
-78.19648559081662
 21
-150.5834262959469
 31
0.0
  0
LINE
  5
871
330
1F
100
AcDbEntity
  8
0
  6
Continuous
347
0
 62
     7
100
AcDbLine
 10
-48.65322049153664
 20
-251.1773297153068
 30
0.0
 11
-73.17957190863666
 21
-251.1773297153068
 31
0.0
  0
LINE
  5
872
330
1F
100
AcDbEntity
  8
0
  6
Continuous
347
0
 62
     7
100
AcDbLine
 10
-63.57245821967666
 20
110.6770437246132
 30
0.0
 11
-64.20242061735664
 21
110.0322613083131
 31
0.0
  0
LINE
  5
873
330
1F
100
AcDbEntity
  8
0
  6
Continuous
347
0
 62
     7
100
AcDbLine
 10
-56.43201368931665
 20
118.2482175941731
 30
0.0
 11
-52.13952178917665
 21
122.6405391193931
 31
0.0
  0
LINE
  5
874
330
1F
100
AcDbEntity
  8
0
  6
Continuous
347
0
 62
     7
100
AcDbLine
 10
-68.71719668557665
 20
105.6773205262131
 30
0.0
 11
-64.48301347501663
 21
110.0099773015731
 31
0.0
  0
LINE
  5
875
330
1F
100
AcDbEntity
  8
0
  6
Continuous
347
0
 62
     7
100
AcDbLine
 10
-56.47716597645663
 20
117.8488397061131
 30
0.0
 11
-57.07658201409663
 21
117.2354831731131
 31
0.0
  0
LINE
  5
876
330
1F
100
AcDbEntity
  8
0
  6
Continuous
347
0
 62
     7
100
AcDbLine
 10
-64.22009485175664
 20
109.9017792629531
 30
0.0
 11
-68.70600449561664
 21
105.3115416946531
 31
0.0
  0
LINE
  5
877
330
1F
100
AcDbEntity
  8
0
  6
Continuous
347
0
 62
     7
100
AcDbLine
 10
-51.71303429569667
 20
122.5738808351331
 30
0.0
 11
-56.32985631425666
 21
117.8496863211331
 31
0.0
  0
LINE
  5
878
330
1F
100
AcDbEntity
  8
0
  6
Continuous
347
0
 62
     7
100
AcDbLine
 10
-54.99706109567668
 20
116.5168911000131
 30
0.0
 11
-49.46385432111663
 21
122.1787825448131
 31
0.0
  0
LINE
  5
879
330
1F
100
AcDbEntity
  8
0
  6
Continuous
347
0
 62
     7
100
AcDbLine
 10
-68.43110983585666
 20
102.7704093702731
 30
0.0
 11
-62.82510624727666
 21
108.5067906660931
 31
0.0
  0
LINE
  5
87A
330
1F
100
AcDbEntity
  8
0
  6
Continuous
347
0
 62
     7
100
AcDbLine
 10
-62.69632721095664
 20
108.5261679095331
 30
0.0
 11
-55.01473533007663
 21
116.3864090521132
 31
0.0
  0
LINE
  5
87B
330
1F
100
AcDbEntity
  8
0
  6
Continuous
347
0
 62
     7
100
AcDbLine
 10
-47.25441918957664
 20
120.8303409313131
 30
0.0
 11
-67.08266822489665
 21
100.5409502554131
 31
0.0
  0
LINE
  5
87C
330
1F
100
AcDbEntity
  8
0
  6
Continuous
347
0
 62
     7
100
AcDbLine
 10
-68.96366850657662
 20
133.2759503275732
 30
0.0
 11
-74.95589424879665
 21
133.2759503275732
 31
0.0
  0
LINE
  5
87D
330
1F
100
AcDbEntity
  8
0
  6
Continuous
347
0
 62
     7
100
AcDbLine
 10
-64.48288291139667
 20
-69.96725530102685
 30
0.0
 11
-68.71719668811664
 21
-65.63446491912686
 31
0.0
  0
LINE
  5
87E
330
1F
100
AcDbEntity
  8
0
  6
Continuous
347
0
 62
     7
100
AcDbLine
 10
-52.13952178917665
 20
-82.59768351484686
 30
0.0
 11
-56.43200977517665
 21
-78.20536599012686
 31
0.0
  0
LINE
  5
87F
330
1F
100
AcDbEntity
  8
0
  6
Continuous
347
0
 62
     7
100
AcDbLine
 10
-57.07658201409663
 20
-77.19262756856685
 30
0.0
 11
-56.47716597645663
 21
-77.80598409902686
 31
0.0
  0
LINE
  5
880
330
1F
100
AcDbEntity
  8
0
  6
Continuous
347
0
 62
     7
100
AcDbLine
 10
-64.15875786749663
 20
-69.94574295136687
 30
0.0
 11
-63.48523243781668
 21
-70.63493242896686
 31
0.0
  0
LINE
  5
881
330
1F
100
AcDbEntity
  8
0
  6
Continuous
347
0
 62
     7
100
AcDbLine
 10
-56.32985631425666
 20
-77.80683071404684
 30
0.0
 11
-51.71303429569667
 21
-82.53102522804684
 31
0.0
  0
LINE
  5
882
330
1F
100
AcDbEntity
  8
0
  6
Continuous
347
0
 62
     7
100
AcDbLine
 10
-68.64702004665668
 20
-65.20320917508684
 30
0.0
 11
-64.15790146585667
 21
-69.79673026996687
 31
0.0
  0
LINE
  5
883
330
1F
100
AcDbEntity
  8
0
  6
Continuous
347
0
 62
     7
100
AcDbLine
 10
-62.82510624727666
 20
-68.46393503106685
 30
0.0
 11
-68.43110983585666
 21
-62.72755373524686
 31
0.0
  0
LINE
  5
884
330
1F
100
AcDbEntity
  8
0
  6
Continuous
347
0
 62
     7
100
AcDbLine
 10
-49.46375395301662
 20
-82.13602968326686
 30
0.0
 11
-54.99706109567668
 21
-76.47403549546686
 31
0.0
  0
LINE
  5
885
330
1F
100
AcDbEntity
  8
0
  6
Continuous
347
0
 62
     7
100
AcDbLine
 10
-55.01473533007663
 20
-76.34355344756685
 30
0.0
 11
-62.69632721603665
 21
-68.48331229990686
 31
0.0
  0
LINE
  5
886
330
1F
100
AcDbEntity
  8
0
  6
Continuous
347
0
 62
     7
100
AcDbLine
 10
-67.08266822489665
 20
-60.49809462038686
 30
0.0
 11
-47.25431881639663
 21
-80.78758806976685
 31
0.0
  0
LINE
  5
887
330
1F
100
AcDbEntity
  8
0
  6
Continuous
347
0
 62
     7
100
AcDbLine
 10
-55.48952070257661
 20
99.79880079737316
 30
0.0
 11
-55.39436137295664
 21
99.89617322645316
 31
0.0
  0
LINE
  5
888
330
1F
100
AcDbEntity
  8
0
  6
Continuous
347
0
 62
     7
100
AcDbLine
 10
-54.67553380375665
 20
99.19368332587317
 30
0.0
 11
-54.77069313337662
 21
99.09631089425312
 31
0.0
  0
LINE
  5
889
330
1F
100
AcDbEntity
  8
0
  6
Continuous
347
0
 62
     7
100
AcDbLine
 10
-60.80634592107663
 20
123.0624881180131
 30
0.0
 11
-66.31790923625664
 21
122.9181627551531
 31
0.0
  0
LINE
  5
88A
330
1F
100
AcDbEntity
  8
0
  6
Continuous
347
0
 62
     7
100
AcDbLine
 10
-52.57311758441665
 20
123.0311523081932
 30
0.0
 11
-59.90011478205665
 21
122.8392881351531
 31
0.0
  0
LINE
  5
88B
330
1F
100
AcDbEntity
  8
0
  6
Continuous
347
0
 62
     7
100
AcDbLine
 10
-55.39436138311663
 20
-59.85331762952685
 30
0.0
 11
-55.48952071273666
 21
-59.75594520044687
 31
0.0
  0
LINE
  5
88C
330
1F
100
AcDbEntity
  8
0
  6
Continuous
347
0
 62
     7
100
AcDbLine
 10
-54.77069314353662
 20
-59.05345529732686
 30
0.0
 11
-54.67553381391664
 21
-59.15082772894687
 31
0.0
  0
LINE
  5
88D
330
1F
100
AcDbEntity
  8
0
  6
Continuous
347
0
 62
     7
100
AcDbLine
 10
-62.69632721095664
 20
108.5261679095331
 30
0.0
 11
-62.82510623965666
 21
108.5067906610131
 31
0.0
  0
LINE
  5
88E
330
1F
100
AcDbEntity
  8
0
  6
Continuous
347
0
 62
     7
100
AcDbLine
 10
-56.47716597645663
 20
117.8488397061131
 30
0.0
 11
-56.32985631425666
 21
117.8496863211331
 31
0.0
  0
LINE
  5
88F
330
1F
100
AcDbEntity
  8
0
  6
Continuous
347
0
 62
     7
100
AcDbLine
 10
-69.62634752919664
 20
119.5229948261731
 30
0.0
 11
-69.73111015431667
 21
119.5235143171331
 31
0.0
  0
LINE
  5
890
330
1F
100
AcDbEntity
  8
0
  6
Continuous
347
0
 62
     7
100
AcDbLine
 10
-80.59591056335665
 20
-90.87795686790687
 30
0.0
 11
-80.59591056335665
 21
130.9208124749931
 31
0.0
  0
LINE
  5
891
330
1F
100
AcDbEntity
  8
0
  6
Continuous
347
0
 62
     7
100
AcDbLine
 10
-77.59408192389665
 20
-90.87416595854685
 30
0.0
 11
-77.59408192389665
 21
130.9170218018531
 31
0.0
  0
LINE
  5
892
330
1F
100
AcDbEntity
  8
0
  6
Continuous
347
0
 62
     7
100
AcDbLine
 10
-77.45439885299666
 20
-85.21403243758684
 30
0.0
 11
-77.45439885299666
 21
-90.73451795742685
 31
0.0
  0
LINE
  5
893
330
1F
100
AcDbEntity
  8
0
  6
Continuous
347
0
 62
     7
100
AcDbLine
 10
-77.45439885299666
 20
130.7774457208332
 30
0.0
 11
-77.45439885299666
 21
125.2568880446731
 31
0.0
  0
LINE
  5
894
330
1F
100
AcDbEntity
  8
0
  6
Continuous
347
0
 62
     7
100
AcDbLine
 10
-77.22661463241664
 20
124.9058191328931
 30
0.0
 11
-77.22661463241664
 21
-84.86296352580686
 31
0.0
  0
LINE
  5
895
330
1F
100
AcDbEntity
  8
0
  6
Continuous
347
0
 62
     7
100
AcDbLine
 10
-64.22009485175664
 20
109.9017792629531
 30
0.0
 11
-64.20242060973663
 21
110.0322613743531
 31
0.0
  0
LINE
  5
896
330
1F
100
AcDbEntity
  8
0
  6
Continuous
347
0
 62
     7
100
AcDbLine
 10
-54.99706109567668
 20
116.5168911000131
 30
0.0
 11
-55.01473533007663
 21
116.3864090521132
 31
0.0
  0
LINE
  5
897
330
1F
100
AcDbEntity
  8
0
  6
Continuous
347
0
 62
     7
100
AcDbLine
 10
-51.71303430585664
 20
122.5738808452932
 30
0.0
 11
-52.13952179425667
 21
122.6405391193931
 31
0.0
  0
LINE
  5
898
330
1F
100
AcDbEntity
  8
0
  6
Continuous
347
0
 62
     7
100
AcDbLine
 10
-55.01473532753664
 20
-76.34355344756685
 30
0.0
 11
-54.99706109567668
 21
-76.47403549546686
 31
0.0
  0
LINE
  5
899
330
1F
100
AcDbEntity
  8
0
  6
Continuous
347
0
 62
     7
100
AcDbLine
 10
-72.37662178733666
 20
120.1561278931532
 30
0.0
 11
-72.37662178733666
 21
-80.11327228606683
 31
0.0
  0
LINE
  5
89A
330
1F
100
AcDbEntity
  8
0
  6
Continuous
347
0
 62
     7
100
AcDbLine
 10
-72.06045666655666
 20
119.8476845501731
 30
0.0
 11
-72.06045666655666
 21
-79.80493048974685
 31
0.0
  0
LINE
  5
89B
330
1F
100
AcDbEntity
  8
0
  6
Continuous
347
0
 62
     7
100
AcDbLine
 10
-70.09537745727664
 20
-79.83798502104685
 30
0.0
 11
-70.09537745727664
 21
119.8808407424331
 31
0.0
  0
LINE
  5
89C
330
1F
100
AcDbEntity
  8
0
  6
Continuous
347
0
 62
     7
100
AcDbLine
 10
-69.73110983935663
 20
-66.38814850446684
 30
0.0
 11
-69.73110983935663
 21
106.4310041242531
 31
0.0
  0
LINE
  5
89D
330
1F
100
AcDbEntity
  8
0
  6
Continuous
347
0
 62
     7
100
AcDbLine
 10
-69.62634752919664
 20
-79.48013921908685
 30
0.0
 11
-69.62634752919664
 21
-74.74435735970687
 31
0.0
  0
LINE
  5
89E
330
1F
100
AcDbEntity
  8
0
  6
Continuous
347
0
 62
     7
100
AcDbLine
 10
-69.62634752919664
 20
119.5219558569532
 30
0.0
 11
-69.62634752919664
 21
114.7872129591731
 31
0.0
  0
LINE
  5
89F
330
1F
100
AcDbEntity
  8
0
  6
Continuous
347
0
 62
     7
100
AcDbLine
 10
-69.37950166271665
 20
-66.36967076392688
 30
0.0
 11
-69.37950166271665
 21
-73.68450593102685
 31
0.0
  0
LINE
  5
8A0
330
1F
100
AcDbEntity
  8
0
  6
Continuous
347
0
 62
     7
100
AcDbLine
 10
-69.37950166271665
 20
113.7273615381131
 30
0.0
 11
-69.37950166271665
 21
106.4125263710131
 31
0.0
  0
LINE
  5
8A1
330
1F
100
AcDbEntity
  8
0
  6
Continuous
347
0
 62
     7
100
AcDbLine
 10
-68.43110983585666
 20
-62.72755373524686
 30
0.0
 11
-68.43110983585666
 21
102.7704093702731
 31
0.0
  0
LINE
  5
8A2
330
1F
100
AcDbEntity
  8
0
  6
Continuous
347
0
 62
     7
100
AcDbLine
 10
-67.08266822489665
 20
100.5409502554131
 30
0.0
 11
-67.08266822489665
 21
-60.49809462038686
 31
0.0
  0
LINE
  5
8A3
330
1F
100
AcDbEntity
  8
0
  6
Continuous
347
0
 62
     7
100
AcDbLine
 10
-67.08266822235663
 20
100.5423727773332
 30
0.0
 11
-67.08964999401664
 21
100.5430840408332
 31
0.0
  0
LINE
  5
8A4
330
1F
100
AcDbEntity
  8
0
  6
Continuous
347
0
 62
     7
100
AcDbLine
 10
-69.37950166525667
 20
106.4125263684731
 30
0.0
 11
-69.73110984189663
 21
106.4494818774932
 31
0.0
  0
LINE
  5
8A5
330
1F
100
AcDbEntity
  8
0
  6
Continuous
347
0
 62
     7
100
AcDbLine
 10
-68.71719668557665
 20
105.6773205287531
 30
0.0
 11
-68.70600450069668
 21
105.3115416997331
 31
0.0
  0
LINE
  5
8A6
330
1F
100
AcDbEntity
  8
0
  6
Continuous
347
0
 62
     7
100
AcDbLine
 10
-66.32152399661663
 20
123.0228666757932
 30
0.0
 11
-66.32032008741663
 21
122.9181876547731
 31
0.0
  0
LINE
  5
8A7
330
1F
100
AcDbEntity
  8
0
  6
Continuous
347
0
 62
     7
100
AcDbLine
 10
-64.15875786749663
 20
-69.94574295136687
 30
0.0
 11
-64.15790146585667
 21
-69.79673027250686
 31
0.0
  0
LINE
  5
8A8
330
1F
100
AcDbEntity
  8
0
  6
Continuous
347
0
 62
     7
100
AcDbLine
 10
-66.32031907649665
 20
-82.87533207562686
 30
0.0
 11
-66.32152399915668
 21
-82.98001107378684
 31
0.0
  0
LINE
  5
8A9
330
1F
100
AcDbEntity
  8
0
  6
Continuous
347
0
 62
     7
100
AcDbLine
 10
-68.64702003395664
 20
-65.20320916238688
 30
0.0
 11
-68.71719668811664
 21
-65.63446492166685
 31
0.0
  0
LINE
  5
8AA
330
1F
100
AcDbEntity
  8
0
  6
Continuous
347
0
 62
     7
100
AcDbLine
 10
-52.60998430265667
 20
123.3819156249531
 30
0.0
 11
-52.57311758695664
 21
123.0311523031131
 31
0.0
  0
LINE
  5
8AB
330
1F
100
AcDbEntity
  8
0
  6
Continuous
347
0
 62
     7
100
AcDbLine
 10
-52.57311758695664
 20
-82.98829669602685
 30
0.0
 11
-52.60998430265667
 21
-83.33906001786687
 31
0.0
  0
LINE
  5
8AC
330
1F
100
AcDbEntity
  8
0
  6
Continuous
347
0
 62
     7
100
AcDbLine
 10
-47.25662349555665
 20
120.8373227055131
 30
0.0
 11
-47.25588872689663
 21
120.8303409338531
 31
0.0
  0
LINE
  5
8AD
330
1F
100
AcDbEntity
  8
0
  6
Continuous
347
0
 62
     7
100
AcDbLine
 10
-47.25578834355662
 20
-80.78758806976685
 30
0.0
 11
-47.25652310713664
 21
-80.79456983888687
 31
0.0
  0
LINE
  5
8AE
330
1F
100
AcDbEntity
  8
0
  6
Continuous
347
0
 62
     7
100
AcDbLine
 10
-67.08964999655666
 20
-60.50093969978686
 30
0.0
 11
-68.43110984093664
 21
-62.72755373778686
 31
0.0
  0
LINE
  5
8AF
330
1F
100
AcDbEntity
  8
0
  6
Continuous
347
0
 62
     7
100
AcDbLine
 10
-68.43110982569664
 20
102.7704093601131
 30
0.0
 11
-67.08964999655666
 21
100.5437953068731
 31
0.0
  0
LINE
  5
8B0
330
1F
100
AcDbEntity
  8
0
  6
Continuous
347
0
 62
     7
100
AcDbLine
 10
-54.19087311699664
 20
-59.12940328106685
 30
0.0
 11
-54.10467687587663
 21
-59.02401402016685
 31
0.0
  0
LINE
  5
8B1
330
1F
100
AcDbEntity
  8
0
  6
Continuous
347
0
 62
     7
100
AcDbLine
 10
-69.73110983935663
 20
-66.40662624246687
 30
0.0
 11
-68.64702004665668
 21
-65.20320917508684
 31
0.0
  0
LINE
  5
8B2
330
1F
100
AcDbEntity
  8
0
  6
Continuous
347
0
 62
     7
100
AcDbLine
 10
-68.71719668811664
 20
-65.63446491912686
 30
0.0
 11
-69.37950166271665
 21
-66.36967076392688
 31
0.0
  0
LINE
  5
8B3
330
1F
100
AcDbEntity
  8
0
  6
Continuous
347
0
 62
     7
100
AcDbLine
 10
-68.70600449561664
 20
105.3115416946531
 30
0.0
 11
-69.73110983935663
 21
106.4494818800331
 31
0.0
  0
LINE
  5
8B4
330
1F
100
AcDbEntity
  8
0
  6
Continuous
347
0
 62
     7
100
AcDbLine
 10
-69.37950166271665
 20
106.4125263710131
 30
0.0
 11
-68.71719668557665
 21
105.6773205262131
 31
0.0
  0
LINE
  5
8B5
330
1F
100
AcDbEntity
  8
0
  6
Continuous
347
0
 62
     7
100
AcDbLine
 10
-54.10467688603663
 20
99.06686961709309
 30
0.0
 11
-54.19087312461664
 21
99.17225888053318
 31
0.0
  0
LINE
  5
8B6
330
1F
100
AcDbEntity
  8
0
  6
Continuous
347
0
 62
     7
100
AcDbLine
 10
-55.46439778863669
 20
-60.49406671886687
 30
0.0
 11
-55.37607940545664
 21
-60.39044938736686
 31
0.0
  0
LINE
  5
8B7
330
1F
100
AcDbEntity
  8
0
  6
Continuous
347
0
 62
     7
100
AcDbLine
 10
-64.15790146585667
 20
-69.79673026996687
 30
0.0
 11
-62.82510624727666
 21
-68.46393503106685
 31
0.0
  0
LINE
  5
8B8
330
1F
100
AcDbEntity
  8
0
  6
Continuous
347
0
 62
     7
100
AcDbLine
 10
-62.69632721603665
 20
-68.48331229990686
 30
0.0
 11
-64.15875786749663
 21
-69.94574295136687
 31
0.0
  0
LINE
  5
8B9
330
1F
100
AcDbEntity
  8
0
  6
Continuous
347
0
 62
     7
100
AcDbLine
 10
-55.48952076861661
 20
-59.75594528172687
 30
0.0
 11
-54.77069307241666
 21
-59.05345525414685
 31
0.0
  0
LINE
  5
8BA
330
1F
100
AcDbEntity
  8
0
  6
Continuous
347
0
 62
     7
100
AcDbLine
 10
-54.67553380375665
 20
-59.15082771878686
 30
0.0
 11
-55.39436137803662
 21
-59.85331762698684
 31
0.0
  0
LINE
  5
8BB
330
1F
100
AcDbEntity
  8
0
  6
Continuous
347
0
 62
     7
100
AcDbLine
 10
-54.77069319941663
 20
99.09631094505312
 30
0.0
 11
-55.48952064923665
 21
99.79880073387315
 31
0.0
  0
LINE
  5
8BC
330
1F
100
AcDbEntity
  8
0
  6
Continuous
347
0
 62
     7
100
AcDbLine
 10
-55.39436137803662
 20
99.89617323407316
 30
0.0
 11
-54.67553380375665
 21
99.19368332587317
 31
0.0
  0
LINE
  5
8BD
330
1F
100
AcDbEntity
  8
0
  6
Continuous
347
0
 62
     7
100
AcDbLine
 10
-62.82510624727666
 20
108.5067906660931
 30
0.0
 11
-64.22009485175664
 21
109.9017792629531
 31
0.0
  0
LINE
  5
8BE
330
1F
100
AcDbEntity
  8
0
  6
Continuous
347
0
 62
     7
100
AcDbLine
 10
-64.20242061735664
 20
110.0322613083131
 30
0.0
 11
-62.69632721095664
 21
108.5261679095331
 31
0.0
  0
LINE
  5
8BF
330
1F
100
AcDbEntity
  8
0
  6
Continuous
347
0
 62
     7
100
AcDbLine
 10
-55.37607940291664
 20
100.4333049969931
 30
0.0
 11
-55.46439778355665
 21
100.5369223310332
 31
0.0
  0
LINE
  5
8C0
330
1F
100
AcDbEntity
  8
0
  6
Continuous
347
0
 62
     7
100
AcDbLine
 10
-70.86126171671668
 20
-83.92343399262685
 30
0.0
 11
-70.96817788591665
 21
-84.03091177614687
 31
0.0
  0
LINE
  5
8C1
330
1F
100
AcDbEntity
  8
0
  6
Continuous
347
0
 62
     7
100
AcDbLine
 10
-72.47618944189665
 20
-83.57687227274687
 30
0.0
 11
-71.68912208791662
 21
-82.78980492892686
 31
0.0
  0
LINE
  5
8C2
330
1F
100
AcDbEntity
  8
0
  6
Continuous
347
0
 62
     7
100
AcDbLine
 10
-70.49557998681664
 20
-83.75107632616687
 30
0.0
 11
-70.93922178939667
 21
-84.19471813128686
 31
0.0
  0
LINE
  5
8C3
330
1F
100
AcDbEntity
  8
0
  6
Continuous
347
0
 62
     7
100
AcDbLine
 10
-77.59408193151666
 20
-90.87430069030685
 30
0.0
 11
-77.45439885299666
 21
-90.73461761686687
 31
0.0
  0
LINE
  5
8C4
330
1F
100
AcDbEntity
  8
0
  6
Continuous
347
0
 62
     7
100
AcDbLine
 10
-69.28578002897663
 20
-85.36970349530685
 30
0.0
 11
-68.81179007017664
 21
-84.89571353396687
 31
0.0
  0
LINE
  5
8C5
330
1F
100
AcDbEntity
  8
0
  6
Continuous
347
0
 62
     7
100
AcDbLine
 10
-74.95592176969666
 20
-93.23309472048686
 30
0.0
 11
-75.09560483043666
 21
-93.37277779900685
 31
0.0
  0
LINE
  5
8C6
330
1F
100
AcDbEntity
  8
0
  6
Continuous
347
0
 62
     7
100
AcDbLine
 10
-65.21706771937667
 20
-85.67377662604684
 30
0.0
 11
-67.63157535415667
 21
-88.08828428622687
 31
0.0
  0
LINE
  5
8C7
330
1F
100
AcDbEntity
  8
0
  6
Continuous
347
0
 62
     7
100
AcDbLine
 10
-69.09140440299663
 20
-85.37147701220687
 30
0.0
 11
-68.94647421025667
 21
-85.22730506788687
 31
0.0
  0
LINE
  5
8C8
330
1F
100
AcDbEntity
  8
0
  6
Continuous
347
0
 62
     7
100
AcDbLine
 10
-70.09537743695665
 20
-79.83810931848686
 30
0.0
 11
-69.73111015177665
 21
-79.48065870750688
 31
0.0
  0
LINE
  5
8C9
330
1F
100
AcDbEntity
  8
0
  6
Continuous
347
0
 62
     7
100
AcDbLine
 10
-72.37662178733666
 20
-80.11327228606683
 30
0.0
 11
-72.06045666655666
 21
-79.80527787792687
 31
0.0
  0
LINE
  5
8CA
330
1F
100
AcDbEntity
  8
0
  6
Continuous
347
0
 62
     7
100
AcDbLine
 10
-66.70769259689666
 20
-85.30004384544685
 30
0.0
 11
-67.04122858463668
 21
-85.62496019332684
 31
0.0
  0
LINE
  5
8CB
330
1F
100
AcDbEntity
  8
0
  6
Continuous
347
0
 62
     7
100
AcDbLine
 10
-66.32152399915668
 20
-82.98001107378684
 30
0.0
 11
-66.68907302021665
 21
-83.33477857100686
 31
0.0
  0
LINE
  5
8CC
330
1F
100
AcDbEntity
  8
0
  6
Continuous
347
0
 62
     7
100
AcDbLine
 10
-66.68907302021665
 20
123.3776341780931
 30
0.0
 11
-66.32152399661663
 21
123.0228666757932
 31
0.0
  0
LINE
  5
8CD
330
1F
100
AcDbEntity
  8
0
  6
Continuous
347
0
 62
     7
100
AcDbLine
 10
-72.06045666655666
 20
119.8481334850131
 30
0.0
 11
-72.37662178733666
 21
120.1561278931532
 31
0.0
  0
LINE
  5
8CE
330
1F
100
AcDbEntity
  8
0
  6
Continuous
347
0
 62
     7
100
AcDbLine
 10
-67.04122858463668
 20
125.6678158004131
 30
0.0
 11
-66.70769259689666
 21
125.3428994525331
 31
0.0
  0
LINE
  5
8CF
330
1F
100
AcDbEntity
  8
0
  6
Continuous
347
0
 62
     7
100
AcDbLine
 10
-69.73111015431667
 20
119.5235143171331
 30
0.0
 11
-70.09537743695665
 21
119.8809649281131
 31
0.0
  0
LINE
  5
8D0
330
1F
100
AcDbEntity
  8
0
  6
Continuous
347
0
 62
     7
100
AcDbLine
 10
-68.94647421025667
 20
125.2701606724331
 30
0.0
 11
-69.09140440299663
 21
125.4143326167531
 31
0.0
  0
LINE
  5
8D1
330
1F
100
AcDbEntity
  8
0
  6
Continuous
347
0
 62
     7
100
AcDbLine
 10
-71.68924515091666
 20
122.8327836015531
 30
0.0
 11
-72.47618802203667
 21
123.6197264599731
 31
0.0
  0
LINE
  5
8D2
330
1F
100
AcDbEntity
  8
0
  6
Continuous
347
0
 62
     7
100
AcDbLine
 10
-70.93922178939667
 20
124.2375737383732
 30
0.0
 11
-70.49557998681664
 21
123.7939319332531
 31
0.0
  0
LINE
  5
8D3
330
1F
100
AcDbEntity
  8
0
  6
Continuous
347
0
 62
     7
100
AcDbLine
 10
-77.45439885299666
 20
130.7774732239532
 30
0.0
 11
-77.59408193151666
 21
130.9171562973931
 31
0.0
  0
LINE
  5
8D4
330
1F
100
AcDbEntity
  8
0
  6
Continuous
347
0
 62
     7
100
AcDbLine
 10
-68.81179007017664
 20
124.9385691410531
 30
0.0
 11
-69.28578002897663
 21
125.4125590998531
 31
0.0
  0
LINE
  5
8D5
330
1F
100
AcDbEntity
  8
0
  6
Continuous
347
0
 62
     7
100
AcDbLine
 10
-75.09560483043666
 20
133.4156334060931
 30
0.0
 11
-74.95592176969666
 21
133.2759503275732
 31
0.0
  0
LINE
  5
8D6
330
1F
100
AcDbEntity
  8
0
  6
Continuous
347
0
 62
     7
100
AcDbLine
 10
-67.63157535415667
 20
128.1311398933131
 30
0.0
 11
-65.21706771937667
 21
125.7166322331331
 31
0.0
  0
LINE
  5
8D7
330
1F
100
AcDbEntity
  8
0
  6
Continuous
347
0
 62
     7
100
AcDbLine
 10
-70.96817788591665
 20
124.0737673832331
 30
0.0
 11
-70.86126171671668
 21
123.9662895997131
 31
0.0
  0
LINE
  5
8D8
330
1F
100
AcDbEntity
  8
0
  6
Continuous
347
0
 62
     7
100
AcDbLine
 10
-56.47716597645663
 20
-77.80598409902686
 30
0.0
 11
-55.01473533007663
 21
-76.34355344756685
 31
0.0
  0
LINE
  5
8D9
330
1F
100
AcDbEntity
  8
0
  6
Continuous
347
0
 62
     7
100
AcDbLine
 10
-54.99706109567668
 20
-76.47403549546686
 30
0.0
 11
-56.32985631425666
 21
-77.80683071404684
 31
0.0
  0
LINE
  5
8DA
330
1F
100
AcDbEntity
  8
0
  6
Continuous
347
0
 62
     7
100
AcDbLine
 10
-55.01473533007663
 20
116.3864090521132
 30
0.0
 11
-56.47716597645663
 21
117.8488397061131
 31
0.0
  0
LINE
  5
8DB
330
1F
100
AcDbEntity
  8
0
  6
Continuous
347
0
 62
     7
100
AcDbLine
 10
-56.32985631425666
 20
117.8496863211331
 30
0.0
 11
-54.99706109567668
 21
116.5168911000131
 31
0.0
  0
LINE
  5
8DC
330
1F
100
AcDbEntity
  8
0
  6
Continuous
347
0
 62
     7
100
AcDbLine
 10
-52.57311758441665
 20
-82.98829670110686
 30
0.0
 11
-52.13952178917665
 21
-82.59768351484686
 31
0.0
  0
LINE
  5
8DD
330
1F
100
AcDbEntity
  8
0
  6
Continuous
347
0
 62
     7
100
AcDbLine
 10
-51.71303429569667
 20
-82.53102522804684
 30
0.0
 11
-52.60998430265667
 21
-83.33906001786687
 31
0.0
  0
LINE
  5
8DE
330
1F
100
AcDbEntity
  8
0
  6
Continuous
347
0
 62
     7
100
AcDbLine
 10
-52.13952178917665
 20
122.6405391193931
 30
0.0
 11
-52.57311758441665
 21
123.0311523081932
 31
0.0
  0
LINE
  5
8DF
330
1F
100
AcDbEntity
  8
0
  6
Continuous
347
0
 62
     7
100
AcDbLine
 10
-52.60998430265667
 20
123.3819156249531
 30
0.0
 11
-51.71303429569667
 21
122.5738808351331
 31
0.0
  0
LINE
  5
8E0
330
1F
100
AcDbEntity
  8
0
  6
Continuous
347
0
 62
     7
100
AcDbLine
 10
-49.46375394285667
 20
-82.13602967310686
 30
0.0
 11
-47.25725787071667
 21
-80.79456983888687
 31
0.0
  0
LINE
  5
8E1
330
1F
100
AcDbEntity
  8
0
  6
Continuous
347
0
 62
     7
100
AcDbLine
 10
-47.25735826929667
 20
120.8373227105931
 30
0.0
 11
-49.46385433127668
 21
122.1787825549731
 31
0.0
  0
LINE
  5
8E2
330
1F
100
AcDbEntity
  8
0
  6
Continuous
347
0
 62
     7
100
AcDbLine
 10
-69.73110982665668
 20
-66.40662625262686
 30
0.0
 11
-69.37950166525667
 21
-66.36967076138686
 31
0.0
  0
LINE
  5
8E3
330
1F
100
AcDbEntity
  8
0
  6
Continuous
347
0
 62
     7
100
AcDbLine
 10
-67.08964999401664
 20
-60.50022842612686
 30
0.0
 11
-67.08266822235663
 21
-60.49951716008685
 31
0.0
  0
LINE
  5
8E4
330
1F
100
AcDbEntity
  8
0
  6
Continuous
347
0
 62
     7
100
AcDbLine
 10
-52.13952179171665
 20
-82.59768351484686
 30
0.0
 11
-51.71303430585664
 21
-82.53102523820687
 31
0.0
  0
LINE
  5
8E5
330
1F
100
AcDbEntity
  8
0
  6
Continuous
347
0
 62
     7
100
AcDbLine
 10
-56.32985631425666
 20
-77.80683071658686
 30
0.0
 11
-56.47716597645663
 21
-77.80598410156685
 31
0.0
  0
LINE
  5
8E6
330
1F
100
AcDbEntity
  8
0
  6
Continuous
347
0
 62
     7
100
AcDbLine
 10
-69.73111015177665
 20
-79.48065870750688
 30
0.0
 11
-69.62634752919664
 21
-79.48013921908685
 31
0.0
  0
LINE
  5
8E7
330
1F
100
AcDbEntity
  8
0
  6
Continuous
347
0
 62
     7
100
AcDbLine
 10
-59.90011477951666
 20
-82.79643252552685
 30
0.0
 11
-52.57311758441665
 21
-82.98829670110686
 31
0.0
  0
LINE
  5
8E8
330
1F
100
AcDbEntity
  8
0
  6
Continuous
347
0
 62
     7
100
AcDbLine
 10
-66.31790923117663
 20
-82.87530715060686
 30
0.0
 11
-60.80634592361662
 21
-83.01963251346686
 31
0.0
  0
LINE
  5
8E9
330
1F
100
AcDbEntity
  8
0
  6
Continuous
347
0
 62
     7
100
AcDbLine
 10
-62.82510625489664
 20
-68.46393503868686
 30
0.0
 11
-62.69632721603665
 21
-68.48331229990686
 31
0.0
  0
LINE
  5
8EA
330
1F
100
AcDbEntity
  8
0
  6
Continuous
347
0
 62
     7
100
AcDbLine
 10
-74.95582207723666
 20
-93.23309472048686
 30
0.0
 11
-68.96366850911664
 21
-93.23309472048686
 31
0.0
  0
ELLIPSE
  5
8EB
330
1F
100
AcDbEntity
  8
0
  6
Continuous
347
0
 62
     7
100
AcDbEllipse
 10
-182.1537053010567
 20
-82.31801445010684
 30
0.0
 11
-0.002373530940000001
 21
5.50021968534
 31
0.0
210
0.0
220
0.0
230
-1.0
 40
0.2129507426
 41
-4.7103625463
 42
-4.3931332244
  0
SPLINE
  5
8EC
330
1F
100
AcDbEntity
  8
0
  6
Continuous
347
0
 62
     7
100
AcDbSpline
210
0.0
220
0.0
230
1.0
 70
     8
 71
     3
 72
     9
 73
     5
 74
     0
 42
0.0000000001
 43
0.0000000001
 40
0.0
 40
0.0
 40
0.0
 40
0.0
 40
0.2444075446
 40
1.0
 40
1.0
 40
1.0
 40
1.0
 10
-181.0408699041766
 20
124.0866891633332
 30
0.0
 10
-181.0311111759167
 20
123.9471993051532
 30
0.0
 10
-180.9963719286566
 20
123.3761150548931
 30
0.0
 10
-180.9827367641567
 20
122.8038010966532
 30
0.0
 10
-180.9827367641567
 20
122.3715104372331
 30
0.0
  0
SPLINE
  5
8ED
330
1F
100
AcDbEntity
  8
0
  6
Continuous
347
0
 62
     7
100
AcDbSpline
210
0.0
220
0.0
230
1.0
 70
     8
 71
     3
 72
    17
 73
    13
 74
     0
 42
0.0000000001
 43
0.0000000001
 40
0.0
 40
0.0
 40
0.0
 40
0.0
 40
0.2090548524
 40
0.4022356076
 40
0.5745123137
 40
0.7216556202
 40
0.8400909223
 40
0.9268965385
 40
0.9577872745
 40
0.9801088286
 40
0.9939141573
 40
1.0
 40
1.0
 40
1.0
 40
1.0
 10
-181.0408699219566
 20
124.0866894605131
 30
0.0
 10
-181.0593594760366
 20
124.3509765011532
 30
0.0
 10
-181.0970451004366
 20
124.8593287966132
 30
0.0
 10
-181.1531510131166
 20
125.5852583810731
 30
0.0
 10
-181.2032653223366
 20
126.2328693464531
 30
0.0
 10
-181.2452926169966
 20
126.7863613636731
 30
0.0
 10
-181.2790097123767
 20
127.2311314875931
 30
0.0
 10
-181.3038160127766
 20
127.5304856640931
 30
0.0
 10
-181.3223493843966
 20
127.7054351135332
 30
0.0
 10
-181.3363864835767
 20
127.7919090833332
 30
0.0
 10
-181.3460360502567
 20
127.8394862119532
 30
0.0
 10
-181.3610123474566
 20
127.8679972141132
 30
0.0
 10
-181.3687245773966
 20
127.8679299091932
 30
0.0
  0
SPLINE
  5
8EE
330
1F
100
AcDbEntity
  8
0
  6
Continuous
347
0
 62
     7
100
AcDbSpline
210
0.0
220
0.0
230
1.0
 70
     8
 71
     3
 72
     9
 73
     5
 74
     0
 42
0.0000000001
 43
0.0000000001
 40
0.0
 40
0.0
 40
0.0
 40
0.0
 40
0.7229980109999999
 40
1.0
 40
1.0
 40
1.0
 40
1.0
 10
-180.1010104021367
 20
-93.97518468664686
 30
0.0
 10
-180.1062963808966
 20
-93.95031613084684
 30
0.0
 10
-180.0998101302166
 20
-93.91219156396686
 30
0.0
 10
-180.0808533532966
 20
-93.88261055886686
 30
0.0
 10
-180.0750501771966
 20
-93.87478718614686
 30
0.0
  0
SPLINE
  5
8EF
330
1F
100
AcDbEntity
  8
0
  6
Continuous
347
0
 62
     7
100
AcDbSpline
210
0.0
220
0.0
230
1.0
 70
     8
 71
     3
 72
     9
 73
     5
 74
     0
 42
0.0000000001
 43
0.0000000001
 40
0.0
 40
0.0
 40
0.0
 40
0.0
 40
0.2770350717
 40
1.0
 40
1.0
 40
1.0
 40
1.0
 10
-180.0750500120966
 20
133.9176390721331
 30
0.0
 10
-180.0808538892366
 20
133.9254633567131
 30
0.0
 10
-180.0998054058166
 20
133.9550473844131
 30
0.0
 10
-180.1062968279367
 20
133.9931696830732
 30
0.0
 10
-180.1010110879367
 20
134.0180370653932
 30
0.0
  0
SPLINE
  5
8F0
330
1F
100
AcDbEntity
  8
0
  6
Continuous
347
0
 62
     7
100
AcDbSpline
210
0.0
220
0.0
230
1.0
 70
     8
 71
     3
 72
    17
 73
    13
 74
     0
 42
0.0000000001
 43
0.0000000001
 40
0.0
 40
0.0
 40
0.0
 40
0.0
 40
0.1866157188
 40
0.3684410557
 40
0.5370414000000001
 40
0.6876999098000001
 40
0.8130014969
 40
0.9091920562000001
 40
0.944871927
 40
0.9721635015000001
 40
0.9905179147
 40
1.0
 40
1.0
 40
1.0
 40
1.0
 10
-180.0750505683566
 20
130.6071426603731
 30
0.0
 10
-180.0678758887766
 20
130.8130889413931
 30
0.0
 10
-180.0577387640166
 20
131.2198367867732
 30
0.0
 10
-180.0504949710366
 20
131.8128333223931
 30
0.0
 10
-180.0477740163566
 20
132.3661418398531
 30
0.0
 10
-180.0470541905167
 20
132.8570863164331
 30
0.0
 10
-180.0476459063766
 20
133.2679315247131
 30
0.0
 10
-180.0491790402167
 20
133.5521465214331
 30
0.0
 10
-180.0535637126767
 20
133.7275341564331
 30
0.0
 10
-180.0572247111967
 20
133.8178579026331
 30
0.0
 10
-180.0639048426167
 20
133.8772496583732
 30
0.0
 10
-180.0688423714767
 20
133.9092075167331
 30
0.0
 10
-180.0750499155766
 20
133.9176396309331
 30
0.0
  0
SPLINE
  5
8F1
330
1F
100
AcDbEntity
  8
0
  6
Continuous
347
0
 62
     7
100
AcDbSpline
210
0.0
220
0.0
230
1.0
 70
     8
 71
     3
 72
    11
 73
     7
 74
     0
 42
0.0000000001
 43
0.0000000001
 40
0.0
 40
0.0
 40
0.0
 40
0.0
 40
0.1353370518
 40
0.3574891988
 40
0.65214908
 40
1.0
 40
1.0
 40
1.0
 40
1.0
 10
-181.3257010210766
 20
-87.68050318154684
 30
0.0
 10
-181.3034272124367
 20
-87.51745317236686
 30
0.0
 10
-181.2722591035767
 20
-87.08349246040684
 30
0.0
 10
-181.2108982458566
 20
-86.29312153162685
 30
0.0
 10
-181.1301546481367
 20
-85.24473429134683
 30
0.0
 10
-181.0703889840766
 20
-84.46577511012686
 30
0.0
 10
-181.0408699219566
 20
-84.04383384072685
 30
0.0
  0
SPLINE
  5
8F2
330
1F
100
AcDbEntity
  8
0
  6
Continuous
347
0
 62
     7
100
AcDbSpline
210
0.0
220
0.0
230
1.0
 70
     8
 71
     3
 72
     9
 73
     5
 74
     0
 42
0.0000000001
 43
0.0000000001
 40
0.0
 40
0.0
 40
0.0
 40
0.0
 40
0.2794973395
 40
1.0
 40
1.0
 40
1.0
 40
1.0
 10
-181.3687245799367
 20
-87.82507430464686
 30
0.0
 10
-181.3544688680366
 20
-87.82519871384685
 30
0.0
 10
-181.3379011312966
 20
-87.75603015266685
 30
0.0
 10
-181.3306752046767
 20
-87.71691550394684
 30
0.0
 10
-181.3257010210766
 20
-87.68050318154684
 30
0.0
  0
SPLINE
  5
8F3
330
1F
100
AcDbEntity
  8
0
  6
Continuous
347
0
 62
     7
100
AcDbSpline
210
0.0
220
0.0
230
1.0
 70
     8
 71
     3
 72
    17
 73
    13
 74
     0
 42
0.0000000001
 43
0.0000000001
 40
0.0
 40
0.0
 40
0.0
 40
0.0
 40
0.0094535624
 40
0.0275852445
 40
0.0545643197
 40
0.0904448901
 40
0.1860423318
 40
0.3117967763
 40
0.4615810258
 40
0.6307594857
 40
0.8123599068
 40
1.0
 40
1.0
 40
1.0
 40
1.0
 10
-180.0750505658166
 20
-93.87478491030684
 30
0.0
 10
-180.0688611623966
 20
-93.86637862028685
 30
0.0
 10
-180.0639573545767
 20
-93.83471089850686
 30
0.0
 10
-180.0572942157567
 20
-93.77592786646686
 30
0.0
 10
-180.0536054143966
 20
-93.68598050000685
 30
0.0
 10
-180.0492064239566
 20
-93.51137309204684
 30
0.0
 10
-180.0476497646366
 20
-93.22709288590686
 30
0.0
 10
-180.0470546654966
 20
-92.81737050748684
 30
0.0
 10
-180.0477665081166
 20
-92.32625555626684
 30
0.0
 10
-180.0504650244367
 20
-91.77352524948684
 30
0.0
 10
-180.0576987717166
 20
-91.17901050506684
 30
0.0
 10
-180.0678360158566
 20
-90.77138146764685
 30
0.0
 10
-180.0750499155766
 20
-90.56430578324685
 30
0.0
  0
LINE
  5
8F4
330
1F
100
AcDbEntity
  8
0
  6
Continuous
347
0
 62
     7
100
AcDbLine
 10
-180.0750500425766
 20
130.6071576895531
 30
0.0
 11
-177.6997311635567
 21
130.5015950533331
 31
0.0
  0
LINE
  5
8F5
330
1F
100
AcDbEntity
  8
0
  6
Continuous
347
0
 62
     7
100
AcDbLine
 10
-177.6997311610166
 20
-90.45873958848685
 30
0.0
 11
-180.0750500400366
 21
-90.56430216374685
 31
0.0
  0
SPLINE
  5
8F6
330
1F
100
AcDbEntity
  8
0
  6
Continuous
347
0
 62
     7
100
AcDbSpline
210
0.0
220
0.0
230
1.0
 70
     8
 71
     3
 72
    22
 73
    18
 74
     0
 42
0.0000000001
 43
0.0000000001
 40
0.0
 40
0.0
 40
0.0
 40
0.0
 40
0.1957141106
 40
0.3833553181
 40
0.5562952636999999
 40
0.7074005069
 40
0.7733406861
 40
0.8319849628
 40
0.8821779811
 40
0.9239796824
 40
0.957153131
 40
0.9702048283
 40
0.9808694545000001
 40
0.9891909913
 40
0.9951611112000001
 40
0.9987612459
 40
1.0
 40
1.0
 40
1.0
 40
1.0
 10
-177.6997311635567
 20
-90.45873945386685
 30
0.0
 10
-177.6969626727766
 20
-90.81734056546685
 30
0.0
 10
-177.6944152077167
 20
-91.51977344050684
 30
0.0
 10
-177.6953243270567
 20
-92.53908690098685
 30
0.0
 10
-177.6975332583766
 20
-93.47666051732685
 30
0.0
 10
-177.6985291314167
 20
-94.19123841760685
 30
0.0
 10
-177.6982159240167
 20
-94.69639449644686
 30
0.0
 10
-177.6975663418766
 20
-95.01663578128685
 30
0.0
 10
-177.6966043498966
 20
-95.29267541462684
 30
0.0
 10
-177.6956784208367
 20
-95.52196077774686
 30
0.0
 10
-177.6949829764567
 20
-95.68339690902684
 30
0.0
 10
-177.6949940508566
 20
-95.78741705912685
 30
0.0
 10
-177.6949532000366
 20
-95.84658298600684
 30
0.0
 10
-177.6959479554767
 20
-95.89111223908685
 30
0.0
 10
-177.6954374992966
 20
-95.92661252368686
 30
0.0
 10
-177.6986740587367
 20
-95.94157887678685
 30
0.0
 10
-177.6974627454367
 20
-95.95546821146685
 30
0.0
 10
-177.6997311635567
 20
-95.95538899648685
 30
0.0
  0
SPLINE
  5
8F7
330
1F
100
AcDbEntity
  8
0
  6
Continuous
347
0
 62
     7
100
AcDbSpline
210
0.0
220
0.0
230
1.0
 70
     8
 71
     3
 72
     9
 73
     5
 74
     0
 42
0.0000000001
 43
0.0000000001
 40
0.0
 40
0.0
 40
0.0
 40
0.0
 40
0.369749806
 40
1.0
 40
1.0
 40
1.0
 40
1.0
 10
-177.6949699564167
 20
135.8120262510931
 30
0.0
 10
-177.6949606371566
 20
135.1575156119331
 30
0.0
 10
-177.7024816431966
 20
133.3873847402131
 30
0.0
 10
-177.6911184426566
 20
131.6171958015531
 30
0.0
 10
-177.6997311635567
 20
130.5015950431731
 30
0.0
  0
SPLINE
  5
8F8
330
1F
100
AcDbEntity
  8
0
  6
Continuous
347
0
 62
     7
100
AcDbSpline
210
0.0
220
0.0
230
1.0
 70
     8
 71
     3
 72
    11
 73
     7
 74
     0
 42
0.0000000001
 43
0.0000000001
 40
0.0
 40
0.0
 40
0.0
 40
0.0
 40
0.0632094394
 40
0.2505518601
 40
0.5632090163
 40
1.0
 40
1.0
 40
1.0
 40
1.0
 10
-177.6997311635567
 20
135.9982446035731
 30
0.0
 10
-177.6958044149966
 20
135.9983817280131
 30
0.0
 10
-177.6998833908366
 20
135.9735245793531
 30
0.0
 10
-177.6936010411967
 20
135.9475003997531
 30
0.0
 10
-177.6960510388367
 20
135.8840444077932
 30
0.0
 10
-177.6949703424966
 20
135.8391774718731
 30
0.0
 10
-177.6949699564167
 20
135.8120262510931
 30
0.0
  0
ARC
  5
8F9
330
1F
100
AcDbEntity
  8
0
  6
Continuous
347
0
 62
     7
100
AcDbCircle
 10
-177.6116357136366
 20
-93.45875300678685
 30
0.0
 40
2.49824206726
100
AcDbArc
 50
189.5859078384
 51
267.9791957686
  0
ARC
  5
8FA
330
1F
100
AcDbEntity
  8
0
  6
Continuous
347
0
 62
     7
100
AcDbCircle
 10
-177.6116356882366
 20
133.5016085910131
 30
0.0
 40
2.49824209266
100
AcDbArc
 50
92.0210540433
 51
170.4140400521
  0
ARC
  5
8FB
330
1F
100
AcDbEntity
  8
0
  6
Continuous
347
0
 62
     7
100
AcDbCircle
 10
-177.6556415438366
 20
-93.45540477878686
 30
0.0
 40
2.50000000126
100
AcDbArc
 50
192.0000000272
 51
267.9999999937
  0
ARC
  5
8FC
330
1F
100
AcDbEntity
  8
0
  6
Continuous
347
0
 62
     7
100
AcDbCircle
 10
-177.6556415438366
 20
133.4982603858732
 30
0.0
 40
2.50000000126
100
AcDbArc
 50
92.00000000629997
 51
167.9999999728
  0
ARC
  5
8FD
330
1F
100
AcDbEntity
  8
0
  6
Continuous
347
0
 62
     7
100
AcDbCircle
 10
-131.4722307917167
 20
128.5034848179132
 30
0.0
 40
46.27066576176
100
AcDbArc
 50
177.525021823
 51
179.9939386337
  0
ARC
  5
8FE
330
1F
100
AcDbEntity
  8
0
  6
Continuous
347
0
 62
     7
100
AcDbCircle
 10
-131.4722037330966
 20
-88.46045545958685
 30
0.0
 40
46.27068530705999
100
AcDbArc
 50
180.0062765167
 51
182.4751931805
  0
ARC
  5
8FF
330
1F
100
AcDbEntity
  8
0
  6
Continuous
347
0
 62
     7
100
AcDbCircle
 10
-133.6661043490967
 20
128.9835547797931
 30
0.0
 40
46.43733724705999
100
AcDbArc
 50
177.9963601068
 51
180.5862945454
  0
ARC
  5
900
330
1F
100
AcDbEntity
  8
0
  6
Continuous
347
0
 62
     7
100
AcDbCircle
 10
-133.6658463562166
 20
-88.94069082118688
 30
0.0
 40
46.4375958597
100
AcDbArc
 50
179.413715048
 51
182.0036620206
  0
LINE
  5
901
330
1F
100
AcDbEntity
  8
0
  6
Continuous
347
0
 62
     7
100
AcDbLine
 10
-177.6997191366566
 20
135.9982450252131
 30
0.0
 11
-165.6949145052166
 21
136.4174620404731
 31
0.0
  0
LINE
  5
902
330
1F
100
AcDbEntity
  8
0
  6
Continuous
347
0
 62
     7
100
AcDbLine
 10
-165.6949145052166
 20
130.9208124749931
 30
0.0
 11
-177.6997341404367
 21
130.5015949415732
 31
0.0
  0
LINE
  5
903
330
1F
100
AcDbEntity
  8
0
  6
Continuous
347
0
 62
     7
100
AcDbLine
 10
-280.6949145072966
 20
127.0011233827131
 30
0.0
 11
-181.3687245773966
 21
127.8679299091931
 31
0.0
  0
LINE
  5
904
330
1F
100
AcDbEntity
  8
0
  6
Continuous
347
0
 62
     7
100
AcDbLine
 10
-180.1010105443767
 20
128.5083798068532
 30
0.0
 11
-177.7428902847566
 21
128.5083798068532
 31
0.0
  0
LINE
  5
905
330
1F
100
AcDbEntity
  8
0
  6
Continuous
347
0
 62
     7
100
AcDbLine
 10
-180.9830718841366
 20
122.3715048416132
 30
0.0
 11
-280.6949145022166
 21
121.5013328049731
 31
0.0
  0
LINE
  5
906
330
1F
100
AcDbEntity
  8
0
  6
Continuous
347
0
 62
     7
100
AcDbLine
 10
-280.6949145022166
 20
102.7991302831132
 30
0.0
 11
-180.9830718841366
 21
102.8850143988732
 31
0.0
  0
LINE
  5
907
330
1F
100
AcDbEntity
  8
0
  6
Continuous
347
0
 62
     7
100
AcDbLine
 10
-181.5464289463966
 20
100.6712956690931
 30
0.0
 11
-278.6949145067966
 21
100.5821881129932
 31
0.0
  0
LINE
  5
908
330
1F
100
AcDbEntity
  8
0
  6
Continuous
347
0
 62
     7
100
AcDbLine
 10
-280.6949145072966
 20
102.4747719630731
 30
0.0
 11
-278.6949145093367
 21
102.4553876254132
 31
0.0
  0
LINE
  5
909
330
1F
100
AcDbEntity
  8
0
  6
Continuous
347
0
 62
     7
100
AcDbLine
 10
-280.6949145072966
 20
102.4747719656131
 30
0.0
 11
-280.6949145072966
 21
127.0011233827131
 31
0.0
  0
LINE
  5
90A
330
1F
100
AcDbEntity
  8
0
  6
Continuous
347
0
 62
     7
100
AcDbLine
 10
-280.6949145072966
 20
-86.95826777562687
 30
0.0
 11
-280.6949145072966
 21
-62.43191635852684
 31
0.0
  0
LINE
  5
90B
330
1F
100
AcDbEntity
  8
0
  6
Continuous
347
0
 62
     7
100
AcDbLine
 10
-278.6949145067966
 20
-62.74887556966686
 30
0.0
 11
-278.6949145067966
 21
102.7908139649731
 31
0.0
  0
LINE
  5
90C
330
1F
100
AcDbEntity
  8
0
  6
Continuous
347
0
 62
     7
100
AcDbLine
 10
-180.1837466450966
 20
25.42142780743313
 30
0.0
 11
-180.6099656097766
 21
25.42142780743313
 31
0.0
  0
LINE
  5
90D
330
1F
100
AcDbEntity
  8
0
  6
Continuous
347
0
 62
     7
100
AcDbLine
 10
-180.6099656097766
 20
25.42142780743313
 30
0.0
 11
-180.1842378455366
 21
25.40696688131315
 31
0.0
  0
LINE
  5
90E
330
1F
100
AcDbEntity
  8
0
  6
Continuous
347
0
 62
     7
100
AcDbLine
 10
-180.6099656097766
 20
14.62142776663315
 30
0.0
 11
-180.1842378455366
 21
14.63588870037314
 31
0.0
  0
LINE
  5
90F
330
1F
100
AcDbEntity
  8
0
  6
Continuous
347
0
 62
     7
100
AcDbLine
 10
-180.6099656097766
 20
14.62142780219316
 30
0.0
 11
-180.1837466450966
 21
14.62142780219316
 31
0.0
  0
LINE
  5
910
330
1F
100
AcDbEntity
  8
0
  6
Continuous
347
0
 62
     7
100
AcDbLine
 10
-181.4083305891166
 20
127.8675823762331
 30
0.0
 11
-180.1010110879367
 21
134.0180370653931
 31
0.0
  0
LINE
  5
911
330
1F
100
AcDbEntity
  8
0
  6
Continuous
347
0
 62
     7
100
AcDbLine
 10
-180.1010105443767
 20
128.5083797916132
 30
0.0
 11
-181.0408699041766
 21
124.0866891633332
 31
0.0
  0
LINE
  5
912
330
1F
100
AcDbEntity
  8
0
  6
Continuous
347
0
 62
     7
100
AcDbLine
 10
-180.9830464587366
 20
102.8874507313131
 30
0.0
 11
-181.5464289387766
 21
100.6712956665531
 31
0.0
  0
LINE
  5
913
330
1F
100
AcDbEntity
  8
0
  6
Continuous
347
0
 62
     7
100
AcDbLine
 10
-181.5464289387766
 20
-60.63374985072686
 30
0.0
 11
-180.9824270314767
 21
-62.83850050090685
 31
0.0
  0
LINE
  5
914
330
1F
100
AcDbEntity
  8
0
  6
Continuous
347
0
 62
     7
100
AcDbLine
 10
-181.4083300811166
 20
-87.82472915674686
 30
0.0
 11
-180.1010104021366
 21
-93.97518468664686
 31
0.0
  0
LINE
  5
915
330
1F
100
AcDbEntity
  8
0
  6
Continuous
347
0
 62
     7
100
AcDbLine
 10
-181.0408699041766
 20
-84.04383355624685
 30
0.0
 11
-180.1010105443767
 21
-88.46552418452686
 31
0.0
  0
LINE
  5
916
330
1F
100
AcDbEntity
  8
0
  6
Continuous
347
0
 62
     7
100
AcDbLine
 10
-181.5464289463966
 20
-60.63374985072686
 30
0.0
 11
-181.5464289463966
 21
100.6712956690931
 31
0.0
  0
LINE
  5
917
330
1F
100
AcDbEntity
  8
0
  6
Continuous
347
0
 62
     7
100
AcDbLine
 10
-180.9830718841366
 20
102.8850143988732
 30
0.0
 11
-180.9830718841366
 21
122.3715048416132
 31
0.0
  0
LINE
  5
918
330
1F
100
AcDbEntity
  8
0
  6
Continuous
347
0
 62
     7
100
AcDbLine
 10
-180.9824270340167
 20
-82.32865486316686
 30
0.0
 11
-180.9824270340167
 21
-62.83850050090685
 31
0.0
  0
LINE
  5
919
330
1F
100
AcDbEntity
  8
0
  6
Continuous
347
0
 62
     7
100
AcDbLine
 10
-180.6099656097766
 20
25.42142784299314
 30
0.0
 11
-180.6099656097766
 21
14.62142776663315
 31
0.0
  0
LINE
  5
91A
330
1F
100
AcDbEntity
  8
0
  6
Continuous
347
0
 62
     7
100
AcDbLine
 10
-180.1837466425567
 20
25.42142784299314
 30
0.0
 11
-180.1837466425567
 21
14.62142776663315
 31
0.0
  0
LINE
  5
91B
330
1F
100
AcDbEntity
  8
0
  6
Continuous
347
0
 62
     7
100
AcDbLine
 10
-180.1010105443767
 20
128.5083797916132
 30
0.0
 11
-180.1010105443767
 21
-88.46552418452686
 31
0.0
  0
LINE
  5
91C
330
1F
100
AcDbEntity
  8
0
  6
Continuous
347
0
 62
     7
100
AcDbLine
 10
-177.7428887607566
 20
-88.46552422262687
 30
0.0
 11
-177.7428962943966
 21
128.5083798271731
 31
0.0
  0
LINE
  5
91D
330
1F
100
AcDbEntity
  8
0
  6
Continuous
347
0
 62
     7
100
AcDbLine
 10
-165.6949145077566
 20
-96.37460643338687
 30
0.0
 11
-165.6949145077566
 21
136.4174620404731
 31
0.0
  0
LINE
  5
91E
330
1F
100
AcDbEntity
  8
0
  6
Continuous
347
0
 62
     7
100
AcDbLine
 10
-278.6949145093367
 20
-62.41253201832686
 30
0.0
 11
-280.6949145072966
 21
-62.43191635598686
 31
0.0
  0
LINE
  5
91F
330
1F
100
AcDbEntity
  8
0
  6
Continuous
347
0
 62
     7
100
AcDbLine
 10
-180.9824270340167
 20
-62.83850050090685
 30
0.0
 11
-280.6949145022166
 21
-62.75673328064686
 31
0.0
  0
LINE
  5
920
330
1F
100
AcDbEntity
  8
0
  6
Continuous
347
0
 62
     7
100
AcDbLine
 10
-278.6949145067966
 20
-60.54464225398686
 30
0.0
 11
-181.5464289463966
 21
-60.63374985072686
 31
0.0
  0
LINE
  5
921
330
1F
100
AcDbEntity
  8
0
  6
Continuous
347
0
 62
     7
100
AcDbLine
 10
-280.6949145022166
 20
-81.45847720042684
 30
0.0
 11
-180.9824270340167
 21
-82.32865486316686
 31
0.0
  0
LINE
  5
922
330
1F
100
AcDbEntity
  8
0
  6
Continuous
347
0
 62
     7
100
AcDbLine
 10
-177.7428902847566
 20
-88.46552419976686
 30
0.0
 11
-180.1010105443767
 21
-88.46552419976686
 31
0.0
  0
LINE
  5
923
330
1F
100
AcDbEntity
  8
0
  6
Continuous
347
0
 62
     7
100
AcDbLine
 10
-181.3687156289766
 20
-87.82507438338686
 30
0.0
 11
-280.6949145022166
 21
-86.95826777562687
 31
0.0
  0
LINE
  5
924
330
1F
100
AcDbEntity
  8
0
  6
Continuous
347
0
 62
     7
100
AcDbLine
 10
-177.6997191112567
 20
-90.45873989836687
 30
0.0
 11
-165.6949145052166
 21
-90.87795686790687
 31
0.0
  0
LINE
  5
925
330
1F
100
AcDbEntity
  8
0
  6
Continuous
347
0
 62
     7
100
AcDbLine
 10
-177.6997311610166
 20
-95.95538899648685
 30
0.0
 11
-165.6949157218766
 21
-96.37460639020688
 31
0.0
  0
ENDSEC
  0
SECTION
  2
OBJECTS
  0
DICTIONARY
  5
C
330
0
100
AcDbDictionary
281
     1
  3
ACAD_COLOR
350
6C
  3
ACAD_GROUP
350
D
  3
ACAD_LAYOUT
350
1A
  3
ACAD_MATERIAL
350
6B
  3
ACAD_MLEADERSTYLE
350
701
  3
ACAD_MLINESTYLE
350
17
  3
ACAD_PLOTSETTINGS
350
19
  3
ACAD_PLOTSTYLENAME
350
E
  3
ACAD_SCALELIST
350
99
  3
ACAD_TABLESTYLE
350
92
  3
ACAD_VISUALSTYLE
350
6CB
  3
ACDB_RECOMPOSE_DATA
350
706
  3
AcDbVariableDictionary
350
59
  0
DICTIONARY
  5
935
330
1F
100
AcDbDictionary
280
     1
281
     1
  0
DICTIONARY
  5
6C
102
{ACAD_REACTORS
330
C
102
}
330
C
100
AcDbDictionary
281
     1
  0
DICTIONARY
  5
D
102
{ACAD_REACTORS
330
C
102
}
330
C
100
AcDbDictionary
281
     1
  0
DICTIONARY
  5
1A
102
{ACAD_REACTORS
330
C
102
}
330
C
100
AcDbDictionary
281
     1
  3
Layout1
350
74
  3
Model
350
22
  0
DICTIONARY
  5
6B
102
{ACAD_REACTORS
330
C
102
}
330
C
100
AcDbDictionary
281
     1
  3
BYBLOCK
350
6BB
  3
BYLAYER
350
6B3
  3
GLOBAL
350
6C3
  0
DICTIONARY
  5
701
102
{ACAD_REACTORS
330
C
102
}
330
C
100
AcDbDictionary
281
     1
  3
STANDARD
350
702
  0
DICTIONARY
  5
17
102
{ACAD_REACTORS
330
C
102
}
330
C
100
AcDbDictionary
281
     1
  3
Standard
350
18
  0
DICTIONARY
  5
19
102
{ACAD_REACTORS
330
C
102
}
330
C
100
AcDbDictionary
281
     1
  0
ACDBDICTIONARYWDFLT
  5
E
102
{ACAD_REACTORS
330
C
102
}
330
C
100
AcDbDictionary
281
     1
  3
Normal
350
F
100
AcDbDictionaryWithDefault
340
F
  0
DICTIONARY
  5
99
102
{ACAD_REACTORS
330
C
102
}
330
C
100
AcDbDictionary
281
     1
  3
A0
350
6E0
  3
A1
350
6E1
  3
A2
350
6E2
  3
A3
350
6E3
  3
A4
350
6E4
  3
A5
350
6E5
  3
A6
350
6E6
  3
A7
350
6E7
  3
A8
350
6E8
  3
A9
350
6E9
  3
B0
350
6EA
  3
B1
350
6EB
  3
B2
350
6EC
  3
B3
350
6ED
  3
B4
350
6EE
  3
B5
350
6EF
  3
B6
350
6F0
  3
B7
350
6F1
  3
B8
350
6F2
  3
B9
350
6F3
  3
C0
350
6F4
  3
C1
350
6F5
  3
C2
350
6F6
  3
C3
350
6F7
  3
C4
350
6F8
  3
C5
350
6F9
  3
C6
350
6FA
  3
C7
350
6FB
  3
C8
350
6FC
  3
C9
350
6FD
  3
D0
350
6FE
  3
D1
350
6FF
  3
D2
350
700
  0
DICTIONARY
  5
92
102
{ACAD_REACTORS
330
C
102
}
330
C
100
AcDbDictionary
281
     1
  3
Standard
350
6DE
  0
DICTIONARY
  5
6CB
102
{ACAD_REACTORS
330
C
102
}
330
C
100
AcDbDictionary
281
     1
  3
2DWIREFRAME
350
6D1
  3
3D HIDDEN
350
6D3
  3
3DWIREFRAME
350
6D2
  3
BASIC
350
6D0
  3
BRIGHTEN
350
6D7
  3
COLORCHANGE
350
6DB
  3
CONCEPTUAL
350
6D4
  3
DIM
350
6D6
  3
FACEPATTERN
350
6DA
  3
FLAT
350
6CC
  3
FLATWITHEDGES
350
6CD
  3
GOURAUD
350
6CE
  3
GOURAUDWITHEDGES
350
6CF
  3
LINEPATTERN
350
6D9
  3
REALISTIC
350
6D5
  3
THICKEN
350
6D8
  0
XRECORD
  5
706
102
{ACAD_REACTORS
330
C
102
}
330
C
100
AcDbXrecord
280
     1
 90
        1
330
6DE
  0
DICTIONARY
  5
59
102
{ACAD_REACTORS
330
C
102
}
330
C
100
AcDbDictionary
281
     1
  3
CANNOSCALE
350
734
  3
CMLEADERSTYLE
350
733
  3
CTABLESTYLE
350
732
  3
DIMASSOC
350
927
  3
HIDETEXT
350
5E
  0
LAYOUT
  5
74
102
{ACAD_REACTORS
330
1A
102
}
330
1A
100
AcDbPlotSettings
  1

  2
none_device
  4
Sun_Hi-Res_(1280.00_x_1600.00_Pixels)
  6

 40
0.0
 41
0.0
 42
0.0
 43
0.0
 44
1280.0
 45
1600.0
 46
0.0
 47
0.0
 48
0.0
 49
0.0
140
0.0
141
0.0
142
1.0
143
1.0
 70
   544
 72
     2
 73
     0
 74
     0
  7

 75
    16
 76
     0
 77
     2
 78
   300
147
1.0
148
0.0
149
0.0
100
AcDbLayout
  1
Layout1
 70
     1
 71
     1
 10
0.0
 20
0.0
 11
12.0
 21
9.0
 12
0.0
 22
0.0
 32
0.0
 14
1.000000000000000E+20
 24
1.000000000000000E+20
 34
1.000000000000000E+20
 15
-1.000000000000000E+20
 25
-1.000000000000000E+20
 35
-1.000000000000000E+20
146
0.0
 13
0.0
 23
0.0
 33
0.0
 16
1.0
 26
0.0
 36
0.0
 17
0.0
 27
1.0
 37
0.0
 76
     0
330
73
  0
LAYOUT
  5
22
102
{ACAD_REACTORS
330
1A
102
}
330
1A
100
AcDbPlotSettings
  1

  2
none_device
  4
Sun_Hi-Res_(1280.00_x_1600.00_Pixels)
  6

 40
0.0
 41
0.0
 42
0.0
 43
0.0
 44
1280.0
 45
1600.0
 46
0.0
 47
0.0
 48
0.0
 49
0.0
140
0.0
141
0.0
142
1.0
143
1.0
 70
 11936
 72
     2
 73
     0
 74
     0
  7

 75
     0
 76
     0
 77
     2
 78
   300
147
1.182134697054988
148
0.0
149
0.0
100
AcDbLayout
  1
Model
 70
     1
 71
     0
 10
0.0
 20
0.0
 11
22.0
 21
17.0
 12
0.0
 22
0.0
 32
0.0
 14
-526.4919033873166
 24
-251.1773297153068
 34
0.0
 15
298.7951618467833
 25
289.2185283351131
 35
0.0
146
0.0
 13
0.0
 23
0.0
 33
0.0
 16
1.0
 26
0.0
 36
0.0
 17
0.0
 27
1.0
 37
0.0
 76
     0
330
1F
331
97
  0
MATERIAL
  5
6BB
102
{ACAD_REACTORS
330
6B
102
}
102
{ACAD_XDICTIONARY
360
931
102
}
330
6B
100
AcDbMaterial
  1
ByBlock
 72
     0
 73
     2
 43
0.0208333333333333
 43
0.0
 43
0.0
 43
0.0
 43
0.0
 43
0.0208333333333333
 43
0.0
 43
0.0
 43
0.0
 43
0.0
 43
1.0
 43
0.0
 43
0.0
 43
0.0
 43
0.0
 43
1.0
 77
     0
 78
     2
 47
0.0208333333333333
 47
0.0
 47
0.0
 47
0.0
 47
0.0
 47
0.0208333333333333
 47
0.0
 47
0.0
 47
0.0
 47
0.0
 47
1.0
 47
0.0
 47
0.0
 47
0.0
 47
0.0
 47
1.0
171
     0
172
     2
 49
0.0208333333333333
 49
0.0
 49
0.0
 49
0.0
 49
0.0
 49
0.0208333333333333
 49
0.0
 49
0.0
 49
0.0
 49
0.0
 49
1.0
 49
0.0
 49
0.0
 49
0.0
 49
0.0
 49
1.0
175
     0
176
     2
142
0.0208333333333333
142
0.0
142
0.0
142
0.0
142
0.0
142
0.0208333333333333
142
0.0
142
0.0
142
0.0
142
0.0
142
1.0
142
0.0
142
0.0
142
0.0
142
0.0
142
1.0
179
     0
270
     2
144
0.0208333333333333
144
0.0
144
0.0
144
0.0
144
0.0
144
0.0208333333333333
144
0.0
144
0.0
144
0.0
144
0.0
144
1.0
144
0.0
144
0.0
144
0.0
144
0.0
144
1.0
274
     2
147
0.0208333333333333
147
0.0
147
0.0
147
0.0
147
0.0
147
0.0208333333333333
147
0.0
147
0.0
147
0.0
147
0.0
147
1.0
147
0.0
147
0.0
147
0.0
147
0.0
147
1.0
 94
       63
  0
MATERIAL
  5
6B3
102
{ACAD_REACTORS
330
6B
102
}
102
{ACAD_XDICTIONARY
360
932
102
}
330
6B
100
AcDbMaterial
  1
ByLayer
 72
     0
 73
     2
 43
0.0208333333333333
 43
0.0
 43
0.0
 43
0.0
 43
0.0
 43
0.0208333333333333
 43
0.0
 43
0.0
 43
0.0
 43
0.0
 43
1.0
 43
0.0
 43
0.0
 43
0.0
 43
0.0
 43
1.0
 77
     0
 78
     2
 47
0.0208333333333333
 47
0.0
 47
0.0
 47
0.0
 47
0.0
 47
0.0208333333333333
 47
0.0
 47
0.0
 47
0.0
 47
0.0
 47
1.0
 47
0.0
 47
0.0
 47
0.0
 47
0.0
 47
1.0
171
     0
172
     2
 49
0.0208333333333333
 49
0.0
 49
0.0
 49
0.0
 49
0.0
 49
0.0208333333333333
 49
0.0
 49
0.0
 49
0.0
 49
0.0
 49
1.0
 49
0.0
 49
0.0
 49
0.0
 49
0.0
 49
1.0
175
     0
176
     2
142
0.0208333333333333
142
0.0
142
0.0
142
0.0
142
0.0
142
0.0208333333333333
142
0.0
142
0.0
142
0.0
142
0.0
142
1.0
142
0.0
142
0.0
142
0.0
142
0.0
142
1.0
179
     0
270
     2
144
0.0208333333333333
144
0.0
144
0.0
144
0.0
144
0.0
144
0.0208333333333333
144
0.0
144
0.0
144
0.0
144
0.0
144
1.0
144
0.0
144
0.0
144
0.0
144
0.0
144
1.0
274
     2
147
0.0208333333333333
147
0.0
147
0.0
147
0.0
147
0.0
147
0.0208333333333333
147
0.0
147
0.0
147
0.0
147
0.0
147
1.0
147
0.0
147
0.0
147
0.0
147
0.0
147
1.0
 94
       63
  0
MATERIAL
  5
6C3
102
{ACAD_REACTORS
330
6B
102
}
102
{ACAD_XDICTIONARY
360
933
102
}
330
6B
100
AcDbMaterial
  1
Global
 72
     0
 73
     2
 43
0.0208333333333333
 43
0.0
 43
0.0
 43
0.0
 43
0.0
 43
0.0208333333333333
 43
0.0
 43
0.0
 43
0.0
 43
0.0
 43
1.0
 43
0.0
 43
0.0
 43
0.0
 43
0.0
 43
1.0
 77
     0
 78
     2
 47
0.0208333333333333
 47
0.0
 47
0.0
 47
0.0
 47
0.0
 47
0.0208333333333333
 47
0.0
 47
0.0
 47
0.0
 47
0.0
 47
1.0
 47
0.0
 47
0.0
 47
0.0
 47
0.0
 47
1.0
171
     0
172
     2
 49
0.0208333333333333
 49
0.0
 49
0.0
 49
0.0
 49
0.0
 49
0.0208333333333333
 49
0.0
 49
0.0
 49
0.0
 49
0.0
 49
1.0
 49
0.0
 49
0.0
 49
0.0
 49
0.0
 49
1.0
175
     0
176
     2
142
0.0208333333333333
142
0.0
142
0.0
142
0.0
142
0.0
142
0.0208333333333333
142
0.0
142
0.0
142
0.0
142
0.0
142
1.0
142
0.0
142
0.0
142
0.0
142
0.0
142
1.0
179
     0
270
     2
144
0.0208333333333333
144
0.0
144
0.0
144
0.0
144
0.0
144
0.0208333333333333
144
0.0
144
0.0
144
0.0
144
0.0
144
1.0
144
0.0
144
0.0
144
0.0
144
0.0
144
1.0
274
     2
147
0.0208333333333333
147
0.0
147
0.0
147
0.0
147
0.0
147
0.0208333333333333
147
0.0
147
0.0
147
0.0
147
0.0
147
1.0
147
0.0
147
0.0
147
0.0
147
0.0
147
1.0
 94
       63
  0
MLEADERSTYLE
  5
702
102
{ACAD_REACTORS
330
701
102
}
330
701
100
AcDbMLeaderStyle
170
     2
171
     1
172
     0
 90
        2
 40
0.0
 41
0.0
173
     1
 91
-1056964608
340
14
 92
       -2
290
     1
 42
0.09
291
     1
 43
0.36
  3
Standard
341
0
 44
0.18
300

342
11
174
     1
178
     6
175
     1
176
     0
 93
-1056964608
 45
0.18
292
     1
297
     1
 46
0.18
343
0
 94
-1056964608
 47
1.0
 49
1.0
140
1.0
293
     1
141
0.0
294
     1
177
     0
142
1.0
295
     1
296
     1
143
0.125
1001
ACAD_MLEADERVER
1070
     2
  0
MLINESTYLE
  5
18
102
{ACAD_REACTORS
330
17
102
}
330
17
100
AcDbMlineStyle
  2
Standard
 70
     0
  3

 62
   256
 51
90.0
 52
90.0
 71
     2
 49
0.5
 62
   256
  6
BYLAYER
 49
-0.5
 62
   256
  6
BYLAYER
  0
ACDBPLACEHOLDER
  5
F
102
{ACAD_REACTORS
330
E
102
}
330
E
  0
SCALE
  5
6E0
102
{ACAD_REACTORS
330
99
102
}
330
99
100
AcDbScale
 70
     0
300
1:1
140
1.0
141
1.0
290
     1
  0
SCALE
  5
6E1
102
{ACAD_REACTORS
330
99
102
}
330
99
100
AcDbScale
 70
     0
300
1:2
140
1.0
141
2.0
290
     0
  0
SCALE
  5
6E2
102
{ACAD_REACTORS
330
99
102
}
330
99
100
AcDbScale
 70
     0
300
1:4
140
1.0
141
4.0
290
     0
  0
SCALE
  5
6E3
102
{ACAD_REACTORS
330
99
102
}
330
99
100
AcDbScale
 70
     0
300
1:5
140
1.0
141
5.0
290
     0
  0
SCALE
  5
6E4
102
{ACAD_REACTORS
330
99
102
}
330
99
100
AcDbScale
 70
     0
300
1:8
140
1.0
141
8.0
290
     0
  0
SCALE
  5
6E5
102
{ACAD_REACTORS
330
99
102
}
330
99
100
AcDbScale
 70
     0
300
1:10
140
1.0
141
10.0
290
     0
  0
SCALE
  5
6E6
102
{ACAD_REACTORS
330
99
102
}
330
99
100
AcDbScale
 70
     0
300
1:16
140
1.0
141
16.0
290
     0
  0
SCALE
  5
6E7
102
{ACAD_REACTORS
330
99
102
}
330
99
100
AcDbScale
 70
     0
300
1:20
140
1.0
141
20.0
290
     0
  0
SCALE
  5
6E8
102
{ACAD_REACTORS
330
99
102
}
330
99
100
AcDbScale
 70
     0
300
1:30
140
1.0
141
30.0
290
     0
  0
SCALE
  5
6E9
102
{ACAD_REACTORS
330
99
102
}
330
99
100
AcDbScale
 70
     0
300
1:40
140
1.0
141
40.0
290
     0
  0
SCALE
  5
6EA
102
{ACAD_REACTORS
330
99
102
}
330
99
100
AcDbScale
 70
     0
300
1:50
140
1.0
141
50.0
290
     0
  0
SCALE
  5
6EB
102
{ACAD_REACTORS
330
99
102
}
330
99
100
AcDbScale
 70
     0
300
1:100
140
1.0
141
100.0
290
     0
  0
SCALE
  5
6EC
102
{ACAD_REACTORS
330
99
102
}
330
99
100
AcDbScale
 70
     0
300
2:1
140
2.0
141
1.0
290
     0
  0
SCALE
  5
6ED
102
{ACAD_REACTORS
330
99
102
}
330
99
100
AcDbScale
 70
     0
300
4:1
140
4.0
141
1.0
290
     0
  0
SCALE
  5
6EE
102
{ACAD_REACTORS
330
99
102
}
330
99
100
AcDbScale
 70
     0
300
8:1
140
8.0
141
1.0
290
     0
  0
SCALE
  5
6EF
102
{ACAD_REACTORS
330
99
102
}
330
99
100
AcDbScale
 70
     0
300
10:1
140
10.0
141
1.0
290
     0
  0
SCALE
  5
6F0
102
{ACAD_REACTORS
330
99
102
}
330
99
100
AcDbScale
 70
     0
300
100:1
140
100.0
141
1.0
290
     0
  0
SCALE
  5
6F1
102
{ACAD_REACTORS
330
99
102
}
330
99
100
AcDbScale
 70
     0
300
1/128" = 1'-0"
140
0.0078125
141
12.0
290
     0
  0
SCALE
  5
6F2
102
{ACAD_REACTORS
330
99
102
}
330
99
100
AcDbScale
 70
     0
300
1/64" = 1'-0"
140
0.015625
141
12.0
290
     0
  0
SCALE
  5
6F3
102
{ACAD_REACTORS
330
99
102
}
330
99
100
AcDbScale
 70
     0
300
1/32" = 1'-0"
140
0.03125
141
12.0
290
     0
  0
SCALE
  5
6F4
102
{ACAD_REACTORS
330
99
102
}
330
99
100
AcDbScale
 70
     0
300
1/16" = 1'-0"
140
0.0625
141
12.0
290
     0
  0
SCALE
  5
6F5
102
{ACAD_REACTORS
330
99
102
}
330
99
100
AcDbScale
 70
     0
300
3/32" = 1'-0"
140
0.09375
141
12.0
290
     0
  0
SCALE
  5
6F6
102
{ACAD_REACTORS
330
99
102
}
330
99
100
AcDbScale
 70
     0
300
1/8" = 1'-0"
140
0.125
141
12.0
290
     0
  0
SCALE
  5
6F7
102
{ACAD_REACTORS
330
99
102
}
330
99
100
AcDbScale
 70
     0
300
3/16" = 1'-0"
140
0.1875
141
12.0
290
     0
  0
SCALE
  5
6F8
102
{ACAD_REACTORS
330
99
102
}
330
99
100
AcDbScale
 70
     0
300
1/4" = 1'-0"
140
0.25
141
12.0
290
     0
  0
SCALE
  5
6F9
102
{ACAD_REACTORS
330
99
102
}
330
99
100
AcDbScale
 70
     0
300
3/8" = 1'-0"
140
0.375
141
12.0
290
     0
  0
SCALE
  5
6FA
102
{ACAD_REACTORS
330
99
102
}
330
99
100
AcDbScale
 70
     0
300
1/2" = 1'-0"
140
0.5
141
12.0
290
     0
  0
SCALE
  5
6FB
102
{ACAD_REACTORS
330
99
102
}
330
99
100
AcDbScale
 70
     0
300
3/4" = 1'-0"
140
0.75
141
12.0
290
     0
  0
SCALE
  5
6FC
102
{ACAD_REACTORS
330
99
102
}
330
99
100
AcDbScale
 70
     0
300
1" = 1'-0"
140
1.0
141
12.0
290
     0
  0
SCALE
  5
6FD
102
{ACAD_REACTORS
330
99
102
}
330
99
100
AcDbScale
 70
     0
300
1-1/2" = 1'-0"
140
1.5
141
12.0
290
     0
  0
SCALE
  5
6FE
102
{ACAD_REACTORS
330
99
102
}
330
99
100
AcDbScale
 70
     0
300
3" = 1'-0"
140
3.0
141
12.0
290
     0
  0
SCALE
  5
6FF
102
{ACAD_REACTORS
330
99
102
}
330
99
100
AcDbScale
 70
     0
300
6" = 1'-0"
140
6.0
141
12.0
290
     0
  0
SCALE
  5
700
102
{ACAD_REACTORS
330
99
102
}
330
99
100
AcDbScale
 70
     0
300
1'-0" = 1'-0"
140
12.0
141
12.0
290
     0
  0
TABLESTYLE
  5
6DE
102
{ACAD_REACTORS
330
92
102
}
102
{ACAD_XDICTIONARY
360
934
102
}
330
92
100
AcDbTableStyle
  3
Standard
 70
     0
 71
     0
 40
0.06
 41
0.06
280
     0
281
     0
  7
Standard
140
0.18
170
     2
 62
     0
 63
     7
283
     0
 90
      512
 91
        0
  1

274
    -2
284
     1
 64
     0
275
    -2
285
     1
 65
     0
276
    -2
286
     1
 66
     0
277
    -2
287
     1
 67
     0
278
    -2
288
     1
 68
     0
279
    -2
289
     1
 69
     0
  7
Standard
140
0.25
170
     5
 62
     0
 63
     7
283
     0
 90
      512
 91
        0
  1

274
    -2
284
     1
 64
     0
275
    -2
285
     1
 65
     0
276
    -2
286
     1
 66
     0
277
    -2
287
     1
 67
     0
278
    -2
288
     1
 68
     0
279
    -2
289
     1
 69
     0
  7
Standard
140
0.18
170
     5
 62
     0
 63
     7
283
     0
 90
      512
 91
        0
  1

274
    -2
284
     1
 64
     0
275
    -2
285
     1
 65
     0
276
    -2
286
     1
 66
     0
277
    -2
287
     1
 67
     0
278
    -2
288
     1
 68
     0
279
    -2
289
     1
 69
     0
  0
VISUALSTYLE
  5
6D1
102
{ACAD_REACTORS
330
6CB
102
}
330
6CB
100
AcDbVisualStyle
  2
2dWireframe
 70
     4
 71
     0
 72
     2
 73
     0
 90
        0
 40
-0.6
 41
-30.0
 62
     5
 63
     7
421
 16777215
 74
     1
 91
        4
 64
     7
 65
   257
 75
     1
175
     1
 42
1.0
 92
        0
 66
   257
 43
1.0
 76
     1
 77
     6
 78
     2
 67
     7
 79
     5
170
     0
171
     0
290
     1
174
     0
 93
        1
 44
0.0
173
     0
291
     1
 45
0.0
  0
VISUALSTYLE
  5
6D3
102
{ACAD_REACTORS
330
6CB
102
}
330
6CB
100
AcDbVisualStyle
  2
3D Hidden
 70
     6
 71
     1
 72
     2
 73
     2
 90
        0
 40
-0.6
 41
-30.0
 62
     5
 63
     7
421
 16777215
 74
     2
 91
        2
 64
     7
 65
   257
 75
     2
175
     1
 42
40.0
 92
        0
 66
   257
 43
1.0
 76
     1
 77
     6
 78
     2
 67
     7
 79
     3
170
     0
171
     0
290
     1
174
     0
 93
        1
 44
0.0
173
     0
291
     1
 45
0.0
  0
VISUALSTYLE
  5
6D2
102
{ACAD_REACTORS
330
6CB
102
}
330
6CB
100
AcDbVisualStyle
  2
3dWireframe
 70
     5
 71
     0
 72
     2
 73
     0
 90
        0
 40
-0.6
 41
-30.0
 62
     5
 63
     7
421
 16777215
 74
     1
 91
        4
 64
     7
 65
   257
 75
     1
175
     1
 42
1.0
 92
        0
 66
   257
 43
1.0
 76
     1
 77
     6
 78
     2
 67
     7
 79
     5
170
     0
171
     0
290
     1
174
     0
 93
        1
 44
0.0
173
     0
291
     1
 45
0.0
  0
VISUALSTYLE
  5
6D0
102
{ACAD_REACTORS
330
6CB
102
}
330
6CB
100
AcDbVisualStyle
  2
Basic
 70
     7
 71
     1
 72
     0
 73
     1
 90
        0
 40
-0.6
 41
-30.0
 62
     5
 63
     7
421
 16777215
 74
     0
 91
        4
 64
     7
 65
   257
 75
     1
175
     1
 42
1.0
 92
        8
 66
     7
 43
1.0
 76
     1
 77
     6
 78
     2
 67
     7
 79
     5
170
     0
171
     0
290
     1
174
     0
 93
        1
 44
0.0
173
     0
291
     1
 45
0.0
  0
VISUALSTYLE
  5
6D7
102
{ACAD_REACTORS
330
6CB
102
}
330
6CB
100
AcDbVisualStyle
  2
Brighten
 70
    12
 71
     2
 72
     2
 73
     0
 90
        0
 40
-0.6
 41
-30.0
 62
     5
 63
     7
421
 16777215
 74
     1
 91
        4
 64
     7
 65
   257
 75
     1
175
     1
 42
1.0
 92
        8
 66
     7
 43
1.0
 76
     1
 77
     6
 78
     2
 67
     7
 79
     5
170
     0
171
     0
290
     1
174
     0
 93
        1
 44
50.0
173
     0
291
     1
 45
0.0
  0
VISUALSTYLE
  5
6DB
102
{ACAD_REACTORS
330
6CB
102
}
330
6CB
100
AcDbVisualStyle
  2
ColorChange
 70
    16
 71
     2
 72
     2
 73
     3
 90
        0
 40
-0.6
 41
-30.0
 62
     5
 63
     8
421
  8421504
 74
     1
 91
        4
 64
     7
 65
   257
 75
     1
175
     1
 42
1.0
 92
        8
 66
     8
424
  8421504
 43
1.0
 76
     1
 77
     6
 78
     2
 67
     7
 79
     5
170
     0
171
     0
290
     1
174
     0
 93
        1
 44
0.0
173
     0
291
     1
 45
0.0
  0
VISUALSTYLE
  5
6D4
102
{ACAD_REACTORS
330
6CB
102
}
330
6CB
100
AcDbVisualStyle
  2
Conceptual
 70
     9
 71
     3
 72
     2
 73
     0
 90
        0
 40
-0.6
 41
-30.0
 62
     5
 63
     7
421
 16777215
 74
     2
 91
        2
 64
     7
 65
   257
 75
     1
175
     1
 42
40.0
 92
        8
 66
     7
 43
1.0
 76
     1
 77
     6
 78
     2
 67
     7
 79
     3
170
     0
171
     0
290
     1
174
     0
 93
        1
 44
0.0
173
     0
291
     1
 45
0.0
  0
VISUALSTYLE
  5
6D6
102
{ACAD_REACTORS
330
6CB
102
}
330
6CB
100
AcDbVisualStyle
  2
Dim
 70
    11
 71
     2
 72
     2
 73
     0
 90
        0
 40
-0.6
 41
-30.0
 62
     5
 63
     7
421
 16777215
 74
     1
 91
        4
 64
     7
 65
   257
 75
     1
175
     1
 42
1.0
 92
        8
 66
     7
 43
1.0
 76
     1
 77
     6
 78
     2
 67
     7
 79
     5
170
     0
171
     0
290
     1
174
     0
 93
        1
 44
-50.0
173
     0
291
     1
 45
0.0
  0
VISUALSTYLE
  5
6DA
102
{ACAD_REACTORS
330
6CB
102
}
330
6CB
100
AcDbVisualStyle
  2
Facepattern
 70
    15
 71
     2
 72
     2
 73
     0
 90
        0
 40
-0.6
 41
-30.0
 62
     5
 63
     7
421
 16777215
 74
     1
 91
        4
 64
     7
 65
   257
 75
     1
175
     1
 42
1.0
 92
        8
 66
     7
 43
1.0
 76
     1
 77
     6
 78
     2
 67
     7
 79
     5
170
     0
171
     0
290
     1
174
     0
 93
        1
 44
0.0
173
     0
291
     1
 45
0.0
  0
VISUALSTYLE
  5
6CC
102
{ACAD_REACTORS
330
6CB
102
}
330
6CB
100
AcDbVisualStyle
  2
Flat
 70
     0
 71
     2
 72
     1
 73
     1
 90
        2
 40
-0.6
 41
30.0
 62
     5
 63
     7
421
 16777215
 74
     0
 91
        4
 64
     7
 65
   257
 75
     1
175
     1
 42
1.0
 92
        8
 66
     7
 43
1.0
 76
     1
 77
     6
 78
     2
 67
     7
 79
     5
170
     0
171
     0
290
     1
174
     0
 93
       13
 44
0.0
173
     0
291
     1
 45
0.0
  0
VISUALSTYLE
  5
6CD
102
{ACAD_REACTORS
330
6CB
102
}
330
6CB
100
AcDbVisualStyle
  2
FlatWithEdges
 70
     1
 71
     2
 72
     1
 73
     1
 90
        2
 40
-0.6
 41
30.0
 62
     5
 63
     7
421
 16777215
 74
     1
 91
        4
 64
     7
 65
   257
 75
     1
175
     1
 42
1.0
 92
        0
 66
   257
 43
1.0
 76
     1
 77
     6
 78
     2
 67
     7
 79
     5
170
     0
171
     0
290
     1
174
     0
 93
       13
 44
0.0
173
     0
291
     1
 45
0.0
  0
VISUALSTYLE
  5
6CE
102
{ACAD_REACTORS
330
6CB
102
}
330
6CB
100
AcDbVisualStyle
  2
Gouraud
 70
     2
 71
     2
 72
     2
 73
     1
 90
        2
 40
-0.6
 41
30.0
 62
     5
 63
     7
421
 16777215
 74
     0
 91
        4
 64
     7
 65
   257
 75
     1
175
     1
 42
1.0
 92
        0
 66
     7
 43
1.0
 76
     1
 77
     6
 78
     2
 67
     7
 79
     5
170
     0
171
     0
290
     1
174
     0
 93
       13
 44
0.0
173
     0
291
     1
 45
0.0
  0
VISUALSTYLE
  5
6CF
102
{ACAD_REACTORS
330
6CB
102
}
330
6CB
100
AcDbVisualStyle
  2
GouraudWithEdges
 70
     3
 71
     2
 72
     2
 73
     1
 90
        2
 40
-0.6
 41
30.0
 62
     5
 63
     7
421
 16777215
 74
     1
 91
        4
 64
     7
 65
   257
 75
     1
175
     1
 42
1.0
 92
        0
 66
   257
 43
1.0
 76
     1
 77
     6
 78
     2
 67
     7
 79
     5
170
     0
171
     0
290
     1
174
     0
 93
       13
 44
0.0
173
     0
291
     1
 45
0.0
  0
VISUALSTYLE
  5
6D9
102
{ACAD_REACTORS
330
6CB
102
}
330
6CB
100
AcDbVisualStyle
  2
Linepattern
 70
    14
 71
     2
 72
     2
 73
     0
 90
        0
 40
-0.6
 41
-30.0
 62
     5
 63
     7
421
 16777215
 74
     1
 91
        4
 64
     7
 65
   257
 75
     7
175
     7
 42
1.0
 92
        8
 66
     7
 43
1.0
 76
     1
 77
     6
 78
     2
 67
     7
 79
     5
170
     0
171
     0
290
     1
174
     0
 93
        1
 44
0.0
173
     0
291
     1
 45
0.0
  0
VISUALSTYLE
  5
6D5
102
{ACAD_REACTORS
330
6CB
102
}
330
6CB
100
AcDbVisualStyle
  2
Realistic
 70
     8
 71
     2
 72
     2
 73
     0
 90
        0
 40
-0.6
 41
-30.0
 62
     5
 63
     7
421
 16777215
 74
     1
 91
        0
 64
     7
 65
   257
 75
     1
175
     1
 42
1.0
 92
        8
 66
     8
424
  7895160
 43
1.0
 76
     1
 77
     6
 78
     2
 67
     7
 79
     5
170
     0
171
     0
290
     1
174
     0
 93
       13
 44
0.0
173
     0
291
     1
 45
0.0
  0
VISUALSTYLE
  5
6D8
102
{ACAD_REACTORS
330
6CB
102
}
330
6CB
100
AcDbVisualStyle
  2
Thicken
 70
    13
 71
     2
 72
     2
 73
     0
 90
        0
 40
-0.6
 41
-30.0
 62
     5
 63
     7
421
 16777215
 74
     1
 91
        4
 64
     7
 65
   257
 75
     1
175
     1
 42
1.0
 92
       12
 66
     7
 43
1.0
 76
     1
 77
     6
 78
     2
 67
     7
 79
     5
170
     0
171
     0
290
     1
174
     0
 93
        1
 44
0.0
173
     0
291
     1
 45
0.0
  0
DICTIONARYVAR
  5
734
102
{ACAD_REACTORS
330
59
102
}
330
59
100
DictionaryVariables
280
     0
  1
1:1
  0
DICTIONARYVAR
  5
733
102
{ACAD_REACTORS
330
59
102
}
330
59
100
DictionaryVariables
280
     0
  1

  0
DICTIONARYVAR
  5
732
102
{ACAD_REACTORS
330
59
102
}
330
59
100
DictionaryVariables
280
     0
  1

  0
DICTIONARYVAR
  5
927
102
{ACAD_REACTORS
330
59
102
}
330
59
100
DictionaryVariables
280
     0
  1
2
  0
DICTIONARYVAR
  5
5E
102
{ACAD_REACTORS
330
59
102
}
330
59
100
DictionaryVariables
280
     0
  1
1
  0
DICTIONARY
  5
931
330
6BB
100
AcDbDictionary
280
     1
281
     1
  3
BUMPTILE
360
6BE
  3
DIFFUSETILE
360
6BD
  3
OPACITYTILE
360
6C1
  3
REFLECTIONTILE
360
6C0
  3
REFRACTIONTILE
360
6C2
  3
SPECULARTILE
360
6BF
  0
DICTIONARY
  5
932
330
6B3
100
AcDbDictionary
280
     1
281
     1
  3
BUMPTILE
360
6B6
  3
DIFFUSETILE
360
6B5
  3
OPACITYTILE
360
6B9
  3
REFLECTIONTILE
360
6B8
  3
REFRACTIONTILE
360
6BA
  3
SPECULARTILE
360
6B7
  0
DICTIONARY
  5
933
330
6C3
100
AcDbDictionary
280
     1
281
     1
  3
BUMPTILE
360
6C6
  3
DIFFUSETILE
360
6C5
  3
OPACITYTILE
360
6C9
  3
REFLECTIONTILE
360
6C8
  3
REFRACTIONTILE
360
6CA
  3
SPECULARTILE
360
6C7
  0
DICTIONARY
  5
934
330
6DE
100
AcDbDictionary
280
     1
281
     1
  3
ACAD_ROUNDTRIP_2008_TABLESTYLE_CELLSTYLEMAP
360
705
  0
XRECORD
  5
6BE
102
{ACAD_REACTORS
330
931
102
}
330
931
100
AcDbXrecord
280
     1
270
     1
271
     1
  0
XRECORD
  5
6BD
102
{ACAD_REACTORS
330
931
102
}
330
931
100
AcDbXrecord
280
     1
270
     1
271
     1
  0
XRECORD
  5
6C1
102
{ACAD_REACTORS
330
931
102
}
330
931
100
AcDbXrecord
280
     1
270
     1
271
     1
  0
XRECORD
  5
6C0
102
{ACAD_REACTORS
330
931
102
}
330
931
100
AcDbXrecord
280
     1
270
     1
271
     1
  0
XRECORD
  5
6C2
102
{ACAD_REACTORS
330
931
102
}
330
931
100
AcDbXrecord
280
     1
270
     1
271
     1
  0
XRECORD
  5
6BF
102
{ACAD_REACTORS
330
931
102
}
330
931
100
AcDbXrecord
280
     1
270
     1
271
     1
  0
XRECORD
  5
6B6
102
{ACAD_REACTORS
330
932
102
}
330
932
100
AcDbXrecord
280
     1
270
     1
271
     1
  0
XRECORD
  5
6B5
102
{ACAD_REACTORS
330
932
102
}
330
932
100
AcDbXrecord
280
     1
270
     1
271
     1
  0
XRECORD
  5
6B9
102
{ACAD_REACTORS
330
932
102
}
330
932
100
AcDbXrecord
280
     1
270
     1
271
     1
  0
XRECORD
  5
6B8
102
{ACAD_REACTORS
330
932
102
}
330
932
100
AcDbXrecord
280
     1
270
     1
271
     1
  0
XRECORD
  5
6BA
102
{ACAD_REACTORS
330
932
102
}
330
932
100
AcDbXrecord
280
     1
270
     1
271
     1
  0
XRECORD
  5
6B7
102
{ACAD_REACTORS
330
932
102
}
330
932
100
AcDbXrecord
280
     1
270
     1
271
     1
  0
XRECORD
  5
6C6
102
{ACAD_REACTORS
330
933
102
}
330
933
100
AcDbXrecord
280
     1
270
     1
271
     1
  0
XRECORD
  5
6C5
102
{ACAD_REACTORS
330
933
102
}
330
933
100
AcDbXrecord
280
     1
270
     1
271
     1
  0
XRECORD
  5
6C9
102
{ACAD_REACTORS
330
933
102
}
330
933
100
AcDbXrecord
280
     1
270
     1
271
     1
  0
XRECORD
  5
6C8
102
{ACAD_REACTORS
330
933
102
}
330
933
100
AcDbXrecord
280
     1
270
     1
271
     1
  0
XRECORD
  5
6CA
102
{ACAD_REACTORS
330
933
102
}
330
933
100
AcDbXrecord
280
     1
270
     1
271
     1
  0
XRECORD
  5
6C7
102
{ACAD_REACTORS
330
933
102
}
330
933
100
AcDbXrecord
280
     1
270
     1
271
     1
  0
CELLSTYLEMAP
  5
705
102
{ACAD_REACTORS
330
934
102
}
330
934
100
AcDbCellStyleMap
 90
        3
300
CELLSTYLE
  1
TABLEFORMAT_BEGIN
 90
        5
170
     1
 91
        0
 92
    32768
 62
   257
 93
        1
300
CONTENTFORMAT
  1
CONTENTFORMAT_BEGIN
 90
        0
 91
        0
 92
      512
 93
        0
300

 40
0.0
140
1.0
 94
        5
 62
     0
340
11
144
0.25
309
CONTENTFORMAT_END
171
     0
 94
        6
 95
        1
302
GRIDFORMAT
  1
GRIDFORMAT_BEGIN
 90
        0
 91
        1
 62
     0
 92
       -2
340
0
 93
        0
 40
0.0
309
GRIDFORMAT_END
 95
        1
302
GRIDFORMAT
  1
GRIDFORMAT_BEGIN
 90
        0
 91
        1
 62
     0
 92
       -2
340
0
 93
        0
 40
0.0
309
GRIDFORMAT_END
 95
        1
302
GRIDFORMAT
  1
GRIDFORMAT_BEGIN
 90
        0
 91
        1
 62
     0
 92
       -2
340
0
 93
        0
 40
0.0
309
GRIDFORMAT_END
 95
        1
302
GRIDFORMAT
  1
GRIDFORMAT_BEGIN
 90
        0
 91
        1
 62
     0
 92
       -2
340
0
 93
        0
 40
0.0
309
GRIDFORMAT_END
 95
        1
302
GRIDFORMAT
  1
GRIDFORMAT_BEGIN
 90
        0
 91
        1
 62
     0
 92
       -2
340
0
 93
        0
 40
0.0
309
GRIDFORMAT_END
 95
        1
302
GRIDFORMAT
  1
GRIDFORMAT_BEGIN
 90
        0
 91
        1
 62
     0
 92
       -2
340
0
 93
        0
 40
0.0
309
GRIDFORMAT_END
309
TABLEFORMAT_END
  1
CELLSTYLE_BEGIN
 90
        1
 91
        1
300
_TITLE
309
CELLSTYLE_END
300
CELLSTYLE
  1
TABLEFORMAT_BEGIN
 90
        5
170
     1
 91
        0
 92
        0
 62
   257
 93
        1
300
CONTENTFORMAT
  1
CONTENTFORMAT_BEGIN
 90
        0
 91
        0
 92
      512
 93
        0
300

 40
0.0
140
1.0
 94
        5
 62
     0
340
11
144
0.18
309
CONTENTFORMAT_END
171
     0
 94
        6
 95
        1
302
GRIDFORMAT
  1
GRIDFORMAT_BEGIN
 90
        0
 91
        1
 62
     0
 92
       -2
340
0
 93
        0
 40
0.0
309
GRIDFORMAT_END
 95
        1
302
GRIDFORMAT
  1
GRIDFORMAT_BEGIN
 90
        0
 91
        1
 62
     0
 92
       -2
340
0
 93
        0
 40
0.0
309
GRIDFORMAT_END
 95
        1
302
GRIDFORMAT
  1
GRIDFORMAT_BEGIN
 90
        0
 91
        1
 62
     0
 92
       -2
340
0
 93
        0
 40
0.0
309
GRIDFORMAT_END
 95
        1
302
GRIDFORMAT
  1
GRIDFORMAT_BEGIN
 90
        0
 91
        1
 62
     0
 92
       -2
340
0
 93
        0
 40
0.0
309
GRIDFORMAT_END
 95
        1
302
GRIDFORMAT
  1
GRIDFORMAT_BEGIN
 90
        0
 91
        1
 62
     0
 92
       -2
340
0
 93
        0
 40
0.0
309
GRIDFORMAT_END
 95
        1
302
GRIDFORMAT
  1
GRIDFORMAT_BEGIN
 90
        0
 91
        1
 62
     0
 92
       -2
340
0
 93
        0
 40
0.0
309
GRIDFORMAT_END
309
TABLEFORMAT_END
  1
CELLSTYLE_BEGIN
 90
        2
 91
        1
300
_HEADER
309
CELLSTYLE_END
300
CELLSTYLE
  1
TABLEFORMAT_BEGIN
 90
        5
170
     1
 91
        0
 92
        0
 62
   257
 93
        1
300
CONTENTFORMAT
  1
CONTENTFORMAT_BEGIN
 90
        0
 91
        0
 92
      512
 93
        0
300

 40
0.0
140
1.0
 94
        2
 62
     0
340
11
144
0.18
309
CONTENTFORMAT_END
171
     0
 94
        6
 95
        1
302
GRIDFORMAT
  1
GRIDFORMAT_BEGIN
 90
        0
 91
        1
 62
     0
 92
       -2
340
0
 93
        0
 40
0.0
309
GRIDFORMAT_END
 95
        1
302
GRIDFORMAT
  1
GRIDFORMAT_BEGIN
 90
        0
 91
        1
 62
     0
 92
       -2
340
0
 93
        0
 40
0.0
309
GRIDFORMAT_END
 95
        1
302
GRIDFORMAT
  1
GRIDFORMAT_BEGIN
 90
        0
 91
        1
 62
     0
 92
       -2
340
0
 93
        0
 40
0.0
309
GRIDFORMAT_END
 95
        1
302
GRIDFORMAT
  1
GRIDFORMAT_BEGIN
 90
        0
 91
        1
 62
     0
 92
       -2
340
0
 93
        0
 40
0.0
309
GRIDFORMAT_END
 95
        1
302
GRIDFORMAT
  1
GRIDFORMAT_BEGIN
 90
        0
 91
        1
 62
     0
 92
       -2
340
0
 93
        0
 40
0.0
309
GRIDFORMAT_END
 95
        1
302
GRIDFORMAT
  1
GRIDFORMAT_BEGIN
 90
        0
 91
        1
 62
     0
 92
       -2
340
0
 93
        0
 40
0.0
309
GRIDFORMAT_END
309
TABLEFORMAT_END
  1
CELLSTYLE_BEGIN
 90
        3
 91
        2
300
_DATA
309
CELLSTYLE_END
  0
ENDSEC
  0
EOF
