  0
SECTION
  2
HEADER
  9
$ACADVER
  1
AC1014
  9
$ACADMAINTVER
 70
     9
  9
$DWGCODEPAGE
  3
ANSI_1252
  9
$INSBASE
 10
0.0
 20
0.0
 30
0.0
  9
$EXTMIN
 10
0.0
 20
0.0
 30
0.0
  9
$EXTMAX
 10
420.0
 20
297.0
 30
0.0
  9
$LIMMIN
 10
0.0
 20
0.0
  9
$LIMMAX
 10
420.0
 20
297.0
  9
$ORTHOMODE
 70
     0
  9
$REGENMODE
 70
     1
  9
$FILLMODE
 70
     1
  9
$QTEXTMODE
 70
     0
  9
$MIRRTEXT
 70
     1
  9
$DRAGMODE
 70
     2
  9
$LTSCALE
 40
1.0
  9
$OSMODE
 70
    37
  9
$ATTMODE
 70
     1
  9
$TEXTSIZE
 40
3.5
  9
$TRACEWID
 40
1.0
  9
$TEXTSTYLE
  7
STANDARD
  9
$CLAYER
  8
0
  9
$CELTYPE
  6
BYLAYER
  9
$CECOLOR
 62
   256
  9
$CELTSCALE
 40
1.0
  9
$DELOBJ
 70
     1
  9
$DISPSILH
 70
     0
  9
$DIMSCALE
 40
1.0
  9
$DIMASZ
 40
6.0
  9
$DIMEXO
 40
1.0
  9
$DIMDLI
 40
3.75
  9
$DIMRND
 40
0.0
  9
$DIMDLE
 40
0.0
  9
$DIMEXE
 40
1.0
  9
$DIMTP
 40
0.0
  9
$DIMTM
 40
0.0
  9
$DIMTXT
 40
3.5
  9
$DIMCEN
 40
2.5
  9
$DIMTSZ
 40
0.0
  9
$DIMTOL
 70
     0
  9
$DIMLIM
 70
     0
  9
$DIMTIH
 70
     1
  9
$DIMTOH
 70
     1
  9
$DIMSE1
 70
     0
  9
$DIMSE2
 70
     0
  9
$DIMTAD
 70
     1
  9
$DIMZIN
 70
     0
  9
$DIMBLK
  1

  9
$DIMASO
 70
     1
  9
$DIMSHO
 70
     1
  9
$DIMPOST
  1

  9
$DIMAPOST
  1

  9
$DIMALT
 70
     0
  9
$DIMALTD
 70
     3
  9
$DIMALTF
 40
0.0393700787
  9
$DIMLFAC
 40
1.0
  9
$DIMTOFL
 70
     1
  9
$DIMTVP
 40
0.0
  9
$DIMTIX
 70
     0
  9
$DIMSOXD
 70
     0
  9
$DIMSAH
 70
     0
  9
$DIMBLK1
  1

  9
$DIMBLK2
  1

  9
$DIMSTYLE
  2
ISO-25
  9
$DIMCLRD
 70
     0
  9
$DIMCLRE
 70
     0
  9
$DIMCLRT
 70
     0
  9
$DIMTFAC
 40
1.0
  9
$DIMGAP
 40
1.524
  9
$DIMJUST
 70
     0
  9
$DIMSD1
 70
     0
  9
$DIMSD2
 70
     0
  9
$DIMTOLJ
 70
     0
  9
$DIMTZIN
 70
     0
  9
$DIMALTZ
 70
     0
  9
$DIMALTTZ
 70
     0
  9
$DIMFIT
 70
     3
  9
$DIMUPT
 70
     0
  9
$DIMUNIT
 70
     2
  9
$DIMDEC
 70
     2
  9
$DIMTDEC
 70
     2
  9
$DIMALTU
 70
     2
  9
$DIMALTTD
 70
     3
  9
$DIMTXSTY
  7
STANDARD
  9
$DIMAUNIT
 70
     0
  9
$LUNITS
 70
     2
  9
$LUPREC
 70
     2
  9
$SKETCHINC
 40
1.0
  9
$FILLETRAD
 40
10.0
  9
$AUNITS
 70
     0
  9
$AUPREC
 70
     2
  9
$MENU
  1
.
  9
$ELEVATION
 40
0.0
  9
$PELEVATION
 40
0.0
  9
$THICKNESS
 40
0.0
  9
$LIMCHECK
 70
     0
  9
$CHAMFERA
 40
10.0
  9
$CHAMFERB
 40
10.0
  9
$CHAMFERC
 40
20.0
  9
$CHAMFERD
 40
0.0
  9
$SKPOLY
 70
     0
  9
$TDCREATE
 40
2456581.355085555
  9
$TDUPDATE
 40
2456581.355086644
  9
$TDINDWG
 40
0.0000000116
  9
$TDUSRTIMER
 40
0.0000000116
  9
$USRTIMER
 70
     1
  9
$ANGBASE
 50
0.0
  9
$ANGDIR
 70
     0
  9
$PDMODE
 70
     0
  9
$PDSIZE
 40
-1.0
  9
$PLINEWID
 40
0.0
  9
$COORDS
 70
     1
  9
$SPLFRAME
 70
     0
  9
$SPLINETYPE
 70
     6
  9
$SPLINESEGS
 70
     8
  9
$ATTDIA
 70
     0
  9
$ATTREQ
 70
     1
  9
$HANDLING
 70
     1
  9
$HANDSEED
  5
609
  9
$SURFTAB1
 70
     6
  9
$SURFTAB2
 70
     6
  9
$SURFTYPE
 70
     6
  9
$SURFU
 70
     6
  9
$SURFV
 70
     6
  9
$UCSNAME
  2

  9
$UCSORG
 10
0.0
 20
0.0
 30
0.0
  9
$UCSXDIR
 10
1.0
 20
0.0
 30
0.0
  9
$UCSYDIR
 10
0.0
 20
1.0
 30
0.0
  9
$PUCSNAME
  2

  9
$PUCSORG
 10
0.0
 20
0.0
 30
0.0
  9
$PUCSXDIR
 10
1.0
 20
0.0
 30
0.0
  9
$PUCSYDIR
 10
0.0
 20
1.0
 30
0.0
  9
$USERI1
 70
     0
  9
$USERI2
 70
     0
  9
$USERI3
 70
     0
  9
$USERI4
 70
     0
  9
$USERI5
 70
     0
  9
$USERR1
 40
0.0
  9
$USERR2
 40
0.0
  9
$USERR3
 40
0.0
  9
$USERR4
 40
0.0
  9
$USERR5
 40
0.0
  9
$WORLDVIEW
 70
     1
  9
$SHADEDGE
 70
     3
  9
$SHADEDIF
 70
    70
  9
$TILEMODE
 70
     1
  9
$MAXACTVP
 70
    64
  9
$PINSBASE
 10
0.0
 20
0.0
 30
0.0
  9
$PLIMCHECK
 70
     0
  9
$PEXTMIN
 10
1.0000000000E+20
 20
1.0000000000E+20
 30
1.0000000000E+20
  9
$PEXTMAX
 10
-1.0000000000E+20
 20
-1.0000000000E+20
 30
-1.0000000000E+20
  9
$PLIMMIN
 10
0.0
 20
0.0
  9
$PLIMMAX
 10
420.0
 20
297.0
  9
$UNITMODE
 70
     0
  9
$VISRETAIN
 70
     1
  9
$PLINEGEN
 70
     0
  9
$PSLTSCALE
 70
     1
  9
$TREEDEPTH
 70
  3020
  9
$PICKSTYLE
 70
     1
  9
$CMLSTYLE
  2
STANDARD
  9
$CMLJUST
 70
     0
  9
$CMLSCALE
 40
20.0
  9
$PROXYGRAPHICS
 70
     1
  9
$MEASUREMENT
 70
     1
  0
ENDSEC
  0
SECTION
  2
CLASSES
  0
CLASS
  1
ACDBDICTIONARYWDFLT
  2
AcDbDictionaryWithDefault
  3
ObjectDBX Classes
 90
        0
280
     0
281
     0
  0
CLASS
  1
VISUALSTYLE
  2
AcDbVisualStyle
  3
ObjectDBX Classes
 90
     4095
280
     0
281
     0
  0
CLASS
  1
MATERIAL
  2
AcDbMaterial
  3
ObjectDBX Classes
 90
     1153
280
     0
281
     0
  0
CLASS
  1
XRECORD
  2
AcDbXrecord
  3
AutoCAD 2000
 90
        0
280
     0
281
     0
  0
CLASS
  1
LWPOLYLINE
  2
AcDbPolyline
  3
AutoCAD 2000
 90
        0
280
     0
281
     1
  0
CLASS
  1
HATCH
  2
AcDbHatch
  3
AutoCAD 2000
 90
        0
280
     0
281
     1
  0
ENDSEC
  0
SECTION
  2
TABLES
  0
TABLE
  2
VPORT
  5
8
330
0
100
AcDbSymbolTable
 70
     1
  0
VPORT
  5
29
330
8
100
AcDbSymbolTableRecord
100
AcDbViewportTableRecord
  2
*ACTIVE
 70
     0
 10
0.0
 20
0.0
 11
1.0
 21
1.0
 12
210.0
 22
148.5
 13
0.0
 23
0.0
 14
10.0
 24
10.0
 15
10.0
 25
10.0
 16
0.0
 26
0.0
 36
1.0
 17
0.0
 27
0.0
 37
0.0
 40
297.0
 41
1.4141414141
 42
50.0
 43
0.0
 44
0.0
 50
0.0
 51
0.0
 71
     0
 72
  2000
 73
     1
 74
     3
 75
     0
 76
     0
 77
     0
 78
     0
  0
ENDTAB
  0
TABLE
  2
LTYPE
  5
5
330
0
100
AcDbSymbolTable
 70
     6
  0
LTYPE
  5
14
330
5
100
AcDbSymbolTableRecord
100
AcDbLinetypeTableRecord
  2
BYBLOCK
 70
     0
  3

 72
    65
 73
     0
 40
0.0
  0
LTYPE
  5
15
330
5
100
AcDbSymbolTableRecord
100
AcDbLinetypeTableRecord
  2
BYLAYER
 70
     0
  3

 72
    65
 73
     0
 40
0.0
  0
LTYPE
  5
16
330
5
100
AcDbSymbolTableRecord
100
AcDbLinetypeTableRecord
  2
CONTINUOUS
 70
     0
  3
Solid line
 72
    65
 73
     0
 40
0.0
  0
LTYPE
  5
3F
330
5
100
AcDbSymbolTableRecord
100
AcDbLinetypeTableRecord
  2
HIDDEN
 70
     0
  3
Hidden __ __ __ __ __ __ __ __ __ __ __ __ __ __
 72
    65
 73
     2
 40
1.905
 49
1.27
 74
     0
 49
-0.635
 74
     0
  0
LTYPE
  5
40
330
5
100
AcDbSymbolTableRecord
100
AcDbLinetypeTableRecord
  2
PHANTOM
 70
     0
  3
Phantom ______  __  __  ______  __  __  ______
 72
    65
 73
     6
 40
12.7
 49
6.35
 74
     0
 49
-1.27
 74
     0
 49
1.27
 74
     0
 49
-1.27
 74
     0
 49
1.27
 74
     0
 49
-1.27
 74
     0
  0
LTYPE
  5
41
330
5
100
AcDbSymbolTableRecord
100
AcDbLinetypeTableRecord
  2
CENTER
 70
     0
  3
Center ____ _ ____ _ ____ _ ____ _ ____ _ ____
 72
    65
 73
     4
 40
10.16
 49
6.35
 74
     0
 49
-1.27
 74
     0
 49
1.27
 74
     0
 49
-1.27
 74
     0
  0
LTYPE
  5
42
330
5
100
AcDbSymbolTableRecord
100
AcDbLinetypeTableRecord
  2
CENTERX2
 70
     0
  3
Center (2x) ________  __  ________  __  _____
 72
    65
 73
     4
 40
20.32
 49
12.7
 74
     0
 49
-2.54
 74
     0
 49
2.54
 74
     0
 49
-2.54
 74
     0
  0
LTYPE
  5
43
330
5
100
AcDbSymbolTableRecord
100
AcDbLinetypeTableRecord
  2
DOT2
 70
     0
  3
Dot (.5x) ........................................
 72
    65
 73
     2
 40
0.635
 49
0.0
 74
     0
 49
-0.635
 74
     0
  0
ENDTAB
  0
TABLE
  2
LAYER
  5
2
330
0
100
AcDbSymbolTable
 70
     1
  0
LAYER
  5
10
330
2
100
AcDbSymbolTableRecord
100
AcDbLayerTableRecord
  2
0
 70
     0
 62
     7
  6
CONTINUOUS
  0
ENDTAB
  0
TABLE
  2
STYLE
  5
3
330
0
100
AcDbSymbolTable
 70
     1
  0
STYLE
  5
11
330
3
100
AcDbSymbolTableRecord
100
AcDbTextStyleTableRecord
  2
STANDARD
 70
     0
 40
0.0
 41
1.0
 50
0.0
 71
     0
 42
3.5
  3
txt
  4

  0
ENDTAB
  0
TABLE
  2
VIEW
  5
6
330
0
100
AcDbSymbolTable
 70
     0
  0
ENDTAB
  0
TABLE
  2
UCS
  5
7
330
0
100
AcDbSymbolTable
 70
     0
  0
ENDTAB
  0
TABLE
  2
APPID
  5
9
330
0
100
AcDbSymbolTable
 70
     1
  0
APPID
  5
12
330
9
100
AcDbSymbolTableRecord
100
AcDbRegAppTableRecord
  2
ACAD
 70
     0
  0
ENDTAB
  0
TABLE
  2
DIMSTYLE
  5
A
330
0
100
AcDbSymbolTable
 70
     1
  0
DIMSTYLE
105
27
330
A
100
AcDbSymbolTableRecord
100
AcDbDimStyleTableRecord
  2
ISO-25
 70
     0
  3

  4

  5

  6

  7

 40
1.0
 41
2.5
 42
0.625
 43
3.75
 44
1.25
 45
0.0
 46
0.0
 47
0.0
 48
0.0
140
2.5
141
2.5
142
0.0
143
0.0393700787
144
1.0
145
0.0
146
1.0
147
0.625
 71
     0
 72
     0
 73
     0
 74
     0
 75
     0
 76
     0
 77
     1
 78
     8
170
     0
171
     3
172
     1
173
     0
174
     0
175
     0
176
     0
177
     0
178
     0
270
     2
271
     2
272
     2
273
     2
274
     3
340
11
275
     0
280
     0
281
     0
282
     0
283
     0
284
     8
285
     0
286
     0
287
     3
288
     0
  0
ENDTAB
  0
TABLE
  2
BLOCK_RECORD
  5
1
330
0
100
AcDbSymbolTable
 70
     1
  0
BLOCK_RECORD
  5
1F
330
1
100
AcDbSymbolTableRecord
100
AcDbBlockTableRecord
  2
*MODEL_SPACE
  0
BLOCK_RECORD
  5
1B
330
1
100
AcDbSymbolTableRecord
100
AcDbBlockTableRecord
  2
*PAPER_SPACE
  0
BLOCK_RECORD
  5
23
330
1
100
AcDbSymbolTableRecord
100
AcDbBlockTableRecord
  2
*PAPER_SPACE0
  0
ENDTAB
  0
ENDSEC
  0
SECTION
  2
BLOCKS
  0
BLOCK
  5
20
330
1F
100
AcDbEntity
  8
0
100
AcDbBlockBegin
  2
*MODEL_SPACE
 70
     0
 10
0.0
 20
0.0
 30
0.0
  3
*MODEL_SPACE
  1

  0
ENDBLK
  5
21
330
1F
100
AcDbEntity
  8
0
100
AcDbBlockEnd
  0
BLOCK
  5
1C
330
1B
100
AcDbEntity
 67
     1
  8
0
100
AcDbBlockBegin
  2
*PAPER_SPACE
 70
     0
 10
0.0
 20
0.0
 30
0.0
  3
*PAPER_SPACE
  1

  0
ENDBLK
  5
1D
330
1B
100
AcDbEntity
 67
     1
  8
0
100
AcDbBlockEnd
  0
BLOCK
  5
24
330
23
100
AcDbEntity
  8
0
100
AcDbBlockBegin
  2
*PAPER_SPACE0
 70
     0
 10
0.0
 20
0.0
 30
0.0
  3
*PAPER_SPACE0
  1

  0
ENDBLK
  5
25
330
23
100
AcDbEntity
  8
0
100
AcDbBlockEnd
  0
ENDSEC
  0
SECTION
  2
ENTITIES
  0
LINE
  5
44
330
1F
100
AcDbEntity
  8
0
  6
CONTINUOUS
 62
     7
100
AcDbLine
 10
173.7108527284
 20
81.8930879081
 30
0.0
 11
173.7108527284
 21
74.545653149
 31
0.0
  0
LINE
  5
45
330
1F
100
AcDbEntity
  8
0
  6
CONTINUOUS
 62
     7
100
AcDbLine
 10
174.6426982406
 20
81.8930879081
 30
0.0
 11
173.7108527284
 21
81.8930879081
 31
0.0
  0
LINE
  5
46
330
1F
100
AcDbEntity
  8
0
  6
CONTINUOUS
 62
     7
100
AcDbLine
 10
174.6426982406
 20
81.8930879081
 30
0.0
 11
174.6426982406
 21
74.545653149
 31
0.0
  0
LINE
  5
47
330
1F
100
AcDbEntity
  8
0
  6
CONTINUOUS
 62
     7
100
AcDbLine
 10
174.6426982406
 20
74.545653149
 30
0.0
 11
173.7108527284
 21
74.545653149
 31
0.0
  0
LINE
  5
48
330
1F
100
AcDbEntity
  8
0
  6
CONTINUOUS
 62
     7
100
AcDbLine
 10
184.157515743
 20
81.9498166288
 30
0.0
 11
177.2641901459
 21
81.9498166288
 31
0.0
  0
ELLIPSE
  5
49
330
1F
100
AcDbEntity
  8
0
  6
CONTINUOUS
 62
     7
100
AcDbEllipse
 10
184.1581620156
 20
82.0370871035
 30
0.0
 11
10.00027417780956
 21
5.639694123260596E-6
 31
0.0
210
0.0
220
0.0
230
1.0
 40
0.0087266285
 41
4.712324355891058
 42
5.185064238511416
  0
LINE
  5
4A
330
1F
100
AcDbEntity
  8
0
  6
CONTINUOUS
 62
     7
100
AcDbLine
 10
188.7109855722
 20
81.9593831743
 30
0.0
 11
187.7108531605
 21
81.8930879081
 31
0.0
  0
LINE
  5
4B
330
1F
100
AcDbEntity
  8
0
  6
CONTINUOUS
 62
     7
100
AcDbLine
 10
187.7108531605
 20
81.8930879081
 30
0.0
 11
186.7790076483
 21
81.8930879081
 31
0.0
  0
ELLIPSE
  5
4C
330
1F
100
AcDbEntity
  8
0
  6
CONTINUOUS
 62
     7
100
AcDbEllipse
 10
180.7108529445
 20
81.8843669172
 30
0.0
 11
6.150000000000006
 21
0.0
 31
0.0
210
0.0
220
0.0
230
1.0
 40
0.0087268678
 41
0.163326799359221
 42
2.978265854230551
  0
LINE
  5
4D
330
1F
100
AcDbEntity
  8
0
  6
CONTINUOUS
 62
     7
100
AcDbLine
 10
173.7108527284
 20
81.8930879081
 30
0.0
 11
172.7107203167
 21
81.9593831743
 31
0.0
  0
ELLIPSE
  5
4E
330
1F
100
AcDbEntity
  8
0
  6
CONTINUOUS
 62
     7
100
AcDbEllipse
 10
177.2635438733
 20
82.0370871035
 30
0.0
 11
10.00027417780956
 21
-5.639694109049741E-6
 31
0.0
210
0.0
220
0.0
230
1.0
 40
0.0087266285
 41
4.2397137222592
 42
4.712453604878322
  0
LINE
  5
4F
330
1F
100
AcDbEntity
  8
0
  6
CONTINUOUS
 62
     7
100
AcDbLine
 10
186.7790076483
 20
81.8930879081
 30
0.0
 11
186.7790076483
 21
74.545653149
 31
0.0
  0
LINE
  5
50
330
1F
100
AcDbEntity
  8
0
  6
CONTINUOUS
 62
     7
100
AcDbLine
 10
186.7790076483
 20
74.545653149
 30
0.0
 11
174.6426982406
 21
74.545653149
 31
0.0
  0
LINE
  5
51
330
1F
100
AcDbEntity
  8
0
  6
CONTINUOUS
 62
     7
100
AcDbLine
 10
187.7108531605
 20
81.8930879081
 30
0.0
 11
187.7108531605
 21
74.545653149
 31
0.0
  0
LINE
  5
52
330
1F
100
AcDbEntity
  8
0
  6
CONTINUOUS
 62
     7
100
AcDbLine
 10
187.7108531605
 20
74.545653149
 30
0.0
 11
186.7790076483
 21
74.545653149
 31
0.0
  0
ELLIPSE
  5
53
330
1F
100
AcDbEntity
  8
0
  6
CONTINUOUS
 62
     7
100
AcDbEllipse
 10
189.8831191547
 20
855.1708699657
 30
0.0
 11
0.1718365190943132
 21
1362.151924500799
 31
0.0
210
0.0
220
0.0
230
1.0
 40
0.0009582356
 41
2.17443247644009
 42
2.181058631637264
  0
LINE
  5
54
330
1F
100
AcDbEntity
  8
0
  6
CONTINUOUS
 62
     7
100
AcDbLine
 10
188.7149828087
 20
74.545653149
 30
0.0
 11
187.7108531605
 21
74.545653149
 31
0.0
  0
ELLIPSE
  5
55
330
1F
100
AcDbEntity
  8
0
  6
CONTINUOUS
 62
     7
100
AcDbEllipse
 10
171.5385867343
 20
855.1708699657
 30
0.0
 11
-0.1718365190943132
 21
1362.151924500799
 31
0.0
210
0.0
220
0.0
230
1.0
 40
0.0009582356
 41
4.102126675547109
 42
4.108752830744193
  0
LINE
  5
56
330
1F
100
AcDbEntity
  8
0
  6
CONTINUOUS
 62
     7
100
AcDbLine
 10
173.7108527284
 20
74.545653149
 30
0.0
 11
172.7067230802
 21
74.545653149
 31
0.0
  0
LINE
  5
57
330
1F
100
AcDbEntity
  8
0
  6
CONTINUOUS
 62
     7
100
AcDbLine
 10
180.7480324621
 20
177.7469642306
 30
0.0
 11
180.748032433
 21
177.7732238019
 31
0.0
  0
ARC
  5
58
330
1F
100
AcDbEntity
  8
0
  6
CONTINUOUS
 62
     7
100
AcDbCircle
 10
180.7158446982
 20
178.5040575891
 30
0.0
 40
0.757777279643977
100
AcDbArc
 50
182.7720702651
 51
272.43445944
  0
LINE
  5
59
330
1F
100
AcDbEntity
  8
0
  6
CONTINUOUS
 62
     7
100
AcDbLine
 10
179.9589541458
 20
178.4674092973
 30
0.0
 11
179.9852119127
 21
178.4673347915
 31
0.0
  0
ARC
  5
5A
330
1F
100
AcDbEntity
  8
0
  6
CONTINUOUS
 62
     7
100
AcDbCircle
 10
180.7156647717
 20
178.5038733629
 30
0.0
 40
0.7313661507021256
100
AcDbArc
 50
182.8636515132
 51
272.5365356469
  0
LWPOLYLINE
  5
5B
330
1F
100
AcDbEntity
  8
0
  6
CONTINUOUS
 62
     7
100
AcDbPolyline
 90
        4
 70
   128
 43
0.0
 10
181.5371075479
 20
178.4672863627
 10
181.529230538
 20
178.4673012639
 10
181.5213535281
 20
178.4673161651
 10
181.5108529243
 20
178.4673347915
  0
ARC
  5
5C
330
1F
100
AcDbEntity
  8
0
  6
CONTINUOUS
 62
     7
100
AcDbCircle
 10
180.7879615221
 20
178.4955802762
 30
0.0
 40
0.7496801407712588
100
AcDbArc
 50
266.9468983817
 51
357.8370683175
  0
ARC
  5
5D
330
1F
100
AcDbEntity
  8
0
  6
CONTINUOUS
 62
     7
100
AcDbCircle
 10
180.7878784396
 20
178.4956547115
 30
0.0
 40
0.7235289374638971
100
AcDbArc
 50
266.8430238417
 51
357.7567911745
  0
ARC
  5
5E
330
1F
100
AcDbEntity
  8
0
  6
CONTINUOUS
 62
     7
100
AcDbCircle
 10
183.1386686857
 20
90.5394285355
 30
0.0
 40
17.91740820466435
100
AcDbArc
 50
90.6732429063
 51
90.7572230581
  0
ARC
  5
5F
330
1F
100
AcDbEntity
  8
0
  6
CONTINUOUS
 62
     7
100
AcDbCircle
 10
182.1096237859
 20
108.5025178292
 30
0.0
 40
0.8198583147172047
100
AcDbArc
 50
263.0770055664
 51
356.7193443213
  0
LWPOLYLINE
  5
60
330
1F
100
AcDbEntity
  8
0
  6
CONTINUOUS
 62
     7
100
AcDbPolyline
 90
        4
 70
   128
 43
0.0
 10
182.0108019581
 20
107.6886370624
 10
182.0107871733
 20
107.6965197767
 10
182.0107723886
 20
107.7043875898
 10
182.0107528308
 20
107.7148929084
  0
ARC
  5
61
330
1F
100
AcDbEntity
  8
0
  6
CONTINUOUS
 62
     7
100
AcDbCircle
 10
182.110271334
 20
108.5015839063
 30
0.0
 40
0.7929606917270724
100
AcDbArc
 50
262.7902279136
 51
356.651804532
  0
ARC
  5
62
330
1F
100
AcDbEntity
  8
0
  6
CONTINUOUS
 62
     7
100
AcDbCircle
 10
181.9849102573
 20
108.6327914635
 30
0.0
 40
0.9445093505562664
100
AcDbArc
 50
232.4546869712
 51
271.570837855
  0
ARC
  5
63
330
1F
100
AcDbEntity
  8
0
  6
CONTINUOUS
 62
     7
100
AcDbCircle
 10
166.1405923703
 20
120.4591013913
 30
0.0
 40
19.78054168449808
100
AcDbArc
 50
320.5254733229
 51
320.6015340232
  0
ARC
  5
64
330
1F
100
AcDbEntity
  8
0
  6
CONTINUOUS
 62
     7
100
AcDbCircle
 10
181.9847475943
 20
108.6323032548
 30
0.0
 40
0.9177788491569684
100
AcDbArc
 50
232.4982647724
 51
271.6236915341
  0
LINE
  5
65
330
1F
100
AcDbEntity
  8
0
  6
CONTINUOUS
 62
     7
100
AcDbLine
 10
180.72068793
 20
179.1905067707
 30
0.0
 11
180.7206886813
 21
179.1642471994
 31
0.0
  0
ARC
  5
66
330
1F
100
AcDbEntity
  8
0
  6
CONTINUOUS
 62
     7
100
AcDbCircle
 10
180.7637158629
 20
178.4166548151
 30
0.0
 40
0.7750472580002759
100
AcDbArc
 50
3.7456313891
 51
93.1824989673
  0
ARC
  5
67
330
1F
100
AcDbEntity
  8
0
  6
CONTINUOUS
 62
     7
100
AcDbCircle
 10
180.7637532689
 20
178.4166710127
 30
0.0
 40
0.7488155404180832
100
AcDbArc
 50
3.8795134639
 51
93.2969151232
  0
LWPOLYLINE
  5
68
330
1F
100
AcDbEntity
  8
0
  6
CONTINUOUS
 62
     7
100
AcDbPolyline
 90
        4
 70
   128
 43
0.0
 10
181.537107839
 20
188.6691279555
 10
181.5292311783
 20
188.6691428567
 10
181.5213545176
 20
188.6691577579
 10
181.5108529243
 20
188.6691763843
  0
ARC
  5
69
330
1F
100
AcDbEntity
  8
0
  6
CONTINUOUS
 62
     7
100
AcDbCircle
 10
180.6344027159
 20
188.6579950661
 30
0.0
 40
0.902773770339341
100
AcDbArc
 50
269.2465865895
 51
0.7065820572
  0
LINE
  5
6A
330
1F
100
AcDbEntity
  8
0
  6
CONTINUOUS
 62
     7
100
AcDbLine
 10
180.622531994
 20
187.7552993442
 30
0.0
 11
180.6225316302
 21
187.7815551902
 31
0.0
  0
ARC
  5
6B
330
1F
100
AcDbEntity
  8
0
  6
CONTINUOUS
 62
     7
100
AcDbCircle
 10
180.6339766433
 20
188.6584227201
 30
0.0
 40
0.8769422177885114
100
AcDbArc
 50
269.2522089233
 51
0.7026175773
  0
ARC
  5
6C
330
1F
100
AcDbEntity
  8
0
  6
CONTINUOUS
 62
     7
100
AcDbCircle
 10
180.5961772316
 20
188.5363604615
 30
0.0
 40
0.7815056254172319
100
AcDbArc
 50
191.2786014071
 51
271.9325555255
  0
LWPOLYLINE
  5
6D
330
1F
100
AcDbEntity
  8
0
  6
CONTINUOUS
 62
     7
100
AcDbPolyline
 90
        3
 70
   128
 43
0.0
 10
179.8297642215
 20
188.3835136736
 10
179.8401706453
 20
188.3966378714
 10
179.8505965105
 20
188.4097620691
  0
ARC
  5
6E
330
1F
100
AcDbEntity
  8
0
  6
CONTINUOUS
 62
     7
100
AcDbCircle
 10
180.5970489663
 20
188.5386193176
 30
0.0
 40
0.7574928773414009
100
AcDbArc
 50
189.7942251244
 51
271.9278394142
  0
LINE
  5
6F
330
1F
100
AcDbEntity
  8
0
  6
CONTINUOUS
 62
     7
100
AcDbLine
 10
180.6667145845
 20
189.4680648888
 30
0.0
 11
180.6667023027
 21
189.4418127681
 31
0.0
  0
ARC
  5
70
330
1F
100
AcDbEntity
  8
0
  6
CONTINUOUS
 62
     7
100
AcDbCircle
 10
180.730773009
 20
188.6642638965
 30
0.0
 40
0.8063495005439797
100
AcDbArc
 50
0.3456215265
 51
94.5565216551
  0
ARC
  5
71
330
1F
100
AcDbEntity
  8
0
  6
CONTINUOUS
 62
     7
100
AcDbCircle
 10
180.7309533801
 20
188.6645505883
 30
0.0
 40
0.7799132624729903
100
AcDbArc
 50
0.3398328403
 51
94.7255157712
  0
LWPOLYLINE
  5
72
330
1F
100
AcDbEntity
  8
0
  6
CONTINUOUS
 62
     7
100
AcDbPolyline
 90
        4
 70
   128
 43
0.0
 10
182.018349047
 20
137.7136126007
 10
182.0183838552
 20
137.7214953149
 10
182.0184186634
 20
137.7293780292
 10
182.0184651131
 20
137.7398907984
  0
LWPOLYLINE
  5
73
330
1F
100
AcDbEntity
  8
0
  6
CONTINUOUS
 62
     7
100
AcDbPolyline
 90
        6
 70
   128
 43
0.0
 10
181.1256319177
 20
139.2206564392
 10
181.1878556744
 20
138.4980320776
 10
181.307109289
 20
138.1707653249
 10
181.5278490956
 20
137.8971949066
 10
181.7898030693
 20
137.7512156809
 10
182.018349047
 20
137.7136126007
  0
LINE
  5
74
330
1F
100
AcDbEntity
  8
0
  6
CONTINUOUS
 62
     7
100
AcDbLine
 10
181.1256319177
 20
139.2206564392
 30
0.0
 11
181.151878596
 21
139.2206564392
 31
0.0
  0
LWPOLYLINE
  5
75
330
1F
100
AcDbEntity
  8
0
  6
CONTINUOUS
 62
     7
100
AcDbPolyline
 90
        6
 70
   128
 43
0.0
 10
181.151878596
 20
139.2206564392
 10
181.2147378639
 20
138.4980395282
 10
181.3305865342
 20
138.1825074399
 10
181.5434241851
 20
137.9183694566
 10
181.7974642452
 20
137.7763315881
 10
182.0184651131
 20
137.7398907984
  0
LINE
  5
76
330
1F
100
AcDbEntity
  8
0
  6
CONTINUOUS
 62
     7
100
AcDbLine
 10
182.7941095523
 20
138.3319884385
 30
0.0
 11
182.7693666398
 21
138.3407503212
 31
0.0
  0
ARC
  5
77
330
1F
100
AcDbEntity
  8
0
  6
CONTINUOUS
 62
     7
100
AcDbCircle
 10
181.9806824479
 20
138.556654562
 30
0.0
 40
0.8438830021574687
100
AcDbArc
 50
272.5582389899
 51
344.5600073271
  0
ARC
  5
78
330
1F
100
AcDbEntity
  8
0
  6
CONTINUOUS
 62
     7
100
AcDbCircle
 10
181.981026608
 20
138.5563133507
 30
0.0
 40
0.8172805059835391
100
AcDbArc
 50
272.6255603047
 51
344.7069242718
  0
ARC
  5
79
330
1F
100
AcDbEntity
  8
0
  6
CONTINUOUS
 62
     7
100
AcDbCircle
 10
180.6810077845
 20
178.4695411073
 30
0.0
 40
0.7220567857102493
100
AcDbArc
 50
86.8497619681
 51
180.169161059
  0
ARC
  5
7A
330
1F
100
AcDbEntity
  8
0
  6
CONTINUOUS
 62
     7
100
AcDbCircle
 10
180.6810208391
 20
178.4695663344
 30
0.0
 40
0.6958125048354138
100
AcDbArc
 50
86.7318309868
 51
180.1837538235
  0
LWPOLYLINE
  5
7B
330
1F
100
AcDbEntity
  8
0
  6
CONTINUOUS
 62
     7
100
AcDbPolyline
 90
        3
 70
   128
 43
0.0
 10
181.2627225716
 20
119.9033126081
 10
181.2745848272
 20
119.8901921357
 10
181.2864939982
 20
119.8770716632
  0
ARC
  5
7C
330
1F
100
AcDbEntity
  8
0
  6
CONTINUOUS
 62
     7
100
AcDbCircle
 10
182.0985597674
 20
119.8746884079
 30
0.0
 40
0.8363271864247402
100
AcDbArc
 50
90.0590970177
 51
178.0386070697
  0
LWPOLYLINE
  5
7D
330
1F
100
AcDbEntity
  8
0
  6
CONTINUOUS
 62
     7
100
AcDbPolyline
 90
        4
 70
   128
 43
0.0
 10
182.0976971483
 20
120.7110151494
 10
182.0976955185
 20
120.7031398858
 10
182.0976940051
 20
120.6952646221
 10
182.0976919096
 20
120.6847593034
  0
ARC
  5
7E
330
1F
100
AcDbEntity
  8
0
  6
CONTINUOUS
 62
     7
100
AcDbCircle
 10
182.1053786077
 20
119.865833659
 30
0.0
 40
0.8189617185159442
100
AcDbArc
 50
90.5377807242
 51
179.213747839
  0
ARC
  5
7F
330
1F
100
AcDbEntity
  8
0
  6
CONTINUOUS
 62
     7
100
AcDbCircle
 10
182.1235922648
 20
119.9514135297
 30
0.0
 40
0.7600428788767171
100
AcDbArc
 50
1.7835653115
 51
91.9524794256
  0
ARC
  5
80
330
1F
100
AcDbEntity
  8
0
  6
CONTINUOUS
 62
     7
100
AcDbCircle
 10
182.8836287775
 20
122.2395731994
 30
0.0
 40
2.264504078446114
100
AcDbArc
 50
269.3264056993
 51
269.9908445228
  0
ARC
  5
81
330
1F
100
AcDbEntity
  8
0
  6
CONTINUOUS
 62
     7
100
AcDbCircle
 10
182.1236981036
 20
119.9515287866
 30
0.0
 40
0.7336915652188263
100
AcDbArc
 50
1.8508652861
 51
92.0313131867
  0
LWPOLYLINE
  5
82
330
1F
100
AcDbEntity
  8
0
  6
CONTINUOUS
 62
     7
100
AcDbPolyline
 90
        3
 70
   128
 43
0.0
 10
179.9307982271
 20
189.3039434994
 10
179.9131387213
 20
189.2831638301
 10
179.8954683306
 20
189.2623245562
  0
ARC
  5
83
330
1F
100
AcDbEntity
  8
0
  6
CONTINUOUS
 62
     7
100
AcDbCircle
 10
180.7675956724
 20
187.2837402142
 30
0.0
 40
2.18665298528436
100
AcDbArc
 50
92.6442755137
 51
112.5000446822
  0
ARC
  5
84
330
1F
100
AcDbEntity
  8
0
  6
CONTINUOUS
 62
     7
100
AcDbCircle
 10
180.7793097489
 20
187.2112728748
 30
0.0
 40
2.233380543603356
100
AcDbArc
 50
92.8900888558
 51
113.3122289916
  0
ARC
  5
85
330
1F
100
AcDbEntity
  8
0
  6
CONTINUOUS
 62
     7
100
AcDbCircle
 10
181.46430833
 20
173.8530092561
 30
0.0
 40
15.35283207799138
100
AcDbArc
 50
270.341162181
 51
270.4391602338
  0
ARC
  5
86
330
1F
100
AcDbEntity
  8
0
  6
CONTINUOUS
 62
     7
100
AcDbCircle
 10
180.769734821
 20
158.5383838908
 30
0.0
 40
0.8131256475059397
100
AcDbArc
 50
263.6129900337
 51
357.3386373475
  0
LINE
  5
87
330
1F
100
AcDbEntity
  8
0
  6
CONTINUOUS
 62
     7
100
AcDbLine
 10
180.6792797777
 20
157.7303051795
 30
0.0
 11
180.6793224948
 21
157.7565535749
 31
0.0
  0
ARC
  5
88
330
1F
100
AcDbEntity
  8
0
  6
CONTINUOUS
 62
     7
100
AcDbCircle
 10
180.7703815523
 20
158.5374782292
 30
0.0
 40
0.7862156623510589
100
AcDbArc
 50
263.349108682
 51
357.300506617
  0
LINE
  5
89
330
1F
100
AcDbEntity
  8
0
  6
CONTINUOUS
 62
     7
100
AcDbLine
 10
180.6997127912
 20
159.2635750617
 30
0.0
 11
180.6996550274
 21
159.2373266662
 31
0.0
  0
ARC
  5
8A
330
1F
100
AcDbEntity
  8
0
  6
CONTINUOUS
 62
     7
100
AcDbCircle
 10
180.7440991749
 20
158.4233017303
 30
0.0
 40
0.8414448421815993
100
AcDbArc
 50
5.2727612237
 51
93.0237672467
  0
ARC
  5
8B
330
1F
100
AcDbEntity
  8
0
  6
CONTINUOUS
 62
     7
100
AcDbCircle
 10
180.7441840104
 20
158.4233487594
 30
0.0
 40
0.815194984677607
100
AcDbArc
 50
5.4271074104
 51
93.1312671181
  0
LWPOLYLINE
  5
8C
330
1F
100
AcDbEntity
  8
0
  6
CONTINUOUS
 62
     7
100
AcDbPolyline
 90
        3
 70
   128
 43
0.0
 10
180.3697016564
 20
179.4543169285
 10
180.3969079172
 20
179.4719450022
 10
180.4241141488
 20
179.4895693506
  0
LINE
  5
8D
330
1F
100
AcDbEntity
  8
0
  6
CONTINUOUS
 62
     7
100
AcDbLine
 10
181.3137566621
 20
180.8979563261
 30
0.0
 11
180.3697016564
 21
179.4543169285
 31
0.0
  0
LINE
  5
8E
330
1F
100
AcDbEntity
  8
0
  6
CONTINUOUS
 62
     7
100
AcDbLine
 10
181.3137566621
 20
180.8979563261
 30
0.0
 11
181.3488938331
 21
180.9037305261
 31
0.0
  0
LINE
  5
8F
330
1F
100
AcDbEntity
  8
0
  6
CONTINUOUS
 62
     7
100
AcDbLine
 10
181.3488938331
 20
180.9037305261
 30
0.0
 11
180.4241141488
 21
179.4895693506
 31
0.0
  0
LINE
  5
90
330
1F
100
AcDbEntity
  8
0
  6
CONTINUOUS
 62
     7
100
AcDbLine
 10
180.7865823191
 20
179.4969677771
 30
0.0
 11
180.786594128
 21
179.5232236231
 31
0.0
  0
ARC
  5
91
330
1F
100
AcDbEntity
  8
0
  6
CONTINUOUS
 62
     7
100
AcDbCircle
 10
180.8134128595
 20
177.1760426947
 30
0.0
 40
2.321080161504018
100
AcDbArc
 50
90.6623256667
 51
101.0208282052
  0
ARC
  5
92
330
1F
100
AcDbEntity
  8
0
  6
CONTINUOUS
 62
     7
100
AcDbCircle
 10
180.8038484152
 20
177.3684747351
 30
0.0
 40
2.154817969337159
100
AcDbArc
 50
90.4587897511
 51
100.1499931191
  0
LWPOLYLINE
  5
93
330
1F
100
AcDbEntity
  8
0
  6
CONTINUOUS
 62
     7
100
AcDbPolyline
 90
        3
 70
   128
 43
0.0
 10
179.9232969477
 20
210.2475460465
 10
179.9318074316
 20
210.2344237114
 10
179.9403401508
 20
210.2212995137
  0
ARC
  5
94
330
1F
100
AcDbEntity
  8
0
  6
CONTINUOUS
 62
     7
100
AcDbCircle
 10
180.6707370672
 20
209.9980321571
 30
0.0
 40
0.7879872545054497
100
AcDbArc
 50
89.8967704975
 51
161.5397228147
  0
LINE
  5
95
330
1F
100
AcDbEntity
  8
0
  6
CONTINUOUS
 62
     7
100
AcDbLine
 10
180.6721567789
 20
210.7860181327
 30
0.0
 11
180.6723112766
 21
210.7597622866
 31
0.0
  0
ARC
  5
96
330
1F
100
AcDbEntity
  8
0
  6
CONTINUOUS
 62
     7
100
AcDbCircle
 10
180.6732713193
 20
209.9917153802
 30
0.0
 40
0.7680475064291405
100
AcDbArc
 50
90.0716185016
 51
162.6073016555
  0
ARC
  5
97
330
1F
100
AcDbEntity
  8
0
  6
CONTINUOUS
 62
     7
100
AcDbCircle
 10
180.7427851333
 20
210.1244915914
 30
0.0
 40
0.6652862010387663
100
AcDbArc
 50
7.4207177467
 51
96.0941393244
  0
LWPOLYLINE
  5
98
330
1F
100
AcDbEntity
  8
0
  6
CONTINUOUS
 62
     7
100
AcDbPolyline
 90
        4
 70
   128
 43
0.0
 10
181.402499247
 20
210.2104160781
 10
181.3946203745
 20
210.2105259741
 10
181.3867414437
 20
210.2106358702
 10
181.3762375803
 20
210.2107830192
  0
ARC
  5
99
330
1F
100
AcDbEntity
  8
0
  6
CONTINUOUS
 62
     7
100
AcDbCircle
 10
180.738551597
 20
210.1189057817
 30
0.0
 40
0.6442707815791946
100
AcDbArc
 50
8.1987046269
 51
95.9012599317
  0
LWPOLYLINE
  5
9A
330
1F
100
AcDbEntity
  8
0
  6
CONTINUOUS
 62
     7
100
AcDbPolyline
 90
        4
 70
   128
 43
0.0
 10
180.7235732947
 20
189.7745333458
 10
180.7235492477
 20
189.7824086095
 10
180.7235252079
 20
189.7902838732
 10
180.7234931691
 20
189.8007854665
  0
ARC
  5
9B
330
1F
100
AcDbEntity
  8
0
  6
CONTINUOUS
 62
     7
100
AcDbCircle
 10
180.7649112847
 20
188.2285492808
 30
0.0
 40
1.54653663348237
100
AcDbArc
 50
91.5316639982
 51
108.3931985091
  0
LWPOLYLINE
  5
9C
330
1F
100
AcDbEntity
  8
0
  6
CONTINUOUS
 62
     7
100
AcDbPolyline
 90
        3
 70
   128
 43
0.0
 10
180.2769226904
 20
189.6960787321
 10
180.2940781179
 20
189.7144295121
 10
180.3112335454
 20
189.7327765668
  0
ARC
  5
9D
330
1F
100
AcDbEntity
  8
0
  6
CONTINUOUS
 62
     7
100
AcDbCircle
 10
180.748543015
 20
188.3654050324
 30
0.0
 40
1.435598998827454
100
AcDbArc
 50
90.9998079478
 51
107.7351906389
  0
LINE
  5
9E
330
1F
100
AcDbEntity
  8
0
  6
CONTINUOUS
 62
     7
100
AcDbLine
 10
180.478420805
 20
190.6795963491
 30
0.0
 11
180.2769226904
 21
189.6960787321
 31
0.0
  0
LINE
  5
9F
330
1F
100
AcDbEntity
  8
0
  6
CONTINUOUS
 62
     7
100
AcDbLine
 10
180.478420805
 20
190.6795963491
 30
0.0
 11
180.4998353161
 21
190.6533516789
 31
0.0
  0
LINE
  5
A0
330
1F
100
AcDbEntity
  8
0
  6
CONTINUOUS
 62
     7
100
AcDbLine
 10
180.4998353161
 20
190.6533516789
 30
0.0
 11
180.3112335454
 21
189.7327765668
 31
0.0
  0
LWPOLYLINE
  5
A1
330
1F
100
AcDbEntity
  8
0
  6
CONTINUOUS
 62
     7
100
AcDbPolyline
 90
        3
 70
   128
 43
0.0
 10
181.0310415292
 20
149.019503578
 10
181.0038198435
 20
149.0029558385
 10
180.9765981286
 20
148.9864006484
  0
LINE
  5
A2
330
1F
100
AcDbEntity
  8
0
  6
CONTINUOUS
 62
     7
100
AcDbLine
 10
180.0398084868
 20
147.570507213
 30
0.0
 11
181.0310415292
 21
149.019503578
 31
0.0
  0
LINE
  5
A3
330
1F
100
AcDbEntity
  8
0
  6
CONTINUOUS
 62
     7
100
AcDbLine
 10
180.0398084868
 20
147.570507213
 30
0.0
 11
180.0034410969
 21
147.5638314928
 31
0.0
  0
LINE
  5
A4
330
1F
100
AcDbEntity
  8
0
  6
CONTINUOUS
 62
     7
100
AcDbLine
 10
180.0034410969
 20
147.5638314928
 30
0.0
 11
180.9765981286
 21
148.9864006484
 31
0.0
  0
LINE
  5
A5
330
1F
100
AcDbEntity
  8
0
  6
CONTINUOUS
 62
     7
100
AcDbLine
 10
180.6085525802
 20
148.9860132183
 30
0.0
 11
180.6085091937
 21
148.9597648228
 31
0.0
  0
ARC
  5
A6
330
1F
100
AcDbEntity
  8
0
  6
CONTINUOUS
 62
     7
100
AcDbCircle
 10
180.5715324386
 20
152.134676282
 30
0.0
 40
3.148880686854832
100
AcDbArc
 50
270.6736192795
 51
278.3910071333
  0
ARC
  5
A7
330
1F
100
AcDbEntity
  8
0
  6
CONTINUOUS
 62
     7
100
AcDbCircle
 10
180.5831918415
 20
151.8663202218
 30
0.0
 40
2.906665659453463
100
AcDbArc
 50
270.4990583507
 51
277.7786421209
  0
LWPOLYLINE
  5
A8
330
1F
100
AcDbEntity
  8
0
  6
CONTINUOUS
 62
     7
100
AcDbPolyline
 90
        3
 70
   128
 43
0.0
 10
181.2694507951
 20
110.164211675
 10
181.277961279
 20
110.151083752
 10
181.2864939982
 20
110.1379707302
  0
ARC
  5
A9
330
1F
100
AcDbEntity
  8
0
  6
CONTINUOUS
 62
     7
100
AcDbCircle
 10
182.0168844282
 20
109.9147013549
 30
0.0
 40
0.7879799717219265
100
AcDbArc
 50
89.89629764
 51
161.5398196438
  0
LWPOLYLINE
  5
AA
330
1F
100
AcDbEntity
  8
0
  6
CONTINUOUS
 62
     7
100
AcDbPolyline
 90
        4
 70
   128
 43
0.0
 10
182.0183106299
 20
110.7026800359
 10
182.0183569632
 20
110.6948122228
 10
182.0184032965
 20
110.6869295085
 10
182.0184651131
 20
110.6764241899
  0
ARC
  5
AB
330
1F
100
AcDbEntity
  8
0
  6
CONTINUOUS
 62
     7
100
AcDbCircle
 10
182.019420477
 20
109.9083796876
 30
0.0
 40
0.7680450964716523
100
AcDbArc
 50
90.0712696923
 51
162.6067052294
  0
ARC
  5
AC
330
1F
100
AcDbEntity
  8
0
  6
CONTINUOUS
 62
     7
100
AcDbCircle
 10
182.0889635614
 20
110.041184683
 30
0.0
 40
0.6652577986693197
100
AcDbArc
 50
7.4183275489
 51
96.0965292447
  0
LWPOLYLINE
  5
AD
330
1F
100
AcDbEntity
  8
0
  6
CONTINUOUS
 62
     7
100
AcDbPolyline
 90
        4
 70
   128
 43
0.0
 10
182.7486530945
 20
110.1270779813
 10
182.7407741055
 20
110.1271971906
 10
182.7328953493
 20
110.1273014987
 10
182.7223914277
 20
110.1274505104
  0
ARC
  5
AE
330
1F
100
AcDbEntity
  8
0
  6
CONTINUOUS
 62
     7
100
AcDbCircle
 10
182.0847149333
 20
110.0355789182
 30
0.0
 40
0.6442605846357361
100
AcDbArc
 50
8.1983280448
 51
95.9022030077
  0
LWPOLYLINE
  5
AF
330
1F
100
AcDbEntity
  8
0
  6
CONTINUOUS
 62
     7
100
AcDbPolyline
 90
        4
 70
   128
 43
0.0
 10
181.447368215
 20
150.0141858901
 10
181.4394903902
 20
150.0142082418
 10
181.4316125654
 20
150.014223143
 10
181.4211093422
 20
150.0142454947
  0
ARC
  5
B0
330
1F
100
AcDbEntity
  8
0
  6
CONTINUOUS
 62
     7
100
AcDbCircle
 10
180.7202278281
 20
150.0176528917
 30
0.0
 40
0.7271486521848367
100
AcDbArc
 50
265.7775352562
 51
359.7268160875
  0
LINE
  5
B1
330
1F
100
AcDbEntity
  8
0
  6
CONTINUOUS
 62
     7
100
AcDbLine
 10
180.6666884384
 20
149.29247795
 30
0.0
 11
180.6667023027
 21
149.318733796
 31
0.0
  0
ARC
  5
B2
330
1F
100
AcDbEntity
  8
0
  6
CONTINUOUS
 62
     7
100
AcDbCircle
 10
180.7194327254
 20
150.0184388491
 30
0.0
 40
0.7016891468607181
100
AcDbArc
 50
265.690283203
 51
359.6575934806
  0
ARC
  5
B3
330
1F
100
AcDbEntity
  8
0
  6
CONTINUOUS
 62
     7
100
AcDbCircle
 10
180.612662601
 20
150.081843178
 30
0.0
 40
0.7912118896830331
100
AcDbArc
 50
184.8983679714
 51
273.9153392222
  0
LWPOLYLINE
  5
B4
330
1F
100
AcDbEntity
  8
0
  6
CONTINUOUS
 62
     7
100
AcDbPolyline
 90
        4
 70
   128
 43
0.0
 10
179.8243404317
 20
150.0142827476
 10
179.8322176744
 20
150.014275297
 10
179.8400949172
 20
150.0142603959
 10
179.8505965105
 20
150.0142454947
  0
ARC
  5
B5
330
1F
100
AcDbEntity
  8
0
  6
CONTINUOUS
 62
     7
100
AcDbCircle
 10
180.6126518466
 20
150.0818722223
 30
0.0
 40
0.7650501353015717
100
AcDbArc
 50
185.071288421
 51
274.0512966882
  0
ARC
  5
B6
330
1F
100
AcDbEntity
  8
0
  6
CONTINUOUS
 62
     7
100
AcDbCircle
 10
180.575560707
 20
149.9866002787
 30
0.0
 40
0.7517301518621233
100
AcDbArc
 50
85.5071872335
 51
177.8896052986
  0
LINE
  5
B7
330
1F
100
AcDbEntity
  8
0
  6
CONTINUOUS
 62
     7
100
AcDbLine
 10
180.6344467675
 20
150.73602049
 30
0.0
 11
180.6344507038
 21
150.709764644
 31
0.0
  0
ARC
  5
B8
330
1F
100
AcDbEntity
  8
0
  6
CONTINUOUS
 62
     7
100
AcDbCircle
 10
180.5755187887
 20
149.986717531
 30
0.0
 40
0.7254447589278342
100
AcDbArc
 50
85.3404104083
 51
177.8253135306
  0
ARC
  5
B9
330
1F
100
AcDbEntity
  8
0
  6
CONTINUOUS
 62
     7
100
AcDbCircle
 10
180.589956654
 20
158.5390489321
 30
0.0
 40
0.8136615253973069
100
AcDbArc
 50
185.0545962001
 51
276.3025884558
  0
LWPOLYLINE
  5
BA
330
1F
100
AcDbEntity
  8
0
  6
CONTINUOUS
 62
     7
100
AcDbPolyline
 90
        4
 70
   128
 43
0.0
 10
179.7794592983
 20
158.4673613156
 10
179.7873393932
 20
158.4673985685
 10
179.7952194881
 20
158.467443272
 10
179.8057247486
 20
158.467495426
  0
ARC
  5
BB
330
1F
100
AcDbEntity
  8
0
  6
CONTINUOUS
 62
     7
100
AcDbCircle
 10
180.5897652801
 20
158.5387113381
 30
0.0
 40
0.7872682270033489
100
AcDbArc
 50
185.1900439312
 51
276.5319317361
  0
ARC
  5
BC
330
1F
100
AcDbEntity
  8
0
  6
CONTINUOUS
 62
     7
100
AcDbCircle
 10
180.6218341078
 20
158.4236708485
 30
0.0
 40
0.8435070696897514
100
AcDbArc
 50
84.7024940272
 51
177.0309673364
  0
ARC
  5
BD
330
1F
100
AcDbEntity
  8
0
  6
CONTINUOUS
 62
     7
100
AcDbCircle
 10
180.6210388467
 20
158.4246831621
 30
0.0
 40
0.8164373635468076
100
AcDbArc
 50
84.474327612
 51
176.994150805
  0
LINE
  5
BE
330
1F
100
AcDbEntity
  8
0
  6
CONTINUOUS
 62
     7
100
AcDbLine
 10
181.3762375803
 20
160.1810321058
 30
0.0
 11
181.4025040783
 21
160.1808309401
 31
0.0
  0
ARC
  5
BF
330
1F
100
AcDbEntity
  8
0
  6
CONTINUOUS
 62
     7
100
AcDbCircle
 10
180.7437217724
 20
160.2285281932
 30
0.0
 40
0.6605067407171622
100
AcDbArc
 50
265.5114358994
 51
355.8588884842
  0
LWPOLYLINE
  5
C0
330
1F
100
AcDbEntity
  8
0
  6
CONTINUOUS
 62
     7
100
AcDbPolyline
 90
        4
 70
   128
 43
0.0
 10
180.6920304387
 20
159.5700472439
 10
180.6920041124
 20
159.5779225076
 10
180.6919777862
 20
159.5857977713
 10
180.6919426888
 20
159.5963030899
  0
ARC
  5
C1
330
1F
100
AcDbEntity
  8
0
  6
CONTINUOUS
 62
     7
100
AcDbCircle
 10
180.7306930122
 20
160.243726258
 30
0.0
 40
0.648581795979642
100
AcDbArc
 50
266.5747527608
 51
354.4529309894
  0
ARC
  5
C2
330
1F
100
AcDbEntity
  8
0
  6
CONTINUOUS
 62
     7
100
AcDbCircle
 10
180.6501574684
 20
160.2661283996
 30
0.0
 40
0.6973394588861788
100
AcDbArc
 50
187.6067023506
 51
273.4424963539
  0
LWPOLYLINE
  5
C3
330
1F
100
AcDbEntity
  8
0
  6
CONTINUOUS
 62
     7
100
AcDbPolyline
 90
        4
 70
   128
 43
0.0
 10
179.9589545533
 20
160.1738199438
 10
179.9668321453
 20
160.1738795484
 10
179.9747097373
 20
160.173939153
 10
179.9852119127
 20
160.1740211094
  0
ARC
  5
C4
330
1F
100
AcDbEntity
  8
0
  6
CONTINUOUS
 62
     7
100
AcDbCircle
 10
180.6514007696
 20
160.2678435558
 30
0.0
 40
0.6727631414035397
100
AcDbArc
 50
188.0165052646
 51
273.4548401091
  0
LWPOLYLINE
  5
C5
330
1F
100
AcDbEntity
  8
0
  6
CONTINUOUS
 62
     7
100
AcDbPolyline
 90
        4
 70
   128
 43
0.0
 10
180.6792460864
 20
160.744348153
 10
180.6792690129
 20
160.7364728893
 10
180.6792919358
 20
160.7285976256
 10
180.6793224948
 20
160.7180923069
  0
ARC
  5
C6
330
1F
100
AcDbEntity
  8
0
  6
CONTINUOUS
 62
     7
100
AcDbCircle
 10
180.7645585796
 20
160.1079453328
 30
0.0
 40
0.6420956089274772
100
AcDbArc
 50
6.5178114645
 51
97.6352226795
  0
ARC
  5
C7
330
1F
100
AcDbEntity
  8
0
  6
CONTINUOUS
 62
     7
100
AcDbCircle
 10
180.755695212
 20
160.0964918819
 30
0.0
 40
0.6262746045547796
100
AcDbArc
 50
7.7579876223
 51
97.0045204309
  0
ARC
  5
C8
330
1F
100
AcDbEntity
  8
0
  6
CONTINUOUS
 62
     7
100
AcDbCircle
 10
180.5878527786
 20
160.1197842251
 30
0.0
 40
0.6312153647861176
100
AcDbArc
 50
81.6749147326
 51
175.0891363258
  0
ARC
  5
C9
330
1F
100
AcDbEntity
  8
0
  6
CONTINUOUS
 62
     7
100
AcDbCircle
 10
180.6030537453
 20
160.1005949289
 30
0.0
 40
0.6221896286661911
100
AcDbArc
 50
82.9589056706
 51
173.2225853496
  0
LWPOLYLINE
  5
CA
330
1F
100
AcDbEntity
  8
0
  6
CONTINUOUS
 62
     7
100
AcDbPolyline
 90
        4
 70
   128
 43
0.0
 10
181.5819846649
 20
208.5389397884
 10
181.5741065491
 20
208.5388392056
 10
181.566228375
 20
208.5387404854
 10
181.5557247444
 20
208.5386082376
  0
ARC
  5
CB
330
1F
100
AcDbEntity
  8
0
  6
CONTINUOUS
 62
     7
100
AcDbCircle
 10
180.7634780967
 20
208.5858440735
 30
0.0
 40
0.8198493850718847
100
AcDbArc
 50
263.0763531553
 51
356.7202686146
  0
LINE
  5
CC
330
1F
100
AcDbEntity
  8
0
  6
CONTINUOUS
 62
     7
100
AcDbLine
 10
180.6646480779
 20
207.7719732965
 30
0.0
 11
180.6645989398
 21
207.7982235546
 31
0.0
  0
ARC
  5
CD
330
1F
100
AcDbEntity
  8
0
  6
CONTINUOUS
 62
     7
100
AcDbCircle
 10
180.7641198264
 20
208.5849115053
 30
0.0
 40
0.792957967826369
100
AcDbArc
 50
262.7900294221
 51
356.6524180175
  0
ARC
  5
CE
330
1F
100
AcDbEntity
  8
0
  6
CONTINUOUS
 62
     7
100
AcDbCircle
 10
180.6387533508
 20
208.7161539967
 30
0.0
 40
0.9445357227360925
100
AcDbArc
 50
232.4561505309
 51
271.5709776288
  0
LWPOLYLINE
  5
CF
330
1F
100
AcDbEntity
  8
0
  6
CONTINUOUS
 62
     7
100
AcDbPolyline
 90
        4
 70
   128
 43
0.0
 10
180.0631831118
 20
207.9672437007
 10
180.0681872244
 20
207.9733289624
 10
180.073191337
 20
207.9794142241
 10
180.0798633901
 20
207.9875260437
  0
ARC
  5
D0
330
1F
100
AcDbEntity
  8
0
  6
CONTINUOUS
 62
     7
100
AcDbCircle
 10
180.6385859647
 20
208.7156168609
 30
0.0
 40
0.9177620352471182
100
AcDbArc
 50
232.4980762528
 51
271.6242046011
  0
ARC
  5
D1
330
1F
100
AcDbEntity
  8
0
  6
CONTINUOUS
 62
     7
100
AcDbCircle
 10
180.676160124
 20
149.9643290906
 30
0.0
 40
0.772817973468842
100
AcDbArc
 50
3.6988909309
 51
93.0940808501
  0
ARC
  5
D2
330
1F
100
AcDbEntity
  8
0
  6
CONTINUOUS
 62
     7
100
AcDbCircle
 10
180.6762653671
 20
149.9644286103
 30
0.0
 40
0.7465080503022535
100
AcDbArc
 50
3.8263753436
 51
93.2110280925
  0
LWPOLYLINE
  5
D3
330
1F
100
AcDbEntity
  8
0
  6
CONTINUOUS
 62
     7
100
AcDbPolyline
 90
        3
 70
   128
 43
0.0
 10
179.9165687241
 20
219.9866488422
 10
179.9284309798
 20
219.9735265071
 10
179.9403401508
 20
219.9604023094
  0
ARC
  5
D4
330
1F
100
AcDbEntity
  8
0
  6
CONTINUOUS
 62
     7
100
AcDbCircle
 10
180.7524136227
 20
219.9580166792
 30
0.0
 40
0.8363351572536571
100
AcDbArc
 50
90.0596266497
 51
178.0380799327
  0
LINE
  5
D5
330
1F
100
AcDbEntity
  8
0
  6
CONTINUOUS
 62
     7
100
AcDbLine
 10
180.7515432645
 20
220.7943513835
 30
0.0
 11
180.7515380403
 21
220.7680955375
 31
0.0
  0
ARC
  5
D6
330
1F
100
AcDbEntity
  8
0
  6
CONTINUOUS
 62
     7
100
AcDbCircle
 10
180.759233286
 20
219.9491614084
 30
0.0
 40
0.8189702831534378
100
AcDbArc
 50
90.5383731169
 51
179.2135533802
  0
ARC
  5
D7
330
1F
100
AcDbEntity
  8
0
  6
CONTINUOUS
 62
     7
100
AcDbCircle
 10
180.7774309643
 20
220.0347419894
 30
0.0
 40
0.7600503960943756
100
AcDbArc
 50
1.7839935334
 51
91.951900674
  0
LWPOLYLINE
  5
D8
330
1F
100
AcDbEntity
  8
0
  6
CONTINUOUS
 62
     7
100
AcDbPolyline
 90
        4
 70
   128
 43
0.0
 10
181.5371129612
 20
220.0584035213
 10
181.5292345543
 20
220.0584500874
 10
181.5213561474
 20
220.0584966535
 10
181.5108529243
 20
220.0585599835
  0
ARC
  5
D9
330
1F
100
AcDbEntity
  8
0
  6
CONTINUOUS
 62
     7
100
AcDbCircle
 10
180.7775305716
 20
220.0348505593
 30
0.0
 40
0.7337055333658581
100
AcDbArc
 50
1.8518143991
 51
92.0302068871
  0
LWPOLYLINE
  5
DA
330
1F
100
AcDbEntity
  8
0
  6
CONTINUOUS
 62
     7
100
AcDbPolyline
 90
        4
 70
   128
 43
0.0
 10
182.9281268708
 20
139.2207085932
 10
182.9202523056
 20
139.2206936921
 10
182.9123777404
 20
139.2206787909
 10
182.9018784754
 20
139.2206564392
  0
ARC
  5
DB
330
1F
100
AcDbEntity
  8
0
  6
CONTINUOUS
 62
     7
100
AcDbCircle
 10
180.2510416369
 20
139.1699431268
 30
0.0
 40
2.677566522486437
100
AcDbArc
 50
341.7626677386
 51
1.086367503
  0
ARC
  5
DC
330
1F
100
AcDbEntity
  8
0
  6
CONTINUOUS
 62
     7
100
AcDbCircle
 10
180.2481158242
 20
139.170375937
 30
0.0
 40
2.654238937565686
100
AcDbArc
 50
341.7860447434
 51
1.0854459459
  0
LWPOLYLINE
  5
DD
330
1F
100
AcDbEntity
  8
0
  6
CONTINUOUS
 62
     7
100
AcDbPolyline
 90
        6
 70
   128
 43
0.0
 10
182.0184725636
 20
140.7277077282
 10
181.7093734696
 20
140.6589910234
 10
181.4791710183
 20
140.5018880809
 10
181.3091395723
 20
140.2736469949
 10
181.1747101144
 20
139.8766130055
 10
181.1256319177
 20
139.2206564392
  0
LWPOLYLINE
  5
DE
330
1F
100
AcDbEntity
  8
0
  6
CONTINUOUS
 62
     7
100
AcDbPolyline
 90
        4
 70
   128
 43
0.0
 10
182.0184725636
 20
140.7277077282
 10
182.0184703518
 20
140.719825014
 10
182.0184681399
 20
140.7119422997
 10
182.0184651131
 20
140.7014295305
  0
LWPOLYLINE
  5
DF
330
1F
100
AcDbEntity
  8
0
  6
CONTINUOUS
 62
     7
100
AcDbPolyline
 90
        6
 70
   128
 43
0.0
 10
182.0184651131
 20
140.7014295305
 10
181.724924694
 20
140.6372576798
 10
181.502055884
 20
140.4875233615
 10
181.3352931474
 20
140.2667924608
 10
181.2025758388
 20
139.8828491415
 10
181.151878596
 20
139.2206564392
  0
LWPOLYLINE
  5
E0
330
1F
100
AcDbEntity
  8
0
  6
CONTINUOUS
 62
     7
100
AcDbPolyline
 90
        6
 70
   128
 43
0.0
 10
182.9281268708
 20
139.2207085932
 10
182.8497614313
 20
139.9425357426
 10
182.7119224306
 20
140.2915805424
 10
182.5313345596
 20
140.5227199043
 10
182.2808898121
 20
140.67781119
 10
182.0184725636
 20
140.7277077282
  0
LWPOLYLINE
  5
E1
330
1F
100
AcDbEntity
  8
0
  6
CONTINUOUS
 62
     7
100
AcDbPolyline
 90
        6
 70
   128
 43
0.0
 10
182.9018784754
 20
139.2206564392
 10
182.8225735642
 20
139.942476138
 10
182.6891555518
 20
140.2784973229
 10
182.5144489828
 20
140.5026256884
 10
182.2719205936
 20
140.6531274165
 10
182.0184651131
 20
140.7014295305
  0
LINE
  5
E2
330
1F
100
AcDbEntity
  8
0
  6
CONTINUOUS
 62
     7
100
AcDbLine
 10
179.9165687241
 20
219.9866488422
 30
0.0
 11
179.6538305769
 21
219.9866488422
 31
0.0
  0
ARC
  5
E3
330
1F
100
AcDbEntity
  8
0
  6
CONTINUOUS
 62
     7
100
AcDbCircle
 10
180.7611266491
 20
219.9935179249
 30
0.0
 40
1.10731737810046
100
AcDbArc
 50
89.6627018613
 51
180.3554283335
  0
ARC
  5
E4
330
1F
100
AcDbEntity
  8
0
  6
CONTINUOUS
 62
     7
100
AcDbCircle
 10
180.7972934962
 20
220.0997676305
 30
0.0
 40
1.001487434484151
100
AcDbArc
 50
359.250393133
 51
91.6964386502
  0
ARC
  5
E5
330
1F
100
AcDbEntity
  8
0
  6
CONTINUOUS
 62
     7
100
AcDbCircle
 10
180.0159344295
 20
220.2788742275
 30
0.0
 40
1.793092373044473
100
AcDbArc
 50
307.1035665554
 51
353.8464113999
  0
LINE
  5
E6
330
1F
100
AcDbEntity
  8
0
  6
CONTINUOUS
 62
     7
100
AcDbLine
 10
181.0976310933
 20
218.8487998987
 30
0.0
 11
180.1805609555
 21
217.8700543786
 31
0.0
  0
LINE
  5
E7
330
1F
100
AcDbEntity
  8
0
  6
CONTINUOUS
 62
     7
100
AcDbLine
 10
180.1805609555
 20
217.8700543786
 30
0.0
 11
181.8435806615
 21
217.8700543786
 31
0.0
  0
LINE
  5
E8
330
1F
100
AcDbEntity
  8
0
  6
CONTINUOUS
 62
     7
100
AcDbLine
 10
181.8435806615
 20
217.8700543786
 30
0.0
 11
181.8435806615
 21
217.5635728831
 31
0.0
  0
LINE
  5
E9
330
1F
100
AcDbEntity
  8
0
  6
CONTINUOUS
 62
     7
100
AcDbLine
 10
181.8435806615
 20
217.5635728831
 30
0.0
 11
179.5521867296
 21
217.5635728831
 31
0.0
  0
LINE
  5
EA
330
1F
100
AcDbEntity
  8
0
  6
CONTINUOUS
 62
     7
100
AcDbLine
 10
179.5521867296
 20
217.5635728831
 30
0.0
 11
180.8680471711
 21
218.9677912588
 31
0.0
  0
ARC
  5
EB
330
1F
100
AcDbEntity
  8
0
  6
CONTINUOUS
 62
     7
100
AcDbCircle
 10
179.7792117665
 20
220.3863014322
 30
0.0
 40
1.78822080579414
100
AcDbArc
 50
307.5095136739
 51
349.4341505887
  0
LINE
  5
EC
330
1F
100
AcDbEntity
  8
0
  6
CONTINUOUS
 62
     7
100
AcDbLine
 10
181.8435806615
 20
217.5635728831
 30
0.0
 11
181.8698273107
 21
217.5373263503
 31
0.0
  0
LINE
  5
ED
330
1F
100
AcDbEntity
  8
0
  6
CONTINUOUS
 62
     7
100
AcDbLine
 10
181.8435806615
 20
217.8700543786
 30
0.0
 11
181.8698273107
 21
217.8963009114
 31
0.0
  0
LINE
  5
EE
330
1F
100
AcDbEntity
  8
0
  6
CONTINUOUS
 62
     7
100
AcDbLine
 10
181.8698273107
 20
217.8963009114
 30
0.0
 11
181.8698273107
 21
217.5373263503
 31
0.0
  0
LINE
  5
EF
330
1F
100
AcDbEntity
  8
0
  6
CONTINUOUS
 62
     7
100
AcDbLine
 10
179.5521867296
 20
217.5635728831
 30
0.0
 11
179.491622124
 21
217.5373263503
 31
0.0
  0
LINE
  5
F0
330
1F
100
AcDbEntity
  8
0
  6
CONTINUOUS
 62
     7
100
AcDbLine
 10
181.8698273107
 20
217.5373263503
 30
0.0
 11
179.491622124
 21
217.5373263503
 31
0.0
  0
LWPOLYLINE
  5
F1
330
1F
100
AcDbEntity
  8
0
  6
CONTINUOUS
 62
     7
100
AcDbPolyline
 90
        4
 70
   128
 43
0.0
 10
180.8680471711
 20
218.9677912588
 10
180.8623308878
 20
218.9732078309
 10
180.856614619
 20
218.9786225403
 10
180.8489939701
 20
218.9858440156
  0
LINE
  5
F2
330
1F
100
AcDbEntity
  8
0
  6
CONTINUOUS
 62
     7
100
AcDbLine
 10
179.491622124
 20
217.5373263503
 30
0.0
 11
180.8489939701
 21
218.9858440156
 31
0.0
  0
LINE
  5
F3
330
1F
100
AcDbEntity
  8
0
  6
CONTINUOUS
 62
     7
100
AcDbLine
 10
180.1805609555
 20
217.8700543786
 30
0.0
 11
180.24112137
 21
217.8963009114
 31
0.0
  0
LINE
  5
F4
330
1F
100
AcDbEntity
  8
0
  6
CONTINUOUS
 62
     7
100
AcDbLine
 10
180.24112137
 20
217.8963009114
 30
0.0
 11
181.8698273107
 21
217.8963009114
 31
0.0
  0
LINE
  5
F5
330
1F
100
AcDbEntity
  8
0
  6
CONTINUOUS
 62
     7
100
AcDbLine
 10
181.0976310933
 20
218.8487998987
 30
0.0
 11
181.1168225083
 21
218.8308961535
 31
0.0
  0
LINE
  5
F6
330
1F
100
AcDbEntity
  8
0
  6
CONTINUOUS
 62
     7
100
AcDbLine
 10
181.1168225083
 20
218.8308961535
 30
0.0
 11
180.24112137
 21
217.8963009114
 31
0.0
  0
LWPOLYLINE
  5
F7
330
1F
100
AcDbEntity
  8
0
  6
CONTINUOUS
 62
     7
100
AcDbPolyline
 90
        4
 70
   128
 43
0.0
 10
181.7986952208
 20
220.0866654361
 10
181.8065733949
 20
220.0866468097
 10
181.8144515689
 20
220.0866281832
 10
181.8249554906
 20
220.0866039688
  0
ARC
  5
F8
330
1F
100
AcDbEntity
  8
0
  6
CONTINUOUS
 62
     7
100
AcDbCircle
 10
180.0235366024
 20
220.2749574279
 30
0.0
 40
1.811239088696474
100
AcDbArc
 50
307.1290386643
 51
354.0309346556
  0
ARC
  5
F9
330
1F
100
AcDbEntity
  8
0
  6
CONTINUOUS
 62
     7
100
AcDbCircle
 10
179.7806271349
 20
220.3855589565
 30
0.0
 40
1.760854795456665
100
AcDbArc
 50
307.3535737792
 51
349.2977805661
  0
LWPOLYLINE
  5
FA
330
1F
100
AcDbEntity
  8
0
  6
CONTINUOUS
 62
     7
100
AcDbPolyline
 90
        4
 70
   128
 43
0.0
 10
179.697372934
 20
178.4800417567
 10
179.6894938286
 20
178.4800156797
 10
179.6816147232
 20
178.4799896027
 10
179.6711094046
 20
178.4799523498
  0
ARC
  5
FB
330
1F
100
AcDbEntity
  8
0
  6
CONTINUOUS
 62
     7
100
AcDbCircle
 10
180.7254899168
 20
178.4686748521
 30
0.0
 40
1.028179817307157
100
AcDbArc
 50
179.3665612617
 51
270.3160251878
  0
LWPOLYLINE
  5
FC
330
1F
100
AcDbEntity
  8
0
  6
CONTINUOUS
 62
     7
100
AcDbPolyline
 90
        4
 70
   128
 43
0.0
 10
180.7311609989
 20
177.4405106748
 10
180.7311743266
 20
177.4326316858
 10
180.7311876762
 20
177.4247526968
 10
180.7312055078
 20
177.4142473782
  0
ARC
  5
FD
330
1F
100
AcDbEntity
  8
0
  6
CONTINUOUS
 62
     7
100
AcDbCircle
 10
180.7253571928
 20
178.4685407064
 30
0.0
 40
1.054309548742877
100
AcDbArc
 50
179.3798294131
 51
270.3178245734
  0
ARC
  5
FE
330
1F
100
AcDbEntity
  8
0
  6
CONTINUOUS
 62
     7
100
AcDbCircle
 10
180.7559308501
 20
178.4829892833
 30
0.0
 40
1.042772839470205
100
AcDbArc
 50
268.6388776359
 51
0.1811042933
  0
LINE
  5
FF
330
1F
100
AcDbEntity
  8
0
  6
CONTINUOUS
 62
     7
100
AcDbLine
 10
181.7986984804
 20
178.4862853433
 30
0.0
 11
181.8249554906
 21
178.4862629915
 31
0.0
  0
ARC
  5
100
330
1F
100
AcDbEntity
  8
0
  6
CONTINUOUS
 62
     7
100
AcDbCircle
 10
180.7560364333
 20
178.4828833304
 30
0.0
 40
1.068924400098349
100
AcDbArc
 50
268.6689094
 51
0.1811546661
  0
LWPOLYLINE
  5
101
330
1F
100
AcDbEntity
  8
0
  6
CONTINUOUS
 62
     7
100
AcDbPolyline
 90
        3
 70
   128
 43
0.0
 10
180.8698741932
 20
108.3617225135
 10
180.8537969025
 20
108.3748504365
 10
180.8377760151
 20
108.3879634584
  0
ARC
  5
102
330
1F
100
AcDbEntity
  8
0
  6
CONTINUOUS
 62
     7
100
AcDbCircle
 10
181.9704461241
 20
108.4895999203
 30
0.0
 40
1.107976175933471
100
AcDbArc
 50
186.6275797008
 51
271.790783961
  0
LWPOLYLINE
  5
103
330
1F
100
AcDbEntity
  8
0
  6
CONTINUOUS
 62
     7
100
AcDbPolyline
 90
        4
 70
   128
 43
0.0
 10
182.0050703661
 20
107.3821648801
 10
182.0050923686
 20
107.374297067
 10
182.0051143711
 20
107.3664143527
 10
182.0051438242
 20
107.3559090341
  0
ARC
  5
104
330
1F
100
AcDbEntity
  8
0
  6
CONTINUOUS
 62
     7
100
AcDbCircle
 10
181.9728121146
 20
108.495576617
 30
0.0
 40
1.140126106620476
100
AcDbArc
 50
185.4160427902
 51
271.6250122434
  0
ARC
  5
105
330
1F
100
AcDbEntity
  8
0
  6
CONTINUOUS
 62
     7
100
AcDbCircle
 10
182.053260539
 20
108.5180696397
 30
0.0
 40
1.136926521650893
100
AcDbArc
 50
267.5707128838
 51
358.3617485897
  0
LINE
  5
106
330
1F
100
AcDbEntity
  8
0
  6
CONTINUOUS
 62
     7
100
AcDbLine
 10
183.1897223435
 20
108.4855660642
 30
0.0
 11
183.2159812163
 21
108.4854170526
 31
0.0
  0
ARC
  5
107
330
1F
100
AcDbEntity
  8
0
  6
CONTINUOUS
 62
     7
100
AcDbCircle
 10
182.0537071798
 20
108.517614333
 30
0.0
 40
1.162719915062939
100
AcDbArc
 50
267.6062292288
 51
358.4131998615
  0
ARC
  5
108
330
1F
100
AcDbEntity
  8
0
  6
CONTINUOUS
 62
     7
100
AcDbCircle
 10
182.0823024623
 20
108.5930613288
 30
0.0
 40
0.9776341645740614
100
AcDbArc
 50
193.6878001641
 51
226.4994705814
  0
LWPOLYLINE
  5
109
330
1F
100
AcDbEntity
  8
0
  6
CONTINUOUS
 62
     7
100
AcDbPolyline
 90
        3
 70
   128
 43
0.0
 10
181.1324335702
 20
108.3617225135
 10
181.1421513974
 20
108.3748504365
 10
181.151878596
 20
108.3879634584
  0
ARC
  5
10A
330
1F
100
AcDbEntity
  8
0
  6
CONTINUOUS
 62
     7
100
AcDbCircle
 10
182.1033847716
 20
108.6076020085
 30
0.0
 40
0.9765270579408615
100
AcDbArc
 50
192.99805856
 51
226.0802956567
  0
ARC
  5
10B
330
1F
100
AcDbEntity
  8
0
  6
CONTINUOUS
 62
     7
100
AcDbCircle
 10
180.8023440263
 20
178.5006346652
 30
0.0
 40
0.9964577769856289
100
AcDbArc
 50
359.1748932851
 51
90.9063273744
  0
ARC
  5
10C
330
1F
100
AcDbEntity
  8
0
  6
CONTINUOUS
 62
     7
100
AcDbCircle
 10
180.8024468924
 20
178.5007354929
 30
0.0
 40
1.022611014299427
100
AcDbArc
 50
359.1890944642
 51
90.8882486772
  0
ARC
  5
10D
330
1F
100
AcDbEntity
  8
0
  6
CONTINUOUS
 62
     7
100
AcDbCircle
 10
182.1958023509
 20
108.4887298207
 30
0.0
 40
0.9939250278660398
100
AcDbArc
 50
359.8176218571
 51
37.3200261316
  0
ARC
  5
10E
330
1F
100
AcDbEntity
  8
0
  6
CONTINUOUS
 62
     7
100
AcDbCircle
 10
168.4987078515
 20
127.954894829
 30
0.0
 40
23.78493413435795
100
AcDbArc
 50
307.524824716
 51
307.5880718607
  0
ARC
  5
10F
330
1F
100
AcDbEntity
  8
0
  6
CONTINUOUS
 62
     7
100
AcDbCircle
 10
182.1953542736
 20
108.4885728237
 30
0.0
 40
1.020631821562278
100
AcDbArc
 50
359.8228424322
 51
37.3178669917
  0
LWPOLYLINE
  5
110
330
1F
100
AcDbEntity
  8
0
  6
CONTINUOUS
 62
     7
100
AcDbPolyline
 90
        3
 70
   128
 43
0.0
 10
181.8512021398
 20
109.2204466308
 10
181.838078757
 20
109.2080637659
 10
181.8249554906
 20
109.1956659997
  0
LWPOLYLINE
  5
111
330
1F
100
AcDbEntity
  8
0
  6
CONTINUOUS
 62
     7
100
AcDbPolyline
 90
        6
 70
   128
 43
0.0
 10
182.9281385124
 20
108.4555998291
 10
182.8763651263
 20
108.7093815053
 10
182.7428786617
 20
108.9156135763
 10
182.5446472337
 20
109.0723439897
 10
182.2496643124
 20
109.174610659
 10
181.8512021398
 20
109.2204466308
  0
LWPOLYLINE
  5
112
330
1F
100
AcDbEntity
  8
0
  6
CONTINUOUS
 62
     7
100
AcDbPolyline
 90
        6
 70
   128
 43
0.0
 10
182.9018784754
 20
108.4552720035
 10
182.8531202461
 20
108.6969986404
 10
182.72542102
 20
108.8957503284
 10
182.5351468121
 20
109.047593161
 10
182.2513314962
 20
109.1475203479
 10
181.8249554906
 20
109.1956659997
  0
LINE
  5
113
330
1F
100
AcDbEntity
  8
0
  6
CONTINUOUS
 62
     7
100
AcDbLine
 10
180.8698741932
 20
108.3617225135
 30
0.0
 11
181.1324335702
 21
108.3617225135
 31
0.0
  0
LINE
  5
114
330
1F
100
AcDbEntity
  8
0
  6
CONTINUOUS
 62
     7
100
AcDbLine
 10
180.8377760151
 20
108.3879634584
 30
0.0
 11
181.151878596
 21
108.3879634584
 31
0.0
  0
LINE
  5
115
330
1F
100
AcDbEntity
  8
0
  6
CONTINUOUS
 62
     7
100
AcDbLine
 10
181.2694507951
 20
110.164211675
 30
0.0
 11
181.0058999815
 21
110.164211675
 31
0.0
  0
ARC
  5
116
330
1F
100
AcDbEntity
  8
0
  6
CONTINUOUS
 62
     7
100
AcDbCircle
 10
182.0106439587
 20
109.9893035398
 30
0.0
 40
1.019854556003042
100
AcDbArc
 50
89.80547809
 51
170.1247807439
  0
ARC
  5
117
330
1F
100
AcDbEntity
  8
0
  6
CONTINUOUS
 62
     7
100
AcDbCircle
 10
182.078822723
 20
110.078804434
 30
0.0
 40
0.932595947386871
100
AcDbArc
 50
2.8937674684
 51
93.9791661123
  0
ARC
  5
118
330
1F
100
AcDbEntity
  8
0
  6
CONTINUOUS
 62
     7
100
AcDbCircle
 10
182.1839248671
 20
110.129588965
 30
0.0
 40
0.8263129055288156
100
AcDbArc
 50
298.2967990118
 51
359.7432312062
  0
ARC
  5
119
330
1F
100
AcDbEntity
  8
0
  6
CONTINUOUS
 62
     7
100
AcDbCircle
 10
182.2226155362
 20
108.5088370484
 30
0.0
 40
0.9604112306981766
100
AcDbArc
 50
37.33586084
 51
68.4344558088
  0
LINE
  5
11A
330
1F
100
AcDbEntity
  8
0
  6
CONTINUOUS
 62
     7
100
AcDbLine
 10
181.8512021398
 20
109.2204466308
 30
0.0
 11
181.8512021398
 21
109.528855964
 31
0.0
  0
LWPOLYLINE
  5
11B
330
1F
100
AcDbEntity
  8
0
  6
CONTINUOUS
 62
     7
100
AcDbPolyline
 90
        6
 70
   128
 43
0.0
 10
181.8512021398
 20
109.528855964
 10
182.3326932333
 20
109.618799373
 10
182.5311997507
 20
109.7243144954
 10
182.6605176154
 20
109.8535373653
 10
182.7365640618
 20
110.0206687892
 10
182.7486530945
 20
110.1270779813
  0
LWPOLYLINE
  5
11C
330
1F
100
AcDbEntity
  8
0
  6
CONTINUOUS
 62
     7
100
AcDbPolyline
 90
        4
 70
   128
 43
0.0
 10
180.7676453479
 20
221.1008161152
 10
180.7676510741
 20
221.1086913789
 10
180.7676566511
 20
221.1165685053
 10
180.7676638434
 20
221.1270700986
  0
ARC
  5
11D
330
1F
100
AcDbEntity
  8
0
  6
CONTINUOUS
 62
     7
100
AcDbCircle
 10
180.7972078629
 20
220.0996641874
 30
0.0
 40
1.027830606418769
100
AcDbArc
 50
359.271946626
 51
91.6471399079
  0
LWPOLYLINE
  5
11E
330
1F
100
AcDbEntity
  8
0
  6
CONTINUOUS
 62
     7
100
AcDbPolyline
 90
        3
 70
   128
 43
0.0
 10
179.6538305769
 20
219.9866488422
 10
179.640024651
 20
219.9735265071
 10
179.6262375844
 20
219.9604023094
  0
LINE
  5
11F
330
1F
100
AcDbEntity
  8
0
  6
CONTINUOUS
 62
     7
100
AcDbLine
 10
179.9403401508
 20
219.9604023094
 30
0.0
 11
179.6262375844
 21
219.9604023094
 31
0.0
  0
ARC
  5
120
330
1F
100
AcDbEntity
  8
0
  6
CONTINUOUS
 62
     7
100
AcDbCircle
 10
180.7609397636
 20
219.9919493826
 30
0.0
 40
1.135140631450378
100
AcDbArc
 50
89.6606027143
 51
181.5925312304
  0
LINE
  5
121
330
1F
100
AcDbEntity
  8
0
  6
CONTINUOUS
 62
     7
100
AcDbLine
 10
180.0843403742
 20
179.4822752322
 30
0.0
 11
180.0623353172
 21
179.4965803469
 31
0.0
  0
ARC
  5
122
330
1F
100
AcDbEntity
  8
0
  6
CONTINUOUS
 62
     7
100
AcDbCircle
 10
181.6554306675
 20
178.2998474969
 30
0.0
 40
1.966331624883033
100
AcDbArc
 50
143.0342948586
 51
174.7420487167
  0
ARC
  5
123
330
1F
100
AcDbEntity
  8
0
  6
CONTINUOUS
 62
     7
100
AcDbCircle
 10
181.6532638301
 20
178.3007569362
 30
0.0
 40
1.990237966391679
100
AcDbArc
 50
143.069600028
 51
174.8342539811
  0
LINE
  5
124
330
1F
100
AcDbEntity
  8
0
  6
CONTINUOUS
 62
     7
100
AcDbLine
 10
180.8640230718
 20
139.21925573
 30
0.0
 11
180.8377760151
 21
139.21925573
 31
0.0
  0
LWPOLYLINE
  5
125
330
1F
100
AcDbEntity
  8
0
  6
CONTINUOUS
 62
     7
100
AcDbPolyline
 90
        6
 70
   128
 43
0.0
 10
182.0079787701
 20
137.4071627701
 10
181.6476429065
 20
137.4721467341
 10
181.3413268953
 20
137.6595064844
 10
181.1319232927
 20
137.9154339279
 10
180.94052428
 20
138.3944243039
 10
180.8640230718
 20
139.21925573
  0
LWPOLYLINE
  5
126
330
1F
100
AcDbEntity
  8
0
  6
CONTINUOUS
 62
     7
100
AcDbPolyline
 90
        4
 70
   128
 43
0.0
 10
182.0079787701
 20
137.4071627701
 10
182.0079696897
 20
137.3992875064
 10
182.0079604929
 20
137.3914122427
 10
182.0079482693
 20
137.3809143747
  0
LWPOLYLINE
  5
127
330
1F
100
AcDbEntity
  8
0
  6
CONTINUOUS
 62
     7
100
AcDbPolyline
 90
        6
 70
   128
 43
0.0
 10
182.0079482693
 20
137.3809143747
 10
181.6475756766
 20
137.4441623534
 10
181.3304928198
 20
137.6340702022
 10
181.1138788305
 20
137.8946989621
 10
180.9172512128
 20
138.3785173143
 10
180.8377760151
 20
139.21925573
  0
LWPOLYLINE
  5
128
330
1F
100
AcDbEntity
  8
0
  6
CONTINUOUS
 62
     7
100
AcDbPolyline
 90
        6
 70
   128
 43
0.0
 10
183.1897325881
 20
139.21925573
 10
183.1270773962
 20
138.497190162
 10
182.9371457986
 20
137.9773109997
 10
182.6967865761
 20
137.6719713057
 10
182.3624817023
 20
137.4693900193
 10
182.0079787701
 20
137.4071627701
  0
LINE
  5
129
330
1F
100
AcDbEntity
  8
0
  6
CONTINUOUS
 62
     7
100
AcDbLine
 10
183.1897325881
 20
139.21925573
 30
0.0
 11
183.2159812163
 21
139.21925573
 31
0.0
  0
LWPOLYLINE
  5
12A
330
1F
100
AcDbEntity
  8
0
  6
CONTINUOUS
 62
     7
100
AcDbPolyline
 90
        6
 70
   128
 43
0.0
 10
183.2159812163
 20
139.21925573
 10
183.1538806271
 20
138.4971827115
 10
182.9592228003
 20
137.9630207861
 10
182.713030006
 20
137.6512810434
 10
182.3711554587
 20
137.4446019376
 10
182.0079482693
 20
137.3809143747
  0
LWPOLYLINE
  5
12B
330
1F
100
AcDbEntity
  8
0
  6
CONTINUOUS
 62
     7
100
AcDbPolyline
 90
        3
 70
   128
 43
0.0
 10
182.5756294254
 20
109.40201728
 10
182.6016846878
 20
109.4039991344
 10
182.6277399503
 20
109.40599589
  0
ARC
  5
12C
330
1F
100
AcDbEntity
  8
0
  6
CONTINUOUS
 62
     7
100
AcDbCircle
 10
182.2573430652
 20
108.5454210045
 30
0.0
 40
0.936900734385934
100
AcDbArc
 50
36.8512149046
 51
66.7126496327
  0
LWPOLYLINE
  5
12D
330
1F
100
AcDbEntity
  8
0
  6
CONTINUOUS
 62
     7
100
AcDbPolyline
 90
        3
 70
   128
 43
0.0
 10
181.8512021398
 20
109.528855964
 10
181.838078757
 20
109.5417305673
 10
181.8249554906
 20
109.5546349729
  0
LINE
  5
12E
330
1F
100
AcDbEntity
  8
0
  6
CONTINUOUS
 62
     7
100
AcDbLine
 10
181.8249554906
 20
109.1956659997
 30
0.0
 11
181.8249554906
 21
109.5546349729
 31
0.0
  0
LWPOLYLINE
  5
12F
330
1F
100
AcDbEntity
  8
0
  6
CONTINUOUS
 62
     7
100
AcDbPolyline
 90
        3
 70
   128
 43
0.0
 10
179.5672419082
 20
188.3835136736
 10
179.5518352717
 20
188.3966378714
 10
179.5364939442
 20
188.4097620691
  0
ARC
  5
130
330
1F
100
AcDbEntity
  8
0
  6
CONTINUOUS
 62
     7
100
AcDbCircle
 10
180.6104686588
 20
188.4983407783
 30
0.0
 40
1.049527187424006
100
AcDbArc
 50
186.2812143407
 51
269.6710587453
  0
LWPOLYLINE
  5
131
330
1F
100
AcDbEntity
  8
0
  6
CONTINUOUS
 62
     7
100
AcDbPolyline
 90
        4
 70
   128
 43
0.0
 10
180.6044432431
 20
187.4488308872
 10
180.6044010571
 20
187.4409556235
 10
180.6043588347
 20
187.4330803598
 10
180.6043024606
 20
187.4225824917
  0
ARC
  5
132
330
1F
100
AcDbEntity
  8
0
  6
CONTINUOUS
 62
     7
100
AcDbCircle
 10
180.6130524112
 20
188.5031483473
 30
0.0
 40
1.080601281641928
100
AcDbArc
 50
184.9577234622
 51
269.5360539267
  0
ARC
  5
133
330
1F
100
AcDbEntity
  8
0
  6
CONTINUOUS
 62
     7
100
AcDbCircle
 10
180.6315977085
 20
188.616291022
 30
0.0
 40
1.16777589094133
100
AcDbArc
 50
268.6675726735
 51
1.9428070709
  0
LWPOLYLINE
  5
134
330
1F
100
AcDbEntity
  8
0
  6
CONTINUOUS
 62
     7
100
AcDbPolyline
 90
        4
 70
   128
 43
0.0
 10
181.7987023221
 20
188.6558808232
 10
181.8065785171
 20
188.6558733726
 10
181.8144547121
 20
188.6558659221
 10
181.8249554906
 20
188.6558547462
  0
ARC
  5
135
330
1F
100
AcDbEntity
  8
0
  6
CONTINUOUS
 62
     7
100
AcDbCircle
 10
180.631623226
 20
188.6162588728
 30
0.0
 40
1.193988997841875
100
AcDbArc
 50
268.688847899
 51
1.900429967
  0
ARC
  5
136
330
1F
100
AcDbEntity
  8
0
  6
CONTINUOUS
 62
     7
100
AcDbCircle
 10
183.114650373
 20
100.9137082818
 30
0.0
 40
19.08964480666476
100
AcDbArc
 50
89.830543287
 51
89.9093612345
  0
ARC
  5
137
330
1F
100
AcDbEntity
  8
0
  6
CONTINUOUS
 62
     7
100
AcDbCircle
 10
182.1434533628
 20
120.0164374569
 30
0.0
 40
1.001481553317619
100
AcDbArc
 50
359.2500419782
 51
91.6967900071
  0
LWPOLYLINE
  5
138
330
1F
100
AcDbEntity
  8
0
  6
CONTINUOUS
 62
     7
100
AcDbPolyline
 90
        4
 70
   128
 43
0.0
 10
182.1137992499
 20
121.0174798811
 10
182.1138049543
 20
121.0253551448
 10
182.1138105422
 20
121.0332378591
 10
182.1138176435
 20
121.0437357272
  0
ARC
  5
139
330
1F
100
AcDbEntity
  8
0
  6
CONTINUOUS
 62
     7
100
AcDbCircle
 10
182.1433655848
 20
120.0163336969
 30
0.0
 40
1.02782683981851
100
AcDbArc
 50
359.271727599
 51
91.6473646513
  0
ARC
  5
13A
330
1F
100
AcDbEntity
  8
0
  6
CONTINUOUS
 62
     7
100
AcDbCircle
 10
182.1072649803
 20
119.9101972023
 30
0.0
 40
1.107301958564514
100
AcDbArc
 50
89.6618914644
 51
180.3562359233
  0
LWPOLYLINE
  5
13B
330
1F
100
AcDbEntity
  8
0
  6
CONTINUOUS
 62
     7
100
AcDbPolyline
 90
        3
 70
   128
 43
0.0
 10
180.9999844243
 20
119.9033126081
 10
180.9861784984
 20
119.8901921357
 10
180.9723914028
 20
119.8770716632
  0
ARC
  5
13C
330
1F
100
AcDbEntity
  8
0
  6
CONTINUOUS
 62
     7
100
AcDbCircle
 10
182.1070927833
 20
119.9086158931
 30
0.0
 40
1.135139754111278
100
AcDbArc
 50
89.6605630587
 51
181.592388891
  0
ARC
  5
13D
330
1F
100
AcDbEntity
  8
0
  6
CONTINUOUS
 62
     7
100
AcDbCircle
 10
183.0883943808
 20
99.7054977522
 30
0.0
 40
10.42068129544236
100
AcDbArc
 50
90.2853641391
 51
90.4297762379
  0
ARC
  5
13E
330
1F
100
AcDbEntity
  8
0
  6
CONTINUOUS
 62
     7
100
AcDbCircle
 10
182.2028663923
 20
110.1232303637
 30
0.0
 40
0.8336323113396119
100
AcDbArc
 50
300.6415457779
 51
0.1937810903
  0
LWPOLYLINE
  5
13F
330
1F
100
AcDbEntity
  8
0
  6
CONTINUOUS
 62
     7
100
AcDbPolyline
 90
        6
 70
   128
 43
0.0
 10
181.8249554906
 20
109.5546349729
 10
182.3345831197
 20
109.6478566373
 10
182.5159833368
 20
109.7456976617
 10
182.6392545897
 20
109.8689302648
 10
182.7114225432
 20
110.0284918989
 10
182.7223914277
 20
110.1274505104
  0
ARC
  5
140
330
1F
100
AcDbEntity
  8
0
  6
CONTINUOUS
 62
     7
100
AcDbCircle
 10
180.7365289274
 20
188.7110091995
 30
0.0
 40
1.063603054831745
100
AcDbArc
 50
357.0289298478
 51
90.6979308967
  0
ARC
  5
141
330
1F
100
AcDbEntity
  8
0
  6
CONTINUOUS
 62
     7
100
AcDbCircle
 10
180.7367231414
 20
188.7112256688
 30
0.0
 40
1.089640117169375
100
AcDbArc
 50
357.0872152342
 51
90.6956794142
  0
LINE
  5
142
330
1F
100
AcDbEntity
  8
0
  6
CONTINUOUS
 62
     7
100
AcDbLine
 10
179.5672419082
 20
188.3835136736
 30
0.0
 11
179.8297642215
 21
188.3835136736
 31
0.0
  0
LINE
  5
143
330
1F
100
AcDbEntity
  8
0
  6
CONTINUOUS
 62
     7
100
AcDbLine
 10
179.5364939442
 20
188.4097620691
 30
0.0
 11
179.8505965105
 21
188.4097620691
 31
0.0
  0
LINE
  5
144
330
1F
100
AcDbEntity
  8
0
  6
CONTINUOUS
 62
     7
100
AcDbLine
 10
181.6640934974
 20
190.9860797072
 30
0.0
 11
181.6640934974
 21
190.6795963491
 31
0.0
  0
LINE
  5
145
330
1F
100
AcDbEntity
  8
0
  6
CONTINUOUS
 62
     7
100
AcDbLine
 10
181.6640934974
 20
190.6795963491
 30
0.0
 11
180.478420805
 21
190.6795963491
 31
0.0
  0
LINE
  5
146
330
1F
100
AcDbEntity
  8
0
  6
CONTINUOUS
 62
     7
100
AcDbLine
 10
179.9307982271
 20
189.3039434994
 30
0.0
 11
180.2758518732
 21
190.9860797072
 31
0.0
  0
LINE
  5
147
330
1F
100
AcDbEntity
  8
0
  6
CONTINUOUS
 62
     7
100
AcDbLine
 10
180.2758518732
 20
190.9860797072
 30
0.0
 11
181.6640934974
 21
190.9860797072
 31
0.0
  0
LWPOLYLINE
  5
148
330
1F
100
AcDbEntity
  8
0
  6
CONTINUOUS
 62
     7
100
AcDbPolyline
 90
        4
 70
   128
 43
0.0
 10
182.014106407
 20
111.0091522182
 10
182.0141520418
 20
111.0170200313
 10
182.0141976766
 20
111.0249027456
 10
182.0142584454
 20
111.0354080642
  0
ARC
  5
149
330
1F
100
AcDbEntity
  8
0
  6
CONTINUOUS
 62
     7
100
AcDbCircle
 10
182.0784994882
 20
110.07838212
 30
0.0
 40
0.9591796335847945
100
AcDbArc
 50
2.8485617372
 51
93.840258711
  0
LINE
  5
14A
330
1F
100
AcDbEntity
  8
0
  6
CONTINUOUS
 62
     7
100
AcDbLine
 10
180.2477090512
 20
147.4259063447
 30
0.0
 11
180.254442688
 21
147.3892494882
 31
0.0
  0
LINE
  5
14B
330
1F
100
AcDbEntity
  8
0
  6
CONTINUOUS
 62
     7
100
AcDbLine
 10
181.3103454604
 20
148.9801049078
 30
0.0
 11
180.2477090512
 21
147.4259063447
 31
0.0
  0
LWPOLYLINE
  5
14C
330
1F
100
AcDbEntity
  8
0
  6
CONTINUOUS
 62
     7
100
AcDbPolyline
 90
        4
 70
   128
 43
0.0
 10
181.3103454604
 20
148.9801049078
 10
181.3168620408
 20
148.9756867135
 10
181.3233785631
 20
148.9712610687
 10
181.3320668714
 20
148.9653676594
  0
LINE
  5
14D
330
1F
100
AcDbEntity
  8
0
  6
CONTINUOUS
 62
     7
100
AcDbLine
 10
181.3320668714
 20
148.9653676594
 30
0.0
 11
180.254442688
 21
147.3892494882
 31
0.0
  0
LINE
  5
14E
330
1F
100
AcDbEntity
  8
0
  6
CONTINUOUS
 62
     7
100
AcDbLine
 10
180.2477090512
 20
147.4259063447
 30
0.0
 11
180.0398084868
 21
147.570507213
 31
0.0
  0
LINE
  5
14F
330
1F
100
AcDbEntity
  8
0
  6
CONTINUOUS
 62
     7
100
AcDbLine
 10
180.254442688
 20
147.3892494882
 30
0.0
 11
180.0034410969
 21
147.5638314928
 31
0.0
  0
ARC
  5
150
330
1F
100
AcDbEntity
  8
0
  6
CONTINUOUS
 62
     7
100
AcDbCircle
 10
180.5731518202
 20
149.9957925357
 30
0.0
 40
1.010399665322485
100
AcDbArc
 50
179.954913974
 51
272.0078483924
  0
ARC
  5
151
330
1F
100
AcDbEntity
  8
0
  6
CONTINUOUS
 62
     7
100
AcDbCircle
 10
180.6201522134
 20
149.9854492136
 30
0.0
 40
1.057458408673613
100
AcDbArc
 50
88.3521733577
 51
179.3964817903
  0
ARC
  5
152
330
1F
100
AcDbEntity
  8
0
  6
CONTINUOUS
 62
     7
100
AcDbCircle
 10
180.6647854363
 20
149.9983898832
 30
0.0
 40
1.044177335395038
100
AcDbArc
 50
359.7122278791
 51
90.7805691187
  0
ARC
  5
153
330
1F
100
AcDbEntity
  8
0
  6
CONTINUOUS
 62
     7
100
AcDbCircle
 10
179.777648867
 20
150.1681199573
 30
0.0
 40
1.939210820155589
100
AcDbArc
 50
322.2202243975
 51
354.8231754475
  0
LWPOLYLINE
  5
154
330
1F
100
AcDbEntity
  8
0
  6
CONTINUOUS
 62
     7
100
AcDbPolyline
 90
        3
 70
   128
 43
0.0
 10
181.0058999815
 20
110.164211675
 10
180.9891016872
 20
110.151083752
 10
180.9723914028
 20
110.1379707302
  0
LINE
  5
155
330
1F
100
AcDbEntity
  8
0
  6
CONTINUOUS
 62
     7
100
AcDbLine
 10
181.2864939982
 20
110.1379707302
 30
0.0
 11
180.9723914028
 21
110.1379707302
 31
0.0
  0
ARC
  5
156
330
1F
100
AcDbEntity
  8
0
  6
CONTINUOUS
 62
     7
100
AcDbCircle
 10
182.0126233259
 20
109.9838173418
 30
0.0
 40
1.051591993652863
100
AcDbArc
 50
89.9109108054
 51
171.5706080424
  0
LWPOLYLINE
  5
157
330
1F
100
AcDbEntity
  8
0
  6
CONTINUOUS
 62
     7
100
AcDbPolyline
 90
        4
 70
   128
 43
0.0
 10
181.8435725124
 20
158.5067003811
 10
181.8514490567
 20
158.5067152823
 10
181.859325601
 20
158.506737634
 10
181.8698273107
 20
158.5067599858
  0
ARC
  5
158
330
1F
100
AcDbEntity
  8
0
  6
CONTINUOUS
 62
     7
100
AcDbCircle
 10
180.811838236
 20
158.4561715826
 30
0.0
 40
1.032970849888219
100
AcDbArc
 50
2.8037990531
 51
71.5762430346
  0
LWPOLYLINE
  5
159
330
1F
100
AcDbEntity
  8
0
  6
CONTINUOUS
 62
     7
100
AcDbPolyline
 90
        3
 70
   128
 43
0.0
 10
181.1383008733
 20
159.4361975635
 10
181.1657728229
 20
159.4366669501
 10
181.1932447724
 20
159.4371437872
  0
ARC
  5
15A
330
1F
100
AcDbEntity
  8
0
  6
CONTINUOUS
 62
     7
100
AcDbCircle
 10
180.8282359516
 20
158.4605064386
 30
0.0
 40
1.042617835082474
100
AcDbArc
 50
2.5426412201
 51
69.5072537325
  0
LWPOLYLINE
  5
15B
330
1F
100
AcDbEntity
  8
0
  6
CONTINUOUS
 62
     7
100
AcDbPolyline
 90
        4
 70
   128
 43
0.0
 10
181.5849111715
 20
157.7989324773
 10
181.5908788537
 20
157.7937915767
 10
181.5968465942
 20
157.7886506761
 10
181.6048032904
 20
157.781796142
  0
ARC
  5
15C
330
1F
100
AcDbEntity
  8
0
  6
CONTINUOUS
 62
     7
100
AcDbCircle
 10
180.7727682325
 20
158.4968880168
 30
0.0
 40
1.070849237063223
100
AcDbArc
 50
319.3242406856
 51
0.5250178201
  0
ARC
  5
15D
330
1F
100
AcDbEntity
  8
0
  6
CONTINUOUS
 62
     7
100
AcDbCircle
 10
180.7726034702
 20
158.496946421
 30
0.0
 40
1.097267725892483
100
AcDbArc
 50
319.3259095649
 51
0.5124395162
  0
LINE
  5
15E
330
1F
100
AcDbEntity
  8
0
  6
CONTINUOUS
 62
     7
100
AcDbLine
 10
180.2758518732
 20
190.9860797072
 30
0.0
 11
180.254442688
 21
191.0123243774
 31
0.0
  0
LINE
  5
15F
330
1F
100
AcDbEntity
  8
0
  6
CONTINUOUS
 62
     7
100
AcDbLine
 10
179.8954683306
 20
189.2623245562
 30
0.0
 11
180.254442688
 21
191.0123243774
 31
0.0
  0
LWPOLYLINE
  5
160
330
1F
100
AcDbEntity
  8
0
  6
CONTINUOUS
 62
     7
100
AcDbPolyline
 90
        4
 70
   128
 43
0.0
 10
180.6679525159
 20
211.0924828644
 10
180.667998209
 20
211.100358128
 10
180.6680438365
 20
211.1082352544
 10
180.6681045471
 20
211.1187368477
  0
ARC
  5
161
330
1F
100
AcDbEntity
  8
0
  6
CONTINUOUS
 62
     7
100
AcDbCircle
 10
180.6644769425
 20
210.0726490934
 30
0.0
 40
1.019839693244577
100
AcDbArc
 50
89.8047378648
 51
170.1252730606
  0
LWPOLYLINE
  5
162
330
1F
100
AcDbEntity
  8
0
  6
CONTINUOUS
 62
     7
100
AcDbPolyline
 90
        3
 70
   128
 43
0.0
 10
179.659746105
 20
210.2475460465
 10
179.6429478397
 20
210.2344237114
 10
179.6262375844
 20
210.2212995137
  0
ARC
  5
163
330
1F
100
AcDbEntity
  8
0
  6
CONTINUOUS
 62
     7
100
AcDbCircle
 10
180.6664486832
 20
210.067170301
 30
0.0
 40
1.051567850437149
100
AcDbArc
 50
89.909778477
 51
171.5717447236
  0
LWPOLYLINE
  5
164
330
1F
100
AcDbEntity
  8
0
  6
CONTINUOUS
 62
     7
100
AcDbPolyline
 90
        4
 70
   128
 43
0.0
 10
181.6640756858
 20
210.2092258478
 10
181.6719552569
 20
210.2092724139
 10
181.679834828
 20
210.2093189801
 10
181.6903401466
 20
210.2093804474
  0
ARC
  5
165
330
1F
100
AcDbEntity
  8
0
  6
CONTINUOUS
 62
     7
100
AcDbCircle
 10
180.7326722161
 20
210.1621382928
 30
0.0
 40
0.9325929773024866
100
AcDbArc
 50
2.8941519708
 51
93.9793872193
  0
ARC
  5
166
330
1F
100
AcDbEntity
  8
0
  6
CONTINUOUS
 62
     7
100
AcDbCircle
 10
180.7323506169
 20
210.1617163419
 30
0.0
 40
0.9591745440720313
100
AcDbArc
 50
2.848363003
 51
93.8405800814
  0
LWPOLYLINE
  5
167
330
1F
100
AcDbEntity
  8
0
  6
CONTINUOUS
 62
     7
100
AcDbPolyline
 90
        4
 70
   128
 43
0.0
 10
180.6757936372
 20
157.4238404478
 10
180.6758006476
 20
157.4159577335
 10
180.6758076252
 20
157.4080824698
 10
180.6758168875
 20
157.3975846017
  0
ARC
  5
168
330
1F
100
AcDbEntity
  8
0
  6
CONTINUOUS
 62
     7
100
AcDbCircle
 10
180.7361953146
 20
158.5667123382
 30
0.0
 40
1.144466915460355
100
AcDbArc
 50
266.9746877129
 51
317.8663371652
  0
ARC
  5
169
330
1F
100
AcDbEntity
  8
0
  6
CONTINUOUS
 62
     7
100
AcDbCircle
 10
180.7371117754
 20
158.5645849592
 30
0.0
 40
1.168608958427078
100
AcDbArc
 50
266.993390606
 51
317.9447683113
  0
ARC
  5
16A
330
1F
100
AcDbEntity
  8
0
  6
CONTINUOUS
 62
     7
100
AcDbCircle
 10
180.8538935187
 20
160.1952690168
 30
0.0
 40
0.8106028710703299
100
AcDbArc
 50
290.5398675454
 51
358.1470780709
  0
ARC
  5
16B
330
1F
100
AcDbEntity
  8
0
  6
CONTINUOUS
 62
     7
100
AcDbCircle
 10
181.6338750092
 20
179.2650898383
 30
0.0
 40
19.09605469193419
100
AcDbArc
 50
270.0906046806
 51
270.169418177
  0
ARC
  5
16C
330
1F
100
AcDbEntity
  8
0
  6
CONTINUOUS
 62
     7
100
AcDbCircle
 10
180.8731122583
 20
160.1893306801
 30
0.0
 40
0.8174777969150654
100
AcDbArc
 50
293.0547180523
 51
358.5832234887
  0
ARC
  5
16D
330
1F
100
AcDbEntity
  8
0
  6
CONTINUOUS
 62
     7
100
AcDbCircle
 10
180.7442905658
 20
160.1314883181
 30
0.0
 40
0.9205489898612889
100
AcDbArc
 50
2.3390834175
 51
92.9554806903
  0
LINE
  5
16E
330
1F
100
AcDbEntity
  8
0
  6
CONTINUOUS
 62
     7
100
AcDbLine
 10
180.6968270628
 20
161.0508128847
 30
0.0
 11
180.6968505405
 21
161.0770687307
 31
0.0
  0
ARC
  5
16F
330
1F
100
AcDbEntity
  8
0
  6
CONTINUOUS
 62
     7
100
AcDbCircle
 10
180.7446865622
 20
160.1318924481
 30
0.0
 40
0.9463860154059847
100
AcDbArc
 50
2.2543162439
 51
92.8973067323
  0
LINE
  5
170
330
1F
100
AcDbEntity
  8
0
  6
CONTINUOUS
 62
     7
100
AcDbLine
 10
181.1133035642
 20
181.0554131711
 30
0.0
 11
181.3137566621
 21
180.8979563261
 31
0.0
  0
LINE
  5
171
330
1F
100
AcDbEntity
  8
0
  6
CONTINUOUS
 62
     7
100
AcDbLine
 10
180.0843403742
 20
179.4822752322
 30
0.0
 11
181.1133035642
 21
181.0554131711
 31
0.0
  0
ARC
  5
172
330
1F
100
AcDbEntity
  8
0
  6
CONTINUOUS
 62
     7
100
AcDbCircle
 10
181.7870855783
 20
124.5338707418
 30
0.0
 40
25.45939461027436
100
AcDbArc
 50
90.1167404455
 51
90.1758434873
  0
ARC
  5
173
330
1F
100
AcDbEntity
  8
0
  6
CONTINUOUS
 62
     7
100
AcDbCircle
 10
179.779879297
 20
150.1671563439
 30
0.0
 40
1.963054331459416
100
AcDbArc
 50
322.251000307
 51
354.9164240505
  0
ARC
  5
174
330
1F
100
AcDbEntity
  8
0
  6
CONTINUOUS
 62
     7
100
AcDbCircle
 10
180.5901742643
 20
158.4928146977
 30
0.0
 40
1.072397605429978
100
AcDbArc
 50
180.7871220341
 51
274.5793233287
  0
ARC
  5
175
330
1F
100
AcDbEntity
  8
0
  6
CONTINUOUS
 62
     7
100
AcDbCircle
 10
180.6335906145
 20
158.3894172274
 30
0.0
 40
1.119230329737284
100
AcDbArc
 50
110.6853635921
 51
175.4562648567
  0
ARC
  5
176
330
1F
100
AcDbEntity
  8
0
  6
CONTINUOUS
 62
     7
100
AcDbCircle
 10
180.5359073252
 20
160.2215782079
 30
0.0
 40
0.8396198910737008
100
AcDbArc
 50
182.9186286731
 51
249.2354624569
  0
ARC
  5
177
330
1F
100
AcDbEntity
  8
0
  6
CONTINUOUS
 62
     7
100
AcDbCircle
 10
180.6470409536
 20
160.0991098777
 30
0.0
 40
0.9530043389845606
100
AcDbArc
 50
87.0054354317
 51
175.2017189734
  0
LINE
  5
178
330
1F
100
AcDbEntity
  8
0
  6
CONTINUOUS
 62
     7
100
AcDbLine
 10
179.5178778536
 20
158.4780827011
 30
0.0
 11
179.491622124
 21
158.4780081953
 31
0.0
  0
ARC
  5
179
330
1F
100
AcDbEntity
  8
0
  6
CONTINUOUS
 62
     7
100
AcDbCircle
 10
180.5901300421
 20
158.4928460187
 30
0.0
 40
1.098608122579812
100
AcDbArc
 50
180.7738614816
 51
274.4733748761
  0
ARC
  5
17A
330
1F
100
AcDbEntity
  8
0
  6
CONTINUOUS
 62
     7
100
AcDbCircle
 10
179.743925089
 20
175.2081810267
 30
0.0
 40
15.02942637708836
100
AcDbArc
 50
269.7224080536
 51
269.8225454896
  0
ARC
  5
17B
330
1F
100
AcDbEntity
  8
0
  6
CONTINUOUS
 62
     7
100
AcDbCircle
 10
180.6474087274
 20
160.098729215
 30
0.0
 40
0.9795880260525754
100
AcDbArc
 50
87.1069355129
 51
175.3037650492
  0
LWPOLYLINE
  5
17C
330
1F
100
AcDbEntity
  8
0
  6
CONTINUOUS
 62
     7
100
AcDbPolyline
 90
        3
 70
   128
 43
0.0
 10
180.2382383155
 20
159.4364955867
 10
180.2102327181
 20
159.4368234123
 10
180.1822271498
 20
159.4371437872
  0
ARC
  5
17D
330
1F
100
AcDbEntity
  8
0
  6
CONTINUOUS
 62
     7
100
AcDbCircle
 10
180.5001577817
 20
160.2031920368
 30
0.0
 40
0.8294032839406238
100
AcDbArc
 50
181.6762061833
 51
247.4602350562
  0
ARC
  5
17E
330
1F
100
AcDbEntity
  8
0
  6
CONTINUOUS
 62
     7
100
AcDbCircle
 10
180.606237396
 20
158.4036488279
 30
0.0
 40
1.117092887780686
100
AcDbArc
 50
112.3067893849
 51
176.1832802324
  0
LINE
  5
17F
330
1F
100
AcDbEntity
  8
0
  6
CONTINUOUS
 62
     7
100
AcDbLine
 10
182.4437848825
 20
118.7654673899
 30
0.0
 11
182.4629762975
 21
118.7475636447
 31
0.0
  0
ARC
  5
180
330
1F
100
AcDbEntity
  8
0
  6
CONTINUOUS
 62
     7
100
AcDbCircle
 10
181.3620885777
 20
120.1955422615
 30
0.0
 40
1.793092589430057
100
AcDbArc
 50
307.1035469443
 51
353.8462749734
  0
ARC
  5
181
330
1F
100
AcDbEntity
  8
0
  6
CONTINUOUS
 62
     7
100
AcDbCircle
 10
181.3696855196
 20
120.191628113
 30
0.0
 40
1.811244575876546
100
AcDbArc
 50
307.1291005538
 51
354.0307919782
  0
ARC
  5
182
330
1F
100
AcDbEntity
  8
0
  6
CONTINUOUS
 62
     7
100
AcDbCircle
 10
181.1253727091
 20
120.3029676974
 30
0.0
 40
1.788214062103774
100
AcDbArc
 50
307.5093947072
 51
349.4340895346
  0
LINE
  5
183
330
1F
100
AcDbEntity
  8
0
  6
CONTINUOUS
 62
     7
100
AcDbLine
 10
182.2142010622
 20
118.8844606126
 30
0.0
 11
182.1951478321
 21
118.9025133694
 31
0.0
  0
ARC
  5
184
330
1F
100
AcDbEntity
  8
0
  6
CONTINUOUS
 62
     7
100
AcDbCircle
 10
181.1268188127
 20
120.302206278
 30
0.0
 40
1.760814337729668
100
AcDbArc
 50
307.3530306197
 51
349.2981380098
  0
LINE
  5
185
330
1F
100
AcDbEntity
  8
0
  6
CONTINUOUS
 62
     7
100
AcDbLine
 10
181.2627225716
 20
119.9033126081
 30
0.0
 11
180.9999844243
 21
119.9033126081
 31
0.0
  0
LINE
  5
186
330
1F
100
AcDbEntity
  8
0
  6
CONTINUOUS
 62
     7
100
AcDbLine
 10
182.4437848825
 20
118.7654673899
 30
0.0
 11
181.5267147447
 21
117.7867218698
 31
0.0
  0
LINE
  5
187
330
1F
100
AcDbEntity
  8
0
  6
CONTINUOUS
 62
     7
100
AcDbLine
 10
181.5267147447
 20
117.7867218698
 30
0.0
 11
183.1897344507
 21
117.7867218698
 31
0.0
  0
LINE
  5
188
330
1F
100
AcDbEntity
  8
0
  6
CONTINUOUS
 62
     7
100
AcDbLine
 10
183.1897344507
 20
117.7867218698
 30
0.0
 11
183.1897344507
 21
117.4802422369
 31
0.0
  0
LINE
  5
189
330
1F
100
AcDbEntity
  8
0
  6
CONTINUOUS
 62
     7
100
AcDbLine
 10
183.1897344507
 20
117.4802422369
 30
0.0
 11
180.8983405479
 21
117.4802422369
 31
0.0
  0
LINE
  5
18A
330
1F
100
AcDbEntity
  8
0
  6
CONTINUOUS
 62
     7
100
AcDbLine
 10
180.8983405479
 20
117.4802422369
 30
0.0
 11
182.2142010622
 21
118.8844606126
 31
0.0
  0
LWPOLYLINE
  5
18B
330
1F
100
AcDbEntity
  8
0
  6
CONTINUOUS
 62
     7
100
AcDbPolyline
 90
        3
 70
   128
 43
0.0
 10
179.5237203894
 20
208.4450531597
 10
179.5076430842
 20
208.4581773574
 10
179.491622124
 20
208.4712996925
  0
ARC
  5
18C
330
1F
100
AcDbEntity
  8
0
  6
CONTINUOUS
 62
     7
100
AcDbCircle
 10
180.6242774216
 20
208.5729238301
 30
0.0
 40
1.107960599257791
100
AcDbArc
 50
186.6273225924
 51
271.7915790385
  0
LWPOLYLINE
  5
18D
330
1F
100
AcDbEntity
  8
0
  6
CONTINUOUS
 62
     7
100
AcDbPolyline
 90
        4
 70
   128
 43
0.0
 10
180.6589165442
 20
207.4655048395
 10
180.6589385249
 20
207.4576277132
 10
180.6589605455
 20
207.4497505868
 10
180.6589899622
 20
207.4392489935
  0
ARC
  5
18E
330
1F
100
AcDbEntity
  8
0
  6
CONTINUOUS
 62
     7
100
AcDbCircle
 10
180.6266461794
 20
208.5789033406
 30
0.0
 40
1.140113218620801
100
AcDbArc
 50
185.41562411
 51
271.625637596
  0
LINE
  5
18F
330
1F
100
AcDbEntity
  8
0
  6
CONTINUOUS
 62
     7
100
AcDbLine
 10
181.3813260358
 20
170.6629335726
 30
0.0
 11
181.3383769893
 21
170.6366851772
 31
0.0
  0
LINE
  5
190
330
1F
100
AcDbEntity
  8
0
  6
CONTINUOUS
 62
     7
100
AcDbLine
 10
179.793731875
 20
167.5659581865
 30
0.0
 11
181.3813260358
 21
170.6629335726
 31
0.0
  0
LINE
  5
191
330
1F
100
AcDbEntity
  8
0
  6
CONTINUOUS
 62
     7
100
AcDbLine
 10
179.793731875
 20
167.5659581865
 30
0.0
 11
179.7587495946
 21
167.5552517022
 31
0.0
  0
LINE
  5
192
330
1F
100
AcDbEntity
  8
0
  6
CONTINUOUS
 62
     7
100
AcDbLine
 10
179.7587495946
 20
167.5552517022
 30
0.0
 11
181.3383769893
 21
170.6366851772
 31
0.0
  0
LINE
  5
193
330
1F
100
AcDbEntity
  8
0
  6
CONTINUOUS
 62
     7
100
AcDbLine
 10
179.2486379688
 20
140.637928232
 30
0.0
 11
179.222391436
 21
140.6116872872
 31
0.0
  0
LINE
  5
194
330
1F
100
AcDbEntity
  8
0
  6
CONTINUOUS
 62
     7
100
AcDbLine
 10
179.2486379688
 20
137.4969050134
 30
0.0
 11
179.2486379688
 21
140.637928232
 31
0.0
  0
LINE
  5
195
330
1F
100
AcDbEntity
  8
0
  6
CONTINUOUS
 62
     7
100
AcDbLine
 10
179.2486379688
 20
137.4969050134
 30
0.0
 11
179.222391436
 21
137.470656618
 31
0.0
  0
LINE
  5
196
330
1F
100
AcDbEntity
  8
0
  6
CONTINUOUS
 62
     7
100
AcDbLine
 10
179.222391436
 20
137.470656618
 30
0.0
 11
179.222391436
 21
140.6116872872
 31
0.0
  0
LINE
  5
197
330
1F
100
AcDbEntity
  8
0
  6
CONTINUOUS
 62
     7
100
AcDbLine
 10
181.4397345713
 20
201.0841570641
 30
0.0
 11
181.4659811623
 21
201.1104017342
 31
0.0
  0
LINE
  5
198
330
1F
100
AcDbEntity
  8
0
  6
CONTINUOUS
 62
     7
100
AcDbLine
 10
181.4159941694
 20
201.0841570641
 30
0.0
 11
181.4397345713
 21
201.0841570641
 31
0.0
  0
LINE
  5
199
330
1F
100
AcDbEntity
  8
0
  6
CONTINUOUS
 62
     7
100
AcDbLine
 10
181.4159941694
 20
201.0841570641
 30
0.0
 11
181.4021790467
 21
201.1104017342
 31
0.0
  0
LINE
  5
19A
330
1F
100
AcDbEntity
  8
0
  6
CONTINUOUS
 62
     7
100
AcDbLine
 10
181.4021790467
 20
201.1104017342
 30
0.0
 11
181.4659811623
 21
201.1104017342
 31
0.0
  0
LINE
  5
19B
330
1F
100
AcDbEntity
  8
0
  6
CONTINUOUS
 62
     7
100
AcDbLine
 10
178.7291903581
 20
140.637928232
 30
0.0
 11
178.6839299436
 21
140.6116872872
 31
0.0
  0
LINE
  5
19C
330
1F
100
AcDbEntity
  8
0
  6
CONTINUOUS
 62
     7
100
AcDbLine
 10
179.2486379688
 20
140.637928232
 30
0.0
 11
178.7291903581
 21
140.637928232
 31
0.0
  0
LINE
  5
19D
330
1F
100
AcDbEntity
  8
0
  6
CONTINUOUS
 62
     7
100
AcDbLine
 10
179.222391436
 20
140.6116872872
 30
0.0
 11
178.6839299436
 21
140.6116872872
 31
0.0
  0
LINE
  5
19E
330
1F
100
AcDbEntity
  8
0
  6
CONTINUOUS
 62
     7
100
AcDbLine
 10
178.9045790044
 20
120.9277450884
 30
0.0
 11
179.5102474114
 21
120.9277450884
 31
0.0
  0
LINE
  5
19F
330
1F
100
AcDbEntity
  8
0
  6
CONTINUOUS
 62
     7
100
AcDbLine
 10
179.5102474114
 20
120.9277450884
 30
0.0
 11
179.5102474114
 21
117.4802422369
 31
0.0
  0
LINE
  5
1A0
330
1F
100
AcDbEntity
  8
0
  6
CONTINUOUS
 62
     7
100
AcDbLine
 10
179.5102474114
 20
117.4802422369
 30
0.0
 11
179.2486379688
 21
117.4802422369
 31
0.0
  0
LINE
  5
1A1
330
1F
100
AcDbEntity
  8
0
  6
CONTINUOUS
 62
     7
100
AcDbLine
 10
179.2486379688
 20
117.4802422369
 30
0.0
 11
179.2486379688
 21
120.6212654556
 31
0.0
  0
LINE
  5
1A2
330
1F
100
AcDbEntity
  8
0
  6
CONTINUOUS
 62
     7
100
AcDbLine
 10
179.2486379688
 20
120.6212654556
 30
0.0
 11
178.7291903581
 21
120.6212654556
 31
0.0
  0
LINE
  5
1A3
330
1F
100
AcDbEntity
  8
0
  6
CONTINUOUS
 62
     7
100
AcDbLine
 10
178.7291903581
 20
120.6212654556
 30
0.0
 11
178.9045790044
 21
120.9277450884
 31
0.0
  0
LINE
  5
1A4
330
1F
100
AcDbEntity
  8
0
  6
CONTINUOUS
 62
     7
100
AcDbLine
 10
181.2294755198
 20
209.4853460635
 30
0.0
 11
181.2815861028
 21
209.4893283988
 31
0.0
  0
ARC
  5
1A5
330
1F
100
AcDbEntity
  8
0
  6
CONTINUOUS
 62
     7
100
AcDbCircle
 10
180.8377734622
 20
210.2129163229
 30
0.0
 40
0.8263104648894308
100
AcDbArc
 50
298.2966931926
 51
359.7441042307
  0
ARC
  5
1A6
330
1F
100
AcDbEntity
  8
0
  6
CONTINUOUS
 62
     7
100
AcDbCircle
 10
180.856694651
 20
210.2065730905
 30
0.0
 40
0.8336502226075255
100
AcDbArc
 50
300.6422459657
 51
0.1929466339
  0
ARC
  5
1A7
330
1F
100
AcDbEntity
  8
0
  6
CONTINUOUS
 62
     7
100
AcDbCircle
 10
180.7362258913
 20
208.6764312298
 30
0.0
 40
0.9777185354212679
100
AcDbArc
 50
193.6889636354
 51
226.4979195171
  0
LWPOLYLINE
  5
1A8
330
1F
100
AcDbEntity
  8
0
  6
CONTINUOUS
 62
     7
100
AcDbPolyline
 90
        3
 70
   128
 43
0.0
 10
179.7862797228
 20
208.4450531597
 10
179.7959975499
 20
208.4581773574
 10
179.8057247486
 20
208.4712996925
  0
ARC
  5
1A9
330
1F
100
AcDbEntity
  8
0
  6
CONTINUOUS
 62
     7
100
AcDbCircle
 10
180.7572624919
 20
208.6909453793
 30
0.0
 40
0.9765594220421667
100
AcDbArc
 50
192.9980499779
 51
226.0795576784
  0
LINE
  5
1AA
330
1F
100
AcDbEntity
  8
0
  6
CONTINUOUS
 62
     7
100
AcDbLine
 10
181.4397345713
 20
198.6610792423
 30
0.0
 11
181.4659811623
 21
198.6873239125
 31
0.0
  0
LINE
  5
1AB
330
1F
100
AcDbEntity
  8
0
  6
CONTINUOUS
 62
     7
100
AcDbLine
 10
181.4397345713
 20
201.0841570641
 30
0.0
 11
181.4397345713
 21
198.6610792423
 31
0.0
  0
LINE
  5
1AC
330
1F
100
AcDbEntity
  8
0
  6
CONTINUOUS
 62
     7
100
AcDbLine
 10
181.4659811623
 20
201.1104017342
 30
0.0
 11
181.4659811623
 21
198.6873239125
 31
0.0
  0
ARC
  5
1AD
330
1F
100
AcDbEntity
  8
0
  6
CONTINUOUS
 62
     7
100
AcDbCircle
 10
180.7071259205
 20
208.6013890599
 30
0.0
 40
1.13690681503097
100
AcDbArc
 50
267.5697020972
 51
358.3624739812
  0
LWPOLYLINE
  5
1AE
330
1F
100
AcDbEntity
  8
0
  6
CONTINUOUS
 62
     7
100
AcDbPolyline
 90
        4
 70
   128
 43
0.0
 10
181.8435684379
 20
208.5689004357
 10
181.8514461463
 20
208.5688575948
 10
181.8593238547
 20
208.568814754
 10
181.8698273107
 20
208.5687551493
  0
ARC
  5
1AF
330
1F
100
AcDbEntity
  8
0
  6
CONTINUOUS
 62
     7
100
AcDbCircle
 10
180.707576056
 20
208.6009299251
 30
0.0
 40
1.162696518999516
100
AcDbArc
 50
267.605059554
 51
358.4142773397
  0
LINE
  5
1B0
330
1F
100
AcDbEntity
  8
0
  6
CONTINUOUS
 62
     7
100
AcDbLine
 10
181.5968866993
 20
130.936080202
 30
0.0
 11
181.581666269
 21
130.9623285974
 31
0.0
  0
LINE
  5
1B1
330
1F
100
AcDbEntity
  8
0
  6
CONTINUOUS
 62
     7
100
AcDbLine
 10
181.4214980529
 20
130.6296005691
 30
0.0
 11
181.5968866993
 21
130.936080202
 31
0.0
  0
LINE
  5
1B2
330
1F
100
AcDbEntity
  8
0
  6
CONTINUOUS
 62
     7
100
AcDbLine
 10
181.4214980529
 20
130.6296005691
 30
0.0
 11
181.3762375803
 21
130.6033521737
 31
0.0
  0
LINE
  5
1B3
330
1F
100
AcDbEntity
  8
0
  6
CONTINUOUS
 62
     7
100
AcDbLine
 10
181.3762375803
 20
130.6033521737
 30
0.0
 11
181.581666269
 21
130.9623285974
 31
0.0
  0
LINE
  5
1B4
330
1F
100
AcDbEntity
  8
0
  6
CONTINUOUS
 62
     7
100
AcDbLine
 10
181.9409456637
 20
130.6296005691
 30
0.0
 11
181.4214980529
 21
130.6296005691
 31
0.0
  0
LINE
  5
1B5
330
1F
100
AcDbEntity
  8
0
  6
CONTINUOUS
 62
     7
100
AcDbLine
 10
181.9409456637
 20
130.6296005691
 30
0.0
 11
181.9146991309
 21
130.6033521737
 31
0.0
  0
LINE
  5
1B6
330
1F
100
AcDbEntity
  8
0
  6
CONTINUOUS
 62
     7
100
AcDbLine
 10
181.9146991309
 20
130.6033521737
 30
0.0
 11
181.3762375803
 21
130.6033521737
 31
0.0
  0
LINE
  5
1B7
330
1F
100
AcDbEntity
  8
0
  6
CONTINUOUS
 62
     7
100
AcDbLine
 10
181.8435806615
 20
198.3545996095
 30
0.0
 11
181.8698273107
 21
198.328351214
 31
0.0
  0
LINE
  5
1B8
330
1F
100
AcDbEntity
  8
0
  6
CONTINUOUS
 62
     7
100
AcDbLine
 10
181.8435806615
 20
198.6610792423
 30
0.0
 11
181.8435806615
 21
198.3545996095
 31
0.0
  0
LINE
  5
1B9
330
1F
100
AcDbEntity
  8
0
  6
CONTINUOUS
 62
     7
100
AcDbLine
 10
181.8435806615
 20
198.6610792423
 30
0.0
 11
181.8698273107
 21
198.6873239125
 31
0.0
  0
LINE
  5
1BA
330
1F
100
AcDbEntity
  8
0
  6
CONTINUOUS
 62
     7
100
AcDbLine
 10
181.8698273107
 20
198.6873239125
 30
0.0
 11
181.8698273107
 21
198.328351214
 31
0.0
  0
LWPOLYLINE
  5
1BB
330
1F
100
AcDbEntity
  8
0
  6
CONTINUOUS
 62
     7
100
AcDbPolyline
 90
        7
 70
   128
 43
0.0
 10
180.8640230718
 20
139.21925573
 10
180.9183481798
 20
139.9417310799
 10
181.0850970048
 20
140.4475509966
 10
181.3105300951
 20
140.7527640308
 10
181.6302646018
 20
140.9616112555
 10
181.961005537
 20
141.0328760589
 10
182.0079387232
 20
141.0341501082
  0
LWPOLYLINE
  5
1BC
330
1F
100
AcDbEntity
  8
0
  6
CONTINUOUS
 62
     7
100
AcDbPolyline
 90
        6
 70
   128
 43
0.0
 10
182.0079387232
 20
141.0341501082
 10
182.3682577649
 20
140.9704252923
 10
182.6813003115
 20
140.7833933676
 10
182.9022030413
 20
140.5214309538
 10
183.1096542135
 20
140.0193065251
 10
183.1897325881
 20
139.21925573
  0
LINE
  5
1BD
330
1F
100
AcDbEntity
  8
0
  6
CONTINUOUS
 62
     7
100
AcDbLine
 10
178.9045790044
 20
120.9277450884
 30
0.0
 11
178.889358516
 21
120.9539934839
 31
0.0
  0
LINE
  5
1BE
330
1F
100
AcDbEntity
  8
0
  6
CONTINUOUS
 62
     7
100
AcDbLine
 10
178.7291903581
 20
120.6212654556
 30
0.0
 11
178.6839299436
 21
120.5950170601
 31
0.0
  0
LINE
  5
1BF
330
1F
100
AcDbEntity
  8
0
  6
CONTINUOUS
 62
     7
100
AcDbLine
 10
178.6839299436
 20
120.5950170601
 30
0.0
 11
178.889358516
 21
120.9539934839
 31
0.0
  0
LINE
  5
1C0
330
1F
100
AcDbEntity
  8
0
  6
CONTINUOUS
 62
     7
100
AcDbLine
 10
179.2486379688
 20
120.6212654556
 30
0.0
 11
179.222391436
 21
120.5950170601
 31
0.0
  0
LINE
  5
1C1
330
1F
100
AcDbEntity
  8
0
  6
CONTINUOUS
 62
     7
100
AcDbLine
 10
179.222391436
 20
120.5950170601
 30
0.0
 11
178.6839299436
 21
120.5950170601
 31
0.0
  0
LINE
  5
1C2
330
1F
100
AcDbEntity
  8
0
  6
CONTINUOUS
 62
     7
100
AcDbLine
 10
179.9232969477
 20
210.2475460465
 30
0.0
 11
179.659746105
 21
210.2475460465
 31
0.0
  0
ARC
  5
1C3
330
1F
100
AcDbEntity
  8
0
  6
CONTINUOUS
 62
     7
100
AcDbCircle
 10
180.8765453088
 20
208.5922623063
 30
0.0
 40
0.960290753487619
100
AcDbArc
 50
37.3346634842
 51
68.43698321
  0
ARC
  5
1C4
330
1F
100
AcDbEntity
  8
0
  6
CONTINUOUS
 62
     7
100
AcDbCircle
 10
180.8496149295
 20
208.572054862
 30
0.0
 40
0.9939585138719592
100
AcDbArc
 50
359.8181658298
 51
37.3193658978
  0
LINE
  5
1C5
330
1F
100
AcDbEntity
  8
0
  6
CONTINUOUS
 62
     7
100
AcDbLine
 10
179.5237203894
 20
208.4450531597
 30
0.0
 11
179.7862797228
 21
208.4450531597
 31
0.0
  0
LWPOLYLINE
  5
1C6
330
1F
100
AcDbEntity
  8
0
  6
CONTINUOUS
 62
     7
100
AcDbPolyline
 90
        6
 70
   128
 43
0.0
 10
181.5819846649
 20
208.5389397884
 10
181.5302113371
 20
208.7927196021
 10
181.3967248725
 20
208.9989423598
 10
181.1984933572
 20
209.1556802238
 10
180.9035104795
 20
209.2579431678
 10
180.5050482633
 20
209.3037754143
  0
LINE
  5
1C7
330
1F
100
AcDbEntity
  8
0
  6
CONTINUOUS
 62
     7
100
AcDbLine
 10
180.5050482633
 20
209.3037754143
 30
0.0
 11
180.5050482633
 21
209.6121884728
 31
0.0
  0
LWPOLYLINE
  5
1C8
330
1F
100
AcDbEntity
  8
0
  6
CONTINUOUS
 62
     7
100
AcDbPolyline
 90
        6
 70
   128
 43
0.0
 10
180.5050482633
 20
209.6121884728
 10
180.9865393568
 20
209.7021300192
 10
181.185045845
 20
209.8076488669
 10
181.314363768
 20
209.9368661488
 10
181.3904103308
 20
210.104006886
 10
181.402499247
 20
210.2104160781
  0
LINE
  5
1C9
330
1F
100
AcDbEntity
  8
0
  6
CONTINUOUS
 62
     7
100
AcDbLine
 10
181.178125187
 20
198.6610792423
 30
0.0
 11
181.178125187
 21
200.2919815327
 31
0.0
  0
LINE
  5
1CA
330
1F
100
AcDbEntity
  8
0
  6
CONTINUOUS
 62
     7
100
AcDbLine
 10
181.178125187
 20
200.2919815327
 30
0.0
 11
180.0587611922
 21
198.6610792423
 31
0.0
  0
LINE
  5
1CB
330
1F
100
AcDbEntity
  8
0
  6
CONTINUOUS
 62
     7
100
AcDbLine
 10
180.0587611922
 20
198.6610792423
 30
0.0
 11
181.178125187
 21
198.6610792423
 31
0.0
  0
LINE
  5
1CC
330
1F
100
AcDbEntity
  8
0
  6
CONTINUOUS
 62
     7
100
AcDbLine
 10
181.4397345713
 20
198.6610792423
 30
0.0
 11
181.8435806615
 21
198.6610792423
 31
0.0
  0
LINE
  5
1CD
330
1F
100
AcDbEntity
  8
0
  6
CONTINUOUS
 62
     7
100
AcDbLine
 10
181.8435806615
 20
198.3545996095
 30
0.0
 11
181.4397345713
 21
198.3545996095
 31
0.0
  0
LINE
  5
1CE
330
1F
100
AcDbEntity
  8
0
  6
CONTINUOUS
 62
     7
100
AcDbLine
 10
181.4397345713
 20
198.3545996095
 30
0.0
 11
181.4397345713
 21
197.5469045187
 31
0.0
  0
LINE
  5
1CF
330
1F
100
AcDbEntity
  8
0
  6
CONTINUOUS
 62
     7
100
AcDbLine
 10
181.4397345713
 20
197.5469045187
 30
0.0
 11
181.178125187
 21
197.5469045187
 31
0.0
  0
LINE
  5
1D0
330
1F
100
AcDbEntity
  8
0
  6
CONTINUOUS
 62
     7
100
AcDbLine
 10
181.178125187
 20
197.5469045187
 30
0.0
 11
181.178125187
 21
198.3545996095
 31
0.0
  0
LINE
  5
1D1
330
1F
100
AcDbEntity
  8
0
  6
CONTINUOUS
 62
     7
100
AcDbLine
 10
181.178125187
 20
198.3545996095
 30
0.0
 11
179.5414866481
 21
198.3545996095
 31
0.0
  0
LINE
  5
1D2
330
1F
100
AcDbEntity
  8
0
  6
CONTINUOUS
 62
     7
100
AcDbLine
 10
179.5414866481
 20
198.3545996095
 30
0.0
 11
181.4159941694
 21
201.0841570641
 31
0.0
  0
LINE
  5
1D3
330
1F
100
AcDbEntity
  8
0
  6
CONTINUOUS
 62
     7
100
AcDbLine
 10
178.9045790044
 20
140.9444153155
 30
0.0
 11
179.5102474114
 21
140.9444153155
 31
0.0
  0
LINE
  5
1D4
330
1F
100
AcDbEntity
  8
0
  6
CONTINUOUS
 62
     7
100
AcDbLine
 10
179.5102474114
 20
140.9444153155
 30
0.0
 11
179.5102474114
 21
137.4969050134
 31
0.0
  0
LINE
  5
1D5
330
1F
100
AcDbEntity
  8
0
  6
CONTINUOUS
 62
     7
100
AcDbLine
 10
179.5102474114
 20
137.4969050134
 30
0.0
 11
179.2486379688
 21
137.4969050134
 31
0.0
  0
LINE
  5
1D6
330
1F
100
AcDbEntity
  8
0
  6
CONTINUOUS
 62
     7
100
AcDbLine
 10
178.7291903581
 20
140.637928232
 30
0.0
 11
178.9045790044
 21
140.9444153155
 31
0.0
  0
LINE
  5
1D7
330
1F
100
AcDbEntity
  8
0
  6
CONTINUOUS
 62
     7
100
AcDbLine
 10
179.5102474114
 20
120.9277450884
 30
0.0
 11
179.5364939442
 21
120.9539934839
 31
0.0
  0
LINE
  5
1D8
330
1F
100
AcDbEntity
  8
0
  6
CONTINUOUS
 62
     7
100
AcDbLine
 10
178.889358516
 20
120.9539934839
 30
0.0
 11
179.5364939442
 21
120.9539934839
 31
0.0
  0
LINE
  5
1D9
330
1F
100
AcDbEntity
  8
0
  6
CONTINUOUS
 62
     7
100
AcDbLine
 10
180.6505605252
 20
151.0424703206
 30
0.0
 11
180.6505765032
 21
151.0687336172
 31
0.0
  0
LWPOLYLINE
  5
1DA
330
1F
100
AcDbEntity
  8
0
  6
CONTINUOUS
 62
     7
100
AcDbPolyline
 90
        4
 70
   128
 43
0.0
 10
179.5627524677
 20
149.9965876187
 10
179.5548745265
 20
149.9966323222
 10
179.5469964688
 20
149.9966695751
 10
179.5364939442
 20
149.9967217291
  0
ARC
  5
1DB
330
1F
100
AcDbEntity
  8
0
  6
CONTINUOUS
 62
     7
100
AcDbCircle
 10
180.6199398525
 20
149.9856645086
 30
0.0
 40
1.083502329627426
100
AcDbArc
 50
88.3797129666
 51
179.415282229
  0
ARC
  5
1DC
330
1F
100
AcDbEntity
  8
0
  6
CONTINUOUS
 62
     7
100
AcDbCircle
 10
180.5733613898
 20
149.9960366024
 30
0.0
 40
1.036867671994599
100
AcDbArc
 50
179.9621409022
 51
271.942587997
  0
LINE
  5
1DD
330
1F
100
AcDbEntity
  8
0
  6
CONTINUOUS
 62
     7
100
AcDbLine
 10
181.178125187
 20
198.6610792423
 30
0.0
 11
181.151878596
 21
198.6873239125
 31
0.0
  0
LINE
  5
1DE
330
1F
100
AcDbEntity
  8
0
  6
CONTINUOUS
 62
     7
100
AcDbLine
 10
180.0587611922
 20
198.6610792423
 30
0.0
 11
180.1086093599
 21
198.6873239125
 31
0.0
  0
LINE
  5
1DF
330
1F
100
AcDbEntity
  8
0
  6
CONTINUOUS
 62
     7
100
AcDbLine
 10
180.1086093599
 20
198.6873239125
 30
0.0
 11
181.151878596
 21
198.6873239125
 31
0.0
  0
LWPOLYLINE
  5
1E0
330
1F
100
AcDbEntity
  8
0
  6
CONTINUOUS
 62
     7
100
AcDbPolyline
 90
        4
 70
   128
 43
0.0
 10
182.0079387232
 20
141.0341501082
 10
182.0079415172
 20
141.0420253719
 10
182.0079444276
 20
141.0499006356
 10
182.0079482693
 20
141.0604059542
  0
LWPOLYLINE
  5
1E1
330
1F
100
AcDbEntity
  8
0
  6
CONTINUOUS
 62
     7
100
AcDbPolyline
 90
        7
 70
   128
 43
0.0
 10
180.8377760151
 20
139.21925573
 10
180.8916910939
 20
139.9417310799
 10
181.0623606268
 20
140.4607012714
 10
181.2931913717
 20
140.7724708165
 10
181.6200985174
 20
140.9858107413
 10
181.9594645474
 20
141.0590723003
 10
182.0079482693
 20
141.0604059542
  0
LINE
  5
1E2
330
1F
100
AcDbEntity
  8
0
  6
CONTINUOUS
 62
     7
100
AcDbLine
 10
182.7858883023
 20
97.4635794605
 30
0.0
 11
182.8121350679
 21
97.4373236145
 31
0.0
  0
LINE
  5
1E3
330
1F
100
AcDbEntity
  8
0
  6
CONTINUOUS
 62
     7
100
AcDbLine
 10
182.7858883023
 20
98.2712671007
 30
0.0
 11
182.7858883023
 21
97.4635794605
 31
0.0
  0
LINE
  5
1E4
330
1F
100
AcDbEntity
  8
0
  6
CONTINUOUS
 62
     7
100
AcDbLine
 10
182.7858883023
 20
98.2712671007
 30
0.0
 11
182.8121350679
 21
98.2450112546
 31
0.0
  0
LINE
  5
1E5
330
1F
100
AcDbEntity
  8
0
  6
CONTINUOUS
 62
     7
100
AcDbLine
 10
182.8121350679
 20
98.2450112546
 30
0.0
 11
182.8121350679
 21
97.4373236145
 31
0.0
  0
LINE
  5
1E6
330
1F
100
AcDbEntity
  8
0
  6
CONTINUOUS
 62
     7
100
AcDbLine
 10
181.4659811623
 20
198.6873239125
 30
0.0
 11
181.8698273107
 21
198.6873239125
 31
0.0
  0
LWPOLYLINE
  5
1E7
330
1F
100
AcDbEntity
  8
0
  6
CONTINUOUS
 62
     7
100
AcDbPolyline
 90
        3
 70
   128
 43
0.0
 10
180.5050482633
 20
209.6121884728
 10
180.491924895
 20
209.625068664
 10
180.4788016577
 20
209.6379674817
  0
LWPOLYLINE
  5
1E8
330
1F
100
AcDbEntity
  8
0
  6
CONTINUOUS
 62
     7
100
AcDbPolyline
 90
        6
 70
   128
 43
0.0
 10
180.4788016577
 20
209.6379674817
 10
180.9884292723
 20
209.7311928714
 10
181.1698294312
 20
209.8290357585
 10
181.2931008005
 20
209.9522664989
 10
181.3652686376
 20
210.1118188197
 10
181.3762375803
 20
210.2107830192
  0
LINE
  5
1E9
330
1F
100
AcDbEntity
  8
0
  6
CONTINUOUS
 62
     7
100
AcDbLine
 10
182.7858883023
 20
98.5777392829
 30
0.0
 11
182.8121350679
 21
98.603995129
 31
0.0
  0
LINE
  5
1EA
330
1F
100
AcDbEntity
  8
0
  6
CONTINUOUS
 62
     7
100
AcDbLine
 10
182.7858883023
 20
101.0008171047
 30
0.0
 11
182.7858883023
 21
98.5777392829
 31
0.0
  0
LINE
  5
1EB
330
1F
100
AcDbEntity
  8
0
  6
CONTINUOUS
 62
     7
100
AcDbLine
 10
182.7858883023
 20
101.0008171047
 30
0.0
 11
182.8121350679
 21
101.0270729507
 31
0.0
  0
LINE
  5
1EC
330
1F
100
AcDbEntity
  8
0
  6
CONTINUOUS
 62
     7
100
AcDbLine
 10
182.8121350679
 20
101.0270729507
 30
0.0
 11
182.8121350679
 21
98.603995129
 31
0.0
  0
LWPOLYLINE
  5
1ED
330
1F
100
AcDbEntity
  8
0
  6
CONTINUOUS
 62
     7
100
AcDbPolyline
 90
        6
 70
   128
 43
0.0
 10
182.0079482693
 20
141.0604059542
 10
182.368304331
 20
140.9983649696
 10
182.6912351951
 20
140.8094778503
 10
182.9202702336
 20
140.5419424022
 10
183.1323819768
 20
140.0368004883
 10
183.2159812163
 20
139.21925573
  0
LINE
  5
1EE
330
1F
100
AcDbEntity
  8
0
  6
CONTINUOUS
 62
     7
100
AcDbLine
 10
181.178125187
 20
200.2919815327
 30
0.0
 11
181.151878596
 21
200.2073578382
 31
0.0
  0
LINE
  5
1EF
330
1F
100
AcDbEntity
  8
0
  6
CONTINUOUS
 62
     7
100
AcDbLine
 10
181.151878596
 20
198.6873239125
 30
0.0
 11
181.151878596
 21
200.2073578382
 31
0.0
  0
LINE
  5
1F0
330
1F
100
AcDbEntity
  8
0
  6
CONTINUOUS
 62
     7
100
AcDbLine
 10
181.151878596
 20
200.2073578382
 30
0.0
 11
180.1086093599
 21
198.6873239125
 31
0.0
  0
LINE
  5
1F1
330
1F
100
AcDbEntity
  8
0
  6
CONTINUOUS
 62
     7
100
AcDbLine
 10
182.5242789762
 20
100.2086415733
 30
0.0
 11
182.4980324434
 21
100.1240178789
 31
0.0
  0
LINE
  5
1F2
330
1F
100
AcDbEntity
  8
0
  6
CONTINUOUS
 62
     7
100
AcDbLine
 10
182.5242789762
 20
98.5777392829
 30
0.0
 11
182.5242789762
 21
100.2086415733
 31
0.0
  0
LINE
  5
1F3
330
1F
100
AcDbEntity
  8
0
  6
CONTINUOUS
 62
     7
100
AcDbLine
 10
182.5242789762
 20
98.5777392829
 30
0.0
 11
182.4980324434
 21
98.603995129
 31
0.0
  0
LINE
  5
1F4
330
1F
100
AcDbEntity
  8
0
  6
CONTINUOUS
 62
     7
100
AcDbLine
 10
182.4980324434
 20
98.603995129
 30
0.0
 11
182.4980324434
 21
100.1240178789
 31
0.0
  0
LINE
  5
1F5
330
1F
100
AcDbEntity
  8
0
  6
CONTINUOUS
 62
     7
100
AcDbLine
 10
181.4049150396
 20
98.5777392829
 30
0.0
 11
181.4547632073
 21
98.603995129
 31
0.0
  0
LINE
  5
1F6
330
1F
100
AcDbEntity
  8
0
  6
CONTINUOUS
 62
     7
100
AcDbLine
 10
182.5242789762
 20
100.2086415733
 30
0.0
 11
181.4049150396
 21
98.5777392829
 31
0.0
  0
LINE
  5
1F7
330
1F
100
AcDbEntity
  8
0
  6
CONTINUOUS
 62
     7
100
AcDbLine
 10
182.4980324434
 20
100.1240178789
 30
0.0
 11
181.4547632073
 21
98.603995129
 31
0.0
  0
LINE
  5
1F8
330
1F
100
AcDbEntity
  8
0
  6
CONTINUOUS
 62
     7
100
AcDbLine
 10
179.5102474114
 20
137.4969050134
 30
0.0
 11
179.5364939442
 21
137.470656618
 31
0.0
  0
LINE
  5
1F9
330
1F
100
AcDbEntity
  8
0
  6
CONTINUOUS
 62
     7
100
AcDbLine
 10
179.5364939442
 20
137.470656618
 30
0.0
 11
179.222391436
 21
137.470656618
 31
0.0
  0
LWPOLYLINE
  5
1FA
330
1F
100
AcDbEntity
  8
0
  6
CONTINUOUS
 62
     7
100
AcDbPolyline
 90
        3
 70
   128
 43
0.0
 10
180.5050482633
 20
209.3037754143
 10
180.491924895
 20
209.2913925494
 10
180.4788016577
 20
209.2789929206
  0
LWPOLYLINE
  5
1FB
330
1F
100
AcDbEntity
  8
0
  6
CONTINUOUS
 62
     7
100
AcDbPolyline
 90
        6
 70
   128
 43
0.0
 10
181.5557247444
 20
208.5386082376
 10
181.5069663405
 20
208.7803330118
 10
181.3792672308
 20
208.9790772493
 10
181.1889929647
 20
209.1309293951
 10
180.9051776052
 20
209.2308491314
 10
180.4788016577
 20
209.2789929206
  0
LWPOLYLINE
  5
1FC
330
1F
100
AcDbEntity
  8
0
  6
CONTINUOUS
 62
     7
100
AcDbPolyline
 90
        4
 70
   128
 43
0.0
 10
181.6400789373
 20
209.174649402
 10
181.6463232224
 20
209.1794494385
 10
181.6525675074
 20
209.1842494751
 10
181.6608930074
 20
209.1906513865
  0
ARC
  5
1FD
330
1F
100
AcDbEntity
  8
0
  6
CONTINUOUS
 62
     7
100
AcDbCircle
 10
180.9112351368
 20
208.6288084703
 30
0.0
 40
0.9368321009478134
100
AcDbArc
 50
36.8503029248
 51
66.7139004128
  0
LINE
  5
1FE
330
1F
100
AcDbEntity
  8
0
  6
CONTINUOUS
 62
     7
100
AcDbLine
 10
178.7291903581
 20
110.6129303421
 30
0.0
 11
178.6839299436
 21
110.5866893972
 31
0.0
  0
LINE
  5
1FF
330
1F
100
AcDbEntity
  8
0
  6
CONTINUOUS
 62
     7
100
AcDbLine
 10
179.2486379688
 20
110.6129303421
 30
0.0
 11
178.7291903581
 21
110.6129303421
 31
0.0
  0
LINE
  5
200
330
1F
100
AcDbEntity
  8
0
  6
CONTINUOUS
 62
     7
100
AcDbLine
 10
179.2486379688
 20
110.6129303421
 30
0.0
 11
179.222391436
 21
110.5866893972
 31
0.0
  0
LINE
  5
201
330
1F
100
AcDbEntity
  8
0
  6
CONTINUOUS
 62
     7
100
AcDbLine
 10
179.222391436
 20
110.5866893972
 30
0.0
 11
178.6839299436
 21
110.5866893972
 31
0.0
  0
LINE
  5
202
330
1F
100
AcDbEntity
  8
0
  6
CONTINUOUS
 62
     7
100
AcDbLine
 10
179.7422277575
 20
170.9694132055
 30
0.0
 11
179.7159811083
 21
170.9956616009
 31
0.0
  0
LINE
  5
203
330
1F
100
AcDbEntity
  8
0
  6
CONTINUOUS
 62
     7
100
AcDbLine
 10
179.7422277575
 20
170.6629335726
 30
0.0
 11
179.7422277575
 21
170.9694132055
 31
0.0
  0
LINE
  5
204
330
1F
100
AcDbEntity
  8
0
  6
CONTINUOUS
 62
     7
100
AcDbLine
 10
179.7422277575
 20
170.6629335726
 30
0.0
 11
179.7159811083
 21
170.6366851772
 31
0.0
  0
LINE
  5
205
330
1F
100
AcDbEntity
  8
0
  6
CONTINUOUS
 62
     7
100
AcDbLine
 10
179.7159811083
 20
170.6366851772
 30
0.0
 11
179.7159811083
 21
170.9956616009
 31
0.0
  0
LINE
  5
206
330
1F
100
AcDbEntity
  8
0
  6
CONTINUOUS
 62
     7
100
AcDbLine
 10
181.3813260358
 20
170.6629335726
 30
0.0
 11
179.7422277575
 21
170.6629335726
 31
0.0
  0
LINE
  5
207
330
1F
100
AcDbEntity
  8
0
  6
CONTINUOUS
 62
     7
100
AcDbLine
 10
181.3383769893
 20
170.6366851772
 30
0.0
 11
179.7159811083
 21
170.6366851772
 31
0.0
  0
LINE
  5
208
330
1F
100
AcDbEntity
  8
0
  6
CONTINUOUS
 62
     7
100
AcDbLine
 10
179.5102474114
 20
107.4718996728
 30
0.0
 11
179.5364939442
 21
107.445658728
 31
0.0
  0
LINE
  5
209
330
1F
100
AcDbEntity
  8
0
  6
CONTINUOUS
 62
     7
100
AcDbLine
 10
179.5102474114
 20
110.9194174255
 30
0.0
 11
179.5102474114
 21
107.4718996728
 31
0.0
  0
LINE
  5
20A
330
1F
100
AcDbEntity
  8
0
  6
CONTINUOUS
 62
     7
100
AcDbLine
 10
179.5102474114
 20
110.9194174255
 30
0.0
 11
179.5364939442
 21
110.9456583703
 31
0.0
  0
LINE
  5
20B
330
1F
100
AcDbEntity
  8
0
  6
CONTINUOUS
 62
     7
100
AcDbLine
 10
179.5364939442
 20
110.9456583703
 30
0.0
 11
179.5364939442
 21
107.445658728
 31
0.0
  0
LINE
  5
20C
330
1F
100
AcDbEntity
  8
0
  6
CONTINUOUS
 62
     7
100
AcDbLine
 10
180.0190558258
 20
167.4419432724
 30
0.0
 11
179.793731875
 21
167.5659581865
 31
0.0
  0
LINE
  5
20D
330
1F
100
AcDbEntity
  8
0
  6
CONTINUOUS
 62
     7
100
AcDbLine
 10
180.0190558258
 20
167.4419432724
 30
0.0
 11
180.0300837328
 21
167.4059122647
 31
0.0
  0
LINE
  5
20E
330
1F
100
AcDbEntity
  8
0
  6
CONTINUOUS
 62
     7
100
AcDbLine
 10
180.0300837328
 20
167.4059122647
 30
0.0
 11
179.7587495946
 21
167.5552517022
 31
0.0
  0
LINE
  5
20F
330
1F
100
AcDbEntity
  8
0
  6
CONTINUOUS
 62
     7
100
AcDbLine
 10
181.8268830955
 20
170.9694132055
 30
0.0
 11
180.0190558258
 21
167.4419432724
 31
0.0
  0
LINE
  5
210
330
1F
100
AcDbEntity
  8
0
  6
CONTINUOUS
 62
     7
100
AcDbLine
 10
181.8268830955
 20
170.9694132055
 30
0.0
 11
181.8698273107
 21
170.9956616009
 31
0.0
  0
LINE
  5
211
330
1F
100
AcDbEntity
  8
0
  6
CONTINUOUS
 62
     7
100
AcDbLine
 10
181.8698273107
 20
170.9956616009
 30
0.0
 11
180.0300837328
 21
167.4059122647
 31
0.0
  0
LINE
  5
212
330
1F
100
AcDbEntity
  8
0
  6
CONTINUOUS
 62
     7
100
AcDbLine
 10
179.5414866481
 20
198.3545996095
 30
0.0
 11
179.491622124
 21
198.328351214
 31
0.0
  0
LINE
  5
213
330
1F
100
AcDbEntity
  8
0
  6
CONTINUOUS
 62
     7
100
AcDbLine
 10
179.491622124
 20
198.328351214
 30
0.0
 11
181.4021790467
 21
201.1104017342
 31
0.0
  0
LINE
  5
214
330
1F
100
AcDbEntity
  8
0
  6
CONTINUOUS
 62
     7
100
AcDbLine
 10
181.178125187
 20
198.3545996095
 30
0.0
 11
181.151878596
 21
198.328351214
 31
0.0
  0
LINE
  5
215
330
1F
100
AcDbEntity
  8
0
  6
CONTINUOUS
 62
     7
100
AcDbLine
 10
181.151878596
 20
198.328351214
 30
0.0
 11
179.491622124
 21
198.328351214
 31
0.0
  0
LINE
  5
216
330
1F
100
AcDbEntity
  8
0
  6
CONTINUOUS
 62
     7
100
AcDbLine
 10
181.178125187
 20
197.5469045187
 30
0.0
 11
181.151878596
 21
197.5206598485
 31
0.0
  0
LINE
  5
217
330
1F
100
AcDbEntity
  8
0
  6
CONTINUOUS
 62
     7
100
AcDbLine
 10
181.151878596
 20
197.5206598485
 30
0.0
 11
181.151878596
 21
198.328351214
 31
0.0
  0
LINE
  5
218
330
1F
100
AcDbEntity
  8
0
  6
CONTINUOUS
 62
     7
100
AcDbLine
 10
181.4397345713
 20
197.5469045187
 30
0.0
 11
181.4659811623
 21
197.5206598485
 31
0.0
  0
LINE
  5
219
330
1F
100
AcDbEntity
  8
0
  6
CONTINUOUS
 62
     7
100
AcDbLine
 10
181.4659811623
 20
197.5206598485
 30
0.0
 11
181.151878596
 21
197.5206598485
 31
0.0
  0
ARC
  5
21A
330
1F
100
AcDbEntity
  8
0
  6
CONTINUOUS
 62
     7
100
AcDbCircle
 10
180.8491990268
 20
208.5719067634
 30
0.0
 40
1.020633149860104
100
AcDbArc
 50
359.823076026
 51
37.3178406216
  0
LINE
  5
21B
330
1F
100
AcDbEntity
  8
0
  6
CONTINUOUS
 62
     7
100
AcDbLine
 10
179.5102474114
 20
140.9444153155
 30
0.0
 11
179.5364939442
 21
140.9706562603
 31
0.0
  0
LINE
  5
21C
330
1F
100
AcDbEntity
  8
0
  6
CONTINUOUS
 62
     7
100
AcDbLine
 10
178.9045790044
 20
140.9444153155
 30
0.0
 11
178.889358516
 21
140.9706562603
 31
0.0
  0
LINE
  5
21D
330
1F
100
AcDbEntity
  8
0
  6
CONTINUOUS
 62
     7
100
AcDbLine
 10
178.889358516
 20
140.9706562603
 30
0.0
 11
179.5364939442
 21
140.9706562603
 31
0.0
  0
LINE
  5
21E
330
1F
100
AcDbEntity
  8
0
  6
CONTINUOUS
 62
     7
100
AcDbLine
 10
178.9045790044
 20
130.936080202
 30
0.0
 11
178.889358516
 21
130.9623285974
 31
0.0
  0
LINE
  5
21F
330
1F
100
AcDbEntity
  8
0
  6
CONTINUOUS
 62
     7
100
AcDbLine
 10
178.7291903581
 20
130.6296005691
 30
0.0
 11
178.9045790044
 21
130.936080202
 31
0.0
  0
LINE
  5
220
330
1F
100
AcDbEntity
  8
0
  6
CONTINUOUS
 62
     7
100
AcDbLine
 10
178.7291903581
 20
130.6296005691
 30
0.0
 11
178.6839299436
 21
130.6033521737
 31
0.0
  0
LINE
  5
221
330
1F
100
AcDbEntity
  8
0
  6
CONTINUOUS
 62
     7
100
AcDbLine
 10
178.6839299436
 20
130.6033521737
 30
0.0
 11
178.889358516
 21
130.9623285974
 31
0.0
  0
LINE
  5
222
330
1F
100
AcDbEntity
  8
0
  6
CONTINUOUS
 62
     7
100
AcDbLine
 10
179.2486379688
 20
130.6296005691
 30
0.0
 11
178.7291903581
 21
130.6296005691
 31
0.0
  0
LINE
  5
223
330
1F
100
AcDbEntity
  8
0
  6
CONTINUOUS
 62
     7
100
AcDbLine
 10
179.2486379688
 20
130.6296005691
 30
0.0
 11
179.222391436
 21
130.6033521737
 31
0.0
  0
LINE
  5
224
330
1F
100
AcDbEntity
  8
0
  6
CONTINUOUS
 62
     7
100
AcDbLine
 10
179.222391436
 20
130.6033521737
 30
0.0
 11
178.6839299436
 21
130.6033521737
 31
0.0
  0
LINE
  5
225
330
1F
100
AcDbEntity
  8
0
  6
CONTINUOUS
 62
     7
100
AcDbLine
 10
179.2486379688
 20
127.4885698999
 30
0.0
 11
179.2486379688
 21
130.6296005691
 31
0.0
  0
LINE
  5
226
330
1F
100
AcDbEntity
  8
0
  6
CONTINUOUS
 62
     7
100
AcDbLine
 10
179.2486379688
 20
127.4885698999
 30
0.0
 11
179.222391436
 21
127.462328955
 31
0.0
  0
LINE
  5
227
330
1F
100
AcDbEntity
  8
0
  6
CONTINUOUS
 62
     7
100
AcDbLine
 10
179.222391436
 20
127.462328955
 30
0.0
 11
179.222391436
 21
130.6033521737
 31
0.0
  0
LINE
  5
228
330
1F
100
AcDbEntity
  8
0
  6
CONTINUOUS
 62
     7
100
AcDbLine
 10
179.5102474114
 20
127.4885698999
 30
0.0
 11
179.2486379688
 21
127.4885698999
 31
0.0
  0
LINE
  5
229
330
1F
100
AcDbEntity
  8
0
  6
CONTINUOUS
 62
     7
100
AcDbLine
 10
179.5102474114
 20
127.4885698999
 30
0.0
 11
179.5364939442
 21
127.462328955
 31
0.0
  0
LINE
  5
22A
330
1F
100
AcDbEntity
  8
0
  6
CONTINUOUS
 62
     7
100
AcDbLine
 10
179.5364939442
 20
127.462328955
 30
0.0
 11
179.222391436
 21
127.462328955
 31
0.0
  0
LINE
  5
22B
330
1F
100
AcDbEntity
  8
0
  6
CONTINUOUS
 62
     7
100
AcDbLine
 10
179.5102474114
 20
130.936080202
 30
0.0
 11
179.5102474114
 21
127.4885698999
 31
0.0
  0
LINE
  5
22C
330
1F
100
AcDbEntity
  8
0
  6
CONTINUOUS
 62
     7
100
AcDbLine
 10
179.5102474114
 20
130.936080202
 30
0.0
 11
179.5364939442
 21
130.9623285974
 31
0.0
  0
LINE
  5
22D
330
1F
100
AcDbEntity
  8
0
  6
CONTINUOUS
 62
     7
100
AcDbLine
 10
179.5364939442
 20
130.9623285974
 30
0.0
 11
179.5364939442
 21
127.462328955
 31
0.0
  0
LINE
  5
22E
330
1F
100
AcDbEntity
  8
0
  6
CONTINUOUS
 62
     7
100
AcDbLine
 10
178.9045790044
 20
130.936080202
 30
0.0
 11
179.5102474114
 21
130.936080202
 31
0.0
  0
LINE
  5
22F
330
1F
100
AcDbEntity
  8
0
  6
CONTINUOUS
 62
     7
100
AcDbLine
 10
178.889358516
 20
130.9623285974
 30
0.0
 11
179.5364939442
 21
130.9623285974
 31
0.0
  0
LINE
  5
230
330
1F
100
AcDbEntity
  8
0
  6
CONTINUOUS
 62
     7
100
AcDbLine
 10
180.5947918526
 20
230.7129312153
 30
0.0
 11
180.5685452543
 21
230.6866846825
 31
0.0
  0
LINE
  5
231
330
1F
100
AcDbEntity
  8
0
  6
CONTINUOUS
 62
     7
100
AcDbLine
 10
180.5947918526
 20
227.5719052027
 30
0.0
 11
180.5947918526
 21
230.7129312153
 31
0.0
  0
LINE
  5
232
330
1F
100
AcDbEntity
  8
0
  6
CONTINUOUS
 62
     7
100
AcDbLine
 10
180.5947918526
 20
227.5719052027
 30
0.0
 11
180.5685452543
 21
227.5456586699
 31
0.0
  0
LINE
  5
233
330
1F
100
AcDbEntity
  8
0
  6
CONTINUOUS
 62
     7
100
AcDbLine
 10
180.5685452543
 20
227.5456586699
 30
0.0
 11
180.5685452543
 21
230.6866846825
 31
0.0
  0
LINE
  5
234
330
1F
100
AcDbEntity
  8
0
  6
CONTINUOUS
 62
     7
100
AcDbLine
 10
180.8564012151
 20
227.5719052027
 30
0.0
 11
180.5947918526
 21
227.5719052027
 31
0.0
  0
LINE
  5
235
330
1F
100
AcDbEntity
  8
0
  6
CONTINUOUS
 62
     7
100
AcDbLine
 10
180.8564012151
 20
227.5719052027
 30
0.0
 11
180.8826478207
 21
227.5456586699
 31
0.0
  0
LINE
  5
236
330
1F
100
AcDbEntity
  8
0
  6
CONTINUOUS
 62
     7
100
AcDbLine
 10
180.8826478207
 20
227.5456586699
 30
0.0
 11
180.5685452543
 21
227.5456586699
 31
0.0
  0
LINE
  5
237
330
1F
100
AcDbEntity
  8
0
  6
CONTINUOUS
 62
     7
100
AcDbLine
 10
181.9409456637
 20
127.4885698999
 30
0.0
 11
181.9409456637
 21
130.6296005691
 31
0.0
  0
LINE
  5
238
330
1F
100
AcDbEntity
  8
0
  6
CONTINUOUS
 62
     7
100
AcDbLine
 10
181.9409456637
 20
127.4885698999
 30
0.0
 11
181.9146991309
 21
127.462328955
 31
0.0
  0
LINE
  5
239
330
1F
100
AcDbEntity
  8
0
  6
CONTINUOUS
 62
     7
100
AcDbLine
 10
181.9146991309
 20
127.462328955
 30
0.0
 11
181.9146991309
 21
130.6033521737
 31
0.0
  0
LINE
  5
23A
330
1F
100
AcDbEntity
  8
0
  6
CONTINUOUS
 62
     7
100
AcDbLine
 10
182.2025551062
 20
127.4885698999
 30
0.0
 11
181.9409456637
 21
127.4885698999
 31
0.0
  0
LINE
  5
23B
330
1F
100
AcDbEntity
  8
0
  6
CONTINUOUS
 62
     7
100
AcDbLine
 10
182.2025551062
 20
127.4885698999
 30
0.0
 11
182.228801639
 21
127.462328955
 31
0.0
  0
LINE
  5
23C
330
1F
100
AcDbEntity
  8
0
  6
CONTINUOUS
 62
     7
100
AcDbLine
 10
182.228801639
 20
127.462328955
 30
0.0
 11
181.9146991309
 21
127.462328955
 31
0.0
  0
LINE
  5
23D
330
1F
100
AcDbEntity
  8
0
  6
CONTINUOUS
 62
     7
100
AcDbLine
 10
182.2025551062
 20
130.936080202
 30
0.0
 11
182.2025551062
 21
127.4885698999
 31
0.0
  0
LINE
  5
23E
330
1F
100
AcDbEntity
  8
0
  6
CONTINUOUS
 62
     7
100
AcDbLine
 10
182.2025551062
 20
130.936080202
 30
0.0
 11
182.228801639
 21
130.9623285974
 31
0.0
  0
LINE
  5
23F
330
1F
100
AcDbEntity
  8
0
  6
CONTINUOUS
 62
     7
100
AcDbLine
 10
182.228801639
 20
130.9623285974
 30
0.0
 11
182.228801639
 21
127.462328955
 31
0.0
  0
LINE
  5
240
330
1F
100
AcDbEntity
  8
0
  6
CONTINUOUS
 62
     7
100
AcDbLine
 10
181.5968866993
 20
130.936080202
 30
0.0
 11
182.2025551062
 21
130.936080202
 31
0.0
  0
LINE
  5
241
330
1F
100
AcDbEntity
  8
0
  6
CONTINUOUS
 62
     7
100
AcDbLine
 10
181.581666269
 20
130.9623285974
 30
0.0
 11
182.228801639
 21
130.9623285974
 31
0.0
  0
LINE
  5
242
330
1F
100
AcDbEntity
  8
0
  6
CONTINUOUS
 62
     7
100
AcDbLine
 10
179.2486379688
 20
100.6045952285
 30
0.0
 11
179.222391436
 21
100.5783542837
 31
0.0
  0
LINE
  5
243
330
1F
100
AcDbEntity
  8
0
  6
CONTINUOUS
 62
     7
100
AcDbLine
 10
179.2486379688
 20
97.4635794605
 30
0.0
 11
179.2486379688
 21
100.6045952285
 31
0.0
  0
LINE
  5
244
330
1F
100
AcDbEntity
  8
0
  6
CONTINUOUS
 62
     7
100
AcDbLine
 10
179.2486379688
 20
97.4635794605
 30
0.0
 11
179.222391436
 21
97.4373236145
 31
0.0
  0
LINE
  5
245
330
1F
100
AcDbEntity
  8
0
  6
CONTINUOUS
 62
     7
100
AcDbLine
 10
179.222391436
 20
97.4373236145
 30
0.0
 11
179.222391436
 21
100.5783542837
 31
0.0
  0
LINE
  5
246
330
1F
100
AcDbEntity
  8
0
  6
CONTINUOUS
 62
     7
100
AcDbLine
 10
179.5102474114
 20
97.4635794605
 30
0.0
 11
179.2486379688
 21
97.4635794605
 31
0.0
  0
LINE
  5
247
330
1F
100
AcDbEntity
  8
0
  6
CONTINUOUS
 62
     7
100
AcDbLine
 10
179.5102474114
 20
97.4635794605
 30
0.0
 11
179.5364939442
 21
97.4373236145
 31
0.0
  0
LINE
  5
248
330
1F
100
AcDbEntity
  8
0
  6
CONTINUOUS
 62
     7
100
AcDbLine
 10
179.5364939442
 20
97.4373236145
 30
0.0
 11
179.222391436
 21
97.4373236145
 31
0.0
  0
LINE
  5
249
330
1F
100
AcDbEntity
  8
0
  6
CONTINUOUS
 62
     7
100
AcDbLine
 10
179.2486379688
 20
117.4802422369
 30
0.0
 11
179.222391436
 21
117.4539938415
 31
0.0
  0
LINE
  5
24A
330
1F
100
AcDbEntity
  8
0
  6
CONTINUOUS
 62
     7
100
AcDbLine
 10
179.222391436
 20
117.4539938415
 30
0.0
 11
179.222391436
 21
120.5950170601
 31
0.0
  0
LINE
  5
24B
330
1F
100
AcDbEntity
  8
0
  6
CONTINUOUS
 62
     7
100
AcDbLine
 10
179.5102474114
 20
117.4802422369
 30
0.0
 11
179.5364939442
 21
117.4539938415
 31
0.0
  0
LINE
  5
24C
330
1F
100
AcDbEntity
  8
0
  6
CONTINUOUS
 62
     7
100
AcDbLine
 10
179.5364939442
 20
117.4539938415
 30
0.0
 11
179.222391436
 21
117.4539938415
 31
0.0
  0
LINE
  5
24D
330
1F
100
AcDbEntity
  8
0
  6
CONTINUOUS
 62
     7
100
AcDbLine
 10
179.5364939442
 20
120.9539934839
 30
0.0
 11
179.5364939442
 21
117.4539938415
 31
0.0
  0
ARC
  5
24E
330
1F
100
AcDbEntity
  8
0
  6
CONTINUOUS
 62
     7
100
AcDbCircle
 10
180.6647702956
 20
149.9983736102
 30
0.0
 40
1.070454113070069
100
AcDbArc
 50
359.7237521435
 51
90.7597413306
  0
LINE
  5
24F
330
1F
100
AcDbEntity
  8
0
  6
CONTINUOUS
 62
     7
100
AcDbLine
 10
182.7621479586
 20
101.0008171047
 30
0.0
 11
182.7483329523
 21
101.0270729507
 31
0.0
  0
LINE
  5
250
330
1F
100
AcDbEntity
  8
0
  6
CONTINUOUS
 62
     7
100
AcDbLine
 10
180.8876405246
 20
98.2712671007
 30
0.0
 11
182.7621479586
 21
101.0008171047
 31
0.0
  0
LINE
  5
251
330
1F
100
AcDbEntity
  8
0
  6
CONTINUOUS
 62
     7
100
AcDbLine
 10
180.8876405246
 20
98.2712671007
 30
0.0
 11
180.8377760151
 21
98.2450112546
 31
0.0
  0
LINE
  5
252
330
1F
100
AcDbEntity
  8
0
  6
CONTINUOUS
 62
     7
100
AcDbLine
 10
180.8377760151
 20
98.2450112546
 30
0.0
 11
182.7483329523
 21
101.0270729507
 31
0.0
  0
LINE
  5
253
330
1F
100
AcDbEntity
  8
0
  6
CONTINUOUS
 62
     7
100
AcDbLine
 10
182.5242789762
 20
98.2712671007
 30
0.0
 11
180.8876405246
 21
98.2712671007
 31
0.0
  0
LINE
  5
254
330
1F
100
AcDbEntity
  8
0
  6
CONTINUOUS
 62
     7
100
AcDbLine
 10
182.5242789762
 20
98.2712671007
 30
0.0
 11
182.4980324434
 21
98.2450112546
 31
0.0
  0
LINE
  5
255
330
1F
100
AcDbEntity
  8
0
  6
CONTINUOUS
 62
     7
100
AcDbLine
 10
182.4980324434
 20
98.2450112546
 30
0.0
 11
180.8377760151
 21
98.2450112546
 31
0.0
  0
LINE
  5
256
330
1F
100
AcDbEntity
  8
0
  6
CONTINUOUS
 62
     7
100
AcDbLine
 10
181.4397345713
 20
198.3545996095
 30
0.0
 11
181.4659811623
 21
198.328351214
 31
0.0
  0
LINE
  5
257
330
1F
100
AcDbEntity
  8
0
  6
CONTINUOUS
 62
     7
100
AcDbLine
 10
181.4659811623
 20
198.328351214
 30
0.0
 11
181.4659811623
 21
197.5206598485
 31
0.0
  0
LINE
  5
258
330
1F
100
AcDbEntity
  8
0
  6
CONTINUOUS
 62
     7
100
AcDbLine
 10
182.5242789762
 20
97.4635794605
 30
0.0
 11
182.4980324434
 21
97.4373236145
 31
0.0
  0
LINE
  5
259
330
1F
100
AcDbEntity
  8
0
  6
CONTINUOUS
 62
     7
100
AcDbLine
 10
182.7858883023
 20
97.4635794605
 30
0.0
 11
182.5242789762
 21
97.4635794605
 31
0.0
  0
LINE
  5
25A
330
1F
100
AcDbEntity
  8
0
  6
CONTINUOUS
 62
     7
100
AcDbLine
 10
182.8121350679
 20
97.4373236145
 30
0.0
 11
182.4980324434
 21
97.4373236145
 31
0.0
  0
LINE
  5
25B
330
1F
100
AcDbEntity
  8
0
  6
CONTINUOUS
 62
     7
100
AcDbLine
 10
181.8698273107
 20
198.328351214
 30
0.0
 11
181.4659811623
 21
198.328351214
 31
0.0
  0
LINE
  5
25C
330
1F
100
AcDbEntity
  8
0
  6
CONTINUOUS
 62
     7
100
AcDbLine
 10
183.1897344507
 20
98.2712671007
 30
0.0
 11
182.7858883023
 21
98.2712671007
 31
0.0
  0
LINE
  5
25D
330
1F
100
AcDbEntity
  8
0
  6
CONTINUOUS
 62
     7
100
AcDbLine
 10
183.1897344507
 20
98.2712671007
 30
0.0
 11
183.2159812163
 21
98.2450112546
 31
0.0
  0
LINE
  5
25E
330
1F
100
AcDbEntity
  8
0
  6
CONTINUOUS
 62
     7
100
AcDbLine
 10
183.2159812163
 20
98.2450112546
 30
0.0
 11
182.8121350679
 21
98.2450112546
 31
0.0
  0
LINE
  5
25F
330
1F
100
AcDbEntity
  8
0
  6
CONTINUOUS
 62
     7
100
AcDbLine
 10
183.1897344507
 20
98.5777392829
 30
0.0
 11
183.1897344507
 21
98.2712671007
 31
0.0
  0
LINE
  5
260
330
1F
100
AcDbEntity
  8
0
  6
CONTINUOUS
 62
     7
100
AcDbLine
 10
183.1897344507
 20
98.5777392829
 30
0.0
 11
183.2159812163
 21
98.603995129
 31
0.0
  0
LINE
  5
261
330
1F
100
AcDbEntity
  8
0
  6
CONTINUOUS
 62
     7
100
AcDbLine
 10
183.2159812163
 20
98.603995129
 30
0.0
 11
183.2159812163
 21
98.2450112546
 31
0.0
  0
LINE
  5
262
330
1F
100
AcDbEntity
  8
0
  6
CONTINUOUS
 62
     7
100
AcDbLine
 10
182.7858883023
 20
98.5777392829
 30
0.0
 11
183.1897344507
 21
98.5777392829
 31
0.0
  0
LINE
  5
263
330
1F
100
AcDbEntity
  8
0
  6
CONTINUOUS
 62
     7
100
AcDbLine
 10
182.8121350679
 20
98.603995129
 30
0.0
 11
183.2159812163
 21
98.603995129
 31
0.0
  0
LINE
  5
264
330
1F
100
AcDbEntity
  8
0
  6
CONTINUOUS
 62
     7
100
AcDbLine
 10
178.9045790044
 20
110.9194174255
 30
0.0
 11
179.5102474114
 21
110.9194174255
 31
0.0
  0
LINE
  5
265
330
1F
100
AcDbEntity
  8
0
  6
CONTINUOUS
 62
     7
100
AcDbLine
 10
178.9045790044
 20
110.9194174255
 30
0.0
 11
178.889358516
 21
110.9456583703
 31
0.0
  0
LINE
  5
266
330
1F
100
AcDbEntity
  8
0
  6
CONTINUOUS
 62
     7
100
AcDbLine
 10
178.889358516
 20
110.9456583703
 30
0.0
 11
179.5364939442
 21
110.9456583703
 31
0.0
  0
LINE
  5
267
330
1F
100
AcDbEntity
  8
0
  6
CONTINUOUS
 62
     7
100
AcDbLine
 10
182.7621479586
 20
101.0008171047
 30
0.0
 11
182.7858883023
 21
101.0008171047
 31
0.0
  0
LINE
  5
268
330
1F
100
AcDbEntity
  8
0
  6
CONTINUOUS
 62
     7
100
AcDbLine
 10
182.7483329523
 20
101.0270729507
 30
0.0
 11
182.8121350679
 21
101.0270729507
 31
0.0
  0
LINE
  5
269
330
1F
100
AcDbEntity
  8
0
  6
CONTINUOUS
 62
     7
100
AcDbLine
 10
178.6839299436
 20
140.6116872872
 30
0.0
 11
178.889358516
 21
140.9706562603
 31
0.0
  0
LINE
  5
26A
330
1F
100
AcDbEntity
  8
0
  6
CONTINUOUS
 62
     7
100
AcDbLine
 10
179.7422277575
 20
170.9694132055
 30
0.0
 11
181.8268830955
 21
170.9694132055
 31
0.0
  0
LINE
  5
26B
330
1F
100
AcDbEntity
  8
0
  6
CONTINUOUS
 62
     7
100
AcDbLine
 10
179.2486379688
 20
107.4718996728
 30
0.0
 11
179.222391436
 21
107.445658728
 31
0.0
  0
LINE
  5
26C
330
1F
100
AcDbEntity
  8
0
  6
CONTINUOUS
 62
     7
100
AcDbLine
 10
179.5102474114
 20
107.4718996728
 30
0.0
 11
179.2486379688
 21
107.4718996728
 31
0.0
  0
LINE
  5
26D
330
1F
100
AcDbEntity
  8
0
  6
CONTINUOUS
 62
     7
100
AcDbLine
 10
179.5364939442
 20
107.445658728
 30
0.0
 11
179.222391436
 21
107.445658728
 31
0.0
  0
LINE
  5
26E
330
1F
100
AcDbEntity
  8
0
  6
CONTINUOUS
 62
     7
100
AcDbLine
 10
180.8564012151
 20
231.0194122451
 30
0.0
 11
180.8564012151
 21
227.5719052027
 31
0.0
  0
LINE
  5
26F
330
1F
100
AcDbEntity
  8
0
  6
CONTINUOUS
 62
     7
100
AcDbLine
 10
180.8564012151
 20
231.0194122451
 30
0.0
 11
180.8826478207
 21
231.0456592436
 31
0.0
  0
LINE
  5
270
330
1F
100
AcDbEntity
  8
0
  6
CONTINUOUS
 62
     7
100
AcDbLine
 10
180.8826478207
 20
231.0456592436
 30
0.0
 11
180.8826478207
 21
227.5456586699
 31
0.0
  0
LINE
  5
271
330
1F
100
AcDbEntity
  8
0
  6
CONTINUOUS
 62
     7
100
AcDbLine
 10
179.5364939442
 20
140.9706562603
 30
0.0
 11
179.5364939442
 21
137.470656618
 31
0.0
  0
LINE
  5
272
330
1F
100
AcDbEntity
  8
0
  6
CONTINUOUS
 62
     7
100
AcDbLine
 10
178.7291903581
 20
110.6129303421
 30
0.0
 11
178.9045790044
 21
110.9194174255
 31
0.0
  0
LINE
  5
273
330
1F
100
AcDbEntity
  8
0
  6
CONTINUOUS
 62
     7
100
AcDbLine
 10
178.6839299436
 20
110.5866893972
 30
0.0
 11
178.889358516
 21
110.9456583703
 31
0.0
  0
LINE
  5
274
330
1F
100
AcDbEntity
  8
0
  6
CONTINUOUS
 62
     7
100
AcDbLine
 10
178.9045790044
 20
100.911082312
 30
0.0
 11
178.889358516
 21
100.9373232568
 31
0.0
  0
LINE
  5
275
330
1F
100
AcDbEntity
  8
0
  6
CONTINUOUS
 62
     7
100
AcDbLine
 10
178.7291903581
 20
100.6045952285
 30
0.0
 11
178.9045790044
 21
100.911082312
 31
0.0
  0
LINE
  5
276
330
1F
100
AcDbEntity
  8
0
  6
CONTINUOUS
 62
     7
100
AcDbLine
 10
178.7291903581
 20
100.6045952285
 30
0.0
 11
178.6839299436
 21
100.5783542837
 31
0.0
  0
LINE
  5
277
330
1F
100
AcDbEntity
  8
0
  6
CONTINUOUS
 62
     7
100
AcDbLine
 10
178.6839299436
 20
100.5783542837
 30
0.0
 11
178.889358516
 21
100.9373232568
 31
0.0
  0
LINE
  5
278
330
1F
100
AcDbEntity
  8
0
  6
CONTINUOUS
 62
     7
100
AcDbLine
 10
179.2486379688
 20
107.4718996728
 30
0.0
 11
179.2486379688
 21
110.6129303421
 31
0.0
  0
LINE
  5
279
330
1F
100
AcDbEntity
  8
0
  6
CONTINUOUS
 62
     7
100
AcDbLine
 10
179.222391436
 20
107.445658728
 30
0.0
 11
179.222391436
 21
110.5866893972
 31
0.0
  0
LINE
  5
27A
330
1F
100
AcDbEntity
  8
0
  6
CONTINUOUS
 62
     7
100
AcDbLine
 10
179.7159811083
 20
170.9956616009
 30
0.0
 11
181.8698273107
 21
170.9956616009
 31
0.0
  0
LINE
  5
27B
330
1F
100
AcDbEntity
  8
0
  6
CONTINUOUS
 62
     7
100
AcDbLine
 10
179.5102474114
 20
100.911082312
 30
0.0
 11
179.5102474114
 21
97.4635794605
 31
0.0
  0
LINE
  5
27C
330
1F
100
AcDbEntity
  8
0
  6
CONTINUOUS
 62
     7
100
AcDbLine
 10
179.5102474114
 20
100.911082312
 30
0.0
 11
179.5364939442
 21
100.9373232568
 31
0.0
  0
LINE
  5
27D
330
1F
100
AcDbEntity
  8
0
  6
CONTINUOUS
 62
     7
100
AcDbLine
 10
179.5364939442
 20
100.9373232568
 30
0.0
 11
179.5364939442
 21
97.4373236145
 31
0.0
  0
LINE
  5
27E
330
1F
100
AcDbEntity
  8
0
  6
CONTINUOUS
 62
     7
100
AcDbLine
 10
180.2507328227
 20
231.0194122451
 30
0.0
 11
180.8564012151
 21
231.0194122451
 31
0.0
  0
LINE
  5
27F
330
1F
100
AcDbEntity
  8
0
  6
CONTINUOUS
 62
     7
100
AcDbLine
 10
180.5947918526
 20
230.7129312153
 30
0.0
 11
180.0753442055
 21
230.7129312153
 31
0.0
  0
LINE
  5
280
330
1F
100
AcDbEntity
  8
0
  6
CONTINUOUS
 62
     7
100
AcDbLine
 10
180.0753442055
 20
230.7129312153
 30
0.0
 11
180.2507328227
 21
231.0194122451
 31
0.0
  0
LINE
  5
281
330
1F
100
AcDbEntity
  8
0
  6
CONTINUOUS
 62
     7
100
AcDbLine
 10
180.0753442055
 20
230.7129312153
 30
0.0
 11
180.0300837328
 21
230.6866846825
 31
0.0
  0
LINE
  5
282
330
1F
100
AcDbEntity
  8
0
  6
CONTINUOUS
 62
     7
100
AcDbLine
 10
180.5685452543
 20
230.6866846825
 30
0.0
 11
180.0300837328
 21
230.6866846825
 31
0.0
  0
LINE
  5
283
330
1F
100
AcDbEntity
  8
0
  6
CONTINUOUS
 62
     7
100
AcDbLine
 10
181.4049150396
 20
98.5777392829
 30
0.0
 11
182.5242789762
 21
98.5777392829
 31
0.0
  0
LINE
  5
284
330
1F
100
AcDbEntity
  8
0
  6
CONTINUOUS
 62
     7
100
AcDbLine
 10
182.5242789762
 20
97.4635794605
 30
0.0
 11
182.5242789762
 21
98.2712671007
 31
0.0
  0
LINE
  5
285
330
1F
100
AcDbEntity
  8
0
  6
CONTINUOUS
 62
     7
100
AcDbLine
 10
180.2507328227
 20
231.0194122451
 30
0.0
 11
180.2355123925
 21
231.0456592436
 31
0.0
  0
LINE
  5
286
330
1F
100
AcDbEntity
  8
0
  6
CONTINUOUS
 62
     7
100
AcDbLine
 10
180.0300837328
 20
230.6866846825
 30
0.0
 11
180.2355123925
 21
231.0456592436
 31
0.0
  0
LINE
  5
287
330
1F
100
AcDbEntity
  8
0
  6
CONTINUOUS
 62
     7
100
AcDbLine
 10
178.9045790044
 20
100.911082312
 30
0.0
 11
179.5102474114
 21
100.911082312
 31
0.0
  0
LINE
  5
288
330
1F
100
AcDbEntity
  8
0
  6
CONTINUOUS
 62
     7
100
AcDbLine
 10
179.2486379688
 20
100.6045952285
 30
0.0
 11
178.7291903581
 21
100.6045952285
 31
0.0
  0
LINE
  5
289
330
1F
100
AcDbEntity
  8
0
  6
CONTINUOUS
 62
     7
100
AcDbLine
 10
182.4980324434
 20
97.4373236145
 30
0.0
 11
182.4980324434
 21
98.2450112546
 31
0.0
  0
LINE
  5
28A
330
1F
100
AcDbEntity
  8
0
  6
CONTINUOUS
 62
     7
100
AcDbLine
 10
178.889358516
 20
100.9373232568
 30
0.0
 11
179.5364939442
 21
100.9373232568
 31
0.0
  0
LINE
  5
28B
330
1F
100
AcDbEntity
  8
0
  6
CONTINUOUS
 62
     7
100
AcDbLine
 10
181.4547632073
 20
98.603995129
 30
0.0
 11
182.4980324434
 21
98.603995129
 31
0.0
  0
LINE
  5
28C
330
1F
100
AcDbEntity
  8
0
  6
CONTINUOUS
 62
     7
100
AcDbLine
 10
179.222391436
 20
100.5783542837
 30
0.0
 11
178.6839299436
 21
100.5783542837
 31
0.0
  0
LINE
  5
28D
330
1F
100
AcDbEntity
  8
0
  6
CONTINUOUS
 62
     7
100
AcDbLine
 10
180.2355123925
 20
231.0456592436
 30
0.0
 11
180.8826478207
 21
231.0456592436
 31
0.0
  0
LINE
  5
28E
330
1F
100
AcDbEntity
  8
0
  6
CONTINUOUS
 62
     7
100
AcDbLine
 10
179.9403401508
 20
210.2212995137
 30
0.0
 11
179.6262375844
 21
210.2212995137
 31
0.0
  0
LINE
  5
28F
330
1F
100
AcDbEntity
  8
0
  6
CONTINUOUS
 62
     7
100
AcDbLine
 10
181.1133035642
 20
181.0554131711
 30
0.0
 11
181.107006805
 21
181.0937352324
 31
0.0
  0
LINE
  5
290
330
1F
100
AcDbEntity
  8
0
  6
CONTINUOUS
 62
     7
100
AcDbLine
 10
180.0623353172
 20
179.4965803469
 30
0.0
 11
181.107006805
 21
181.0937352324
 31
0.0
  0
LINE
  5
291
330
1F
100
AcDbEntity
  8
0
  6
CONTINUOUS
 62
     7
100
AcDbLine
 10
180.4788016577
 20
209.2789929206
 30
0.0
 11
180.4788016577
 21
209.6379674817
 31
0.0
  0
LINE
  5
292
330
1F
100
AcDbEntity
  8
0
  6
CONTINUOUS
 62
     7
100
AcDbLine
 10
181.6640934974
 20
190.6795963491
 30
0.0
 11
181.6903401466
 21
190.6533516789
 31
0.0
  0
LINE
  5
293
330
1F
100
AcDbEntity
  8
0
  6
CONTINUOUS
 62
     7
100
AcDbLine
 10
181.6903401466
 20
190.6533516789
 30
0.0
 11
180.4998353161
 21
190.6533516789
 31
0.0
  0
LINE
  5
294
330
1F
100
AcDbEntity
  8
0
  6
CONTINUOUS
 62
     7
100
AcDbLine
 10
181.6640934974
 20
190.9860797072
 30
0.0
 11
181.6903401466
 21
191.0123243774
 31
0.0
  0
LINE
  5
295
330
1F
100
AcDbEntity
  8
0
  6
CONTINUOUS
 62
     7
100
AcDbLine
 10
181.6903401466
 20
191.0123243774
 30
0.0
 11
181.6903401466
 21
190.6533516789
 31
0.0
  0
LINE
  5
296
330
1F
100
AcDbEntity
  8
0
  6
CONTINUOUS
 62
     7
100
AcDbLine
 10
179.491622124
 20
208.4712996925
 30
0.0
 11
179.8057247486
 21
208.4712996925
 31
0.0
  0
LINE
  5
297
330
1F
100
AcDbEntity
  8
0
  6
CONTINUOUS
 62
     7
100
AcDbLine
 10
180.254442688
 20
191.0123243774
 30
0.0
 11
181.6903401466
 21
191.0123243774
 31
0.0
  0
LINE
  5
298
330
1F
100
AcDbEntity
  8
0
  6
CONTINUOUS
 62
     7
100
AcDbLine
 10
181.2864939982
 20
119.8770716632
 30
0.0
 11
180.9723914028
 21
119.8770716632
 31
0.0
  0
LINE
  5
299
330
1F
100
AcDbEntity
  8
0
  6
CONTINUOUS
 62
     7
100
AcDbLine
 10
181.107006805
 20
181.0937352324
 30
0.0
 11
181.3488938331
 21
180.9037305261
 31
0.0
  0
LINE
  5
29A
330
1F
100
AcDbEntity
  8
0
  6
CONTINUOUS
 62
     7
100
AcDbLine
 10
180.8983405479
 20
117.4802422369
 30
0.0
 11
180.8377760151
 21
117.4539938415
 31
0.0
  0
LINE
  5
29B
330
1F
100
AcDbEntity
  8
0
  6
CONTINUOUS
 62
     7
100
AcDbLine
 10
180.8377760151
 20
117.4539938415
 30
0.0
 11
182.1951478321
 21
118.9025133694
 31
0.0
  0
LINE
  5
29C
330
1F
100
AcDbEntity
  8
0
  6
CONTINUOUS
 62
     7
100
AcDbLine
 10
181.5267147447
 20
117.7867218698
 30
0.0
 11
181.5872752175
 21
117.8129702652
 31
0.0
  0
LINE
  5
29D
330
1F
100
AcDbEntity
  8
0
  6
CONTINUOUS
 62
     7
100
AcDbLine
 10
182.4629762975
 20
118.7475636447
 30
0.0
 11
181.5872752175
 21
117.8129702652
 31
0.0
  0
LINE
  5
29E
330
1F
100
AcDbEntity
  8
0
  6
CONTINUOUS
 62
     7
100
AcDbLine
 10
183.1897344507
 20
117.7867218698
 30
0.0
 11
183.2159812163
 21
117.8129702652
 31
0.0
  0
LINE
  5
29F
330
1F
100
AcDbEntity
  8
0
  6
CONTINUOUS
 62
     7
100
AcDbLine
 10
181.5872752175
 20
117.8129702652
 30
0.0
 11
183.2159812163
 21
117.8129702652
 31
0.0
  0
LINE
  5
2A0
330
1F
100
AcDbEntity
  8
0
  6
CONTINUOUS
 62
     7
100
AcDbLine
 10
183.1897344507
 20
117.4802422369
 30
0.0
 11
183.2159812163
 21
117.4539938415
 31
0.0
  0
LINE
  5
2A1
330
1F
100
AcDbEntity
  8
0
  6
CONTINUOUS
 62
     7
100
AcDbLine
 10
183.2159812163
 20
117.8129702652
 30
0.0
 11
183.2159812163
 21
117.4539938415
 31
0.0
  0
LINE
  5
2A2
330
1F
100
AcDbEntity
  8
0
  6
CONTINUOUS
 62
     7
100
AcDbLine
 10
183.2159812163
 20
117.4539938415
 30
0.0
 11
180.8377760151
 21
117.4539938415
 31
0.0
  0
ARC
  5
2A3
330
1F
100
AcDbEntity
  8
0
  6
CONTINUOUS
 62
     7
100
AcDbCircle
 10
184.2108529445
 20
153.0456590379
 30
0.0
 40
0.2375340094222338
100
AcDbArc
 50
270.0
 51
0.0
  0
LINE
  5
2A4
330
1F
100
AcDbEntity
  8
0
  6
CONTINUOUS
 62
     7
100
AcDbLine
 10
184.4483868752
 20
153.0456557716
 30
0.0
 11
184.7108498748
 21
153.0456557716
 31
0.0
  0
LWPOLYLINE
  5
2A5
330
1F
100
AcDbEntity
  8
0
  6
CONTINUOUS
 62
     7
100
AcDbPolyline
 90
        3
 70
   128
 43
0.0
 10
184.7108498748
 20
153.0456557716
 10
184.6827542011
 20
152.8804018939
 10
184.6827476818
 20
152.8803869928
  0
ARC
  5
2A6
330
1F
100
AcDbEntity
  8
0
  6
CONTINUOUS
 62
     7
100
AcDbCircle
 10
184.2108529445
 20
153.0456590379
 30
0.0
 40
0.5
100
AcDbArc
 50
270.0
 51
340.6979858495
  0
LINE
  5
2A7
330
1F
100
AcDbEntity
  8
0
  6
CONTINUOUS
 62
     7
100
AcDbLine
 10
184.2108530525
 20
152.8081238116
 30
0.0
 11
184.2108530525
 21
152.5456622089
 31
0.0
  0
LINE
  5
2A8
330
1F
100
AcDbEntity
  8
0
  6
CONTINUOUS
 62
     7
100
AcDbLine
 10
184.157515743
 20
81.9498166288
 30
0.0
 11
184.2359812997
 21
92.5462856735
 31
0.0
  0
ARC
  5
2A9
330
1F
100
AcDbEntity
  8
0
  6
CONTINUOUS
 62
     7
100
AcDbCircle
 10
184.210241194
 20
93.0452666544
 30
0.0
 40
0.4996444459895223
100
AcDbArc
 50
272.9530050107
 51
0.0443478737
  0
ELLIPSE
  5
2AA
330
1F
100
AcDbEntity
  8
0
  6
CONTINUOUS
 62
     7
100
AcDbEllipse
 10
183.8359663092
 20
38.5257770188
 30
0.0
 11
0.07624935148280089
 21
1355.657561799817
 31
0.0
210
0.0
220
0.0
230
1.0
 40
0.000642904
 41
4.752616424075702
 42
4.754092961808497
  0
ARC
  5
2AB
330
1F
100
AcDbEntity
  8
0
  6
CONTINUOUS
 62
     7
100
AcDbCircle
 10
184.2105118239
 20
95.0462617221
 30
0.0
 40
0.499433636570532
100
AcDbArc
 50
359.9306758836
 51
84.5237068873
  0
LINE
  5
2AC
330
1F
100
AcDbEntity
  8
0
  6
CONTINUOUS
 62
     7
100
AcDbLine
 10
184.2581747167
 20
95.543415829
 30
0.0
 11
184.310098977
 21
102.5556042636
 31
0.0
  0
ARC
  5
2AD
330
1F
100
AcDbEntity
  8
0
  6
CONTINUOUS
 62
     7
100
AcDbCircle
 10
184.2107024563
 20
103.0450773014
 30
0.0
 40
0.499463234876583
100
AcDbArc
 50
281.4788784633
 51
0.0667009341
  0
ELLIPSE
  5
2AE
330
1F
100
AcDbEntity
  8
0
  6
CONTINUOUS
 62
     7
100
AcDbEllipse
 10
183.8359663092
 20
38.5257770188
 30
0.0
 11
0.07624935148280089
 21
1355.657561799817
 31
0.0
210
0.0
220
0.0
230
1.0
 40
0.000642904
 41
4.760000054918796
 42
4.761477079940935
  0
ARC
  5
2AF
330
1F
100
AcDbEntity
  8
0
  6
CONTINUOUS
 62
     7
100
AcDbCircle
 10
184.2105512085
 20
105.0460776345
 30
0.0
 40
0.4996646078284149
100
AcDbArc
 50
359.9524321247
 51
75.9174496078
  0
LINE
  5
2B0
330
1F
100
AcDbEntity
  8
0
  6
CONTINUOUS
 62
     7
100
AcDbLine
 10
184.3321294125
 20
105.5307254041
 30
0.0
 11
184.3843039658
 21
112.5767096723
 31
0.0
  0
ARC
  5
2B1
330
1F
100
AcDbEntity
  8
0
  6
CONTINUOUS
 62
     7
100
AcDbCircle
 10
184.2106158981
 20
113.0453400412
 30
0.0
 40
0.4997819199267831
100
AcDbArc
 50
290.336173358
 51
0.0362983273
  0
ELLIPSE
  5
2B2
330
1F
100
AcDbEntity
  8
0
  6
CONTINUOUS
 62
     7
100
AcDbEllipse
 10
183.8359663092
 20
38.5257770188
 30
0.0
 11
0.07624935148280089
 21
1355.657561799817
 31
0.0
210
0.0
220
0.0
230
1.0
 40
0.000642904
 41
4.767386284357179
 42
4.768863877794963
  0
ARC
  5
2B3
330
1F
100
AcDbEntity
  8
0
  6
CONTINUOUS
 62
     7
100
AcDbCircle
 10
184.2105840235
 20
115.0459349784
 30
0.0
 40
0.4998542819745214
100
AcDbArc
 50
359.9685629969
 51
66.9872337112
  0
LINE
  5
2B4
330
1F
100
AcDbEntity
  8
0
  6
CONTINUOUS
 62
     7
100
AcDbLine
 10
184.405995167
 20
115.5060097421
 30
0.0
 11
184.4586093046
 21
122.6113602365
 31
0.0
  0
ARC
  5
2B5
330
1F
100
AcDbEntity
  8
0
  6
CONTINUOUS
 62
     7
100
AcDbCircle
 10
184.210793532
 20
123.0453833382
 30
0.0
 40
0.4997886652632953
100
AcDbArc
 50
299.7252301776
 51
0.0319492425
  0
ELLIPSE
  5
2B6
330
1F
100
AcDbEntity
  8
0
  6
CONTINUOUS
 62
     7
100
AcDbEllipse
 10
183.8359663092
 20
38.5257770188
 30
0.0
 11
0.07624935148280089
 21
1355.657561799817
 31
0.0
210
0.0
220
0.0
230
1.0
 40
0.000642904
 41
4.774775518566935
 42
4.776253761827091
  0
ARC
  5
2B7
330
1F
100
AcDbEntity
  8
0
  6
CONTINUOUS
 62
     7
100
AcDbCircle
 10
184.2107544125
 20
125.0458862985
 30
0.0
 40
0.4998589582720495
100
AcDbArc
 50
359.973904047
 51
57.4418198111
  0
LINE
  5
2B8
330
1F
100
AcDbEntity
  8
0
  6
CONTINUOUS
 62
     7
100
AcDbLine
 10
184.4797563806
 20
125.467190131
 30
0.0
 11
184.5330427002
 21
132.6633035983
 31
0.0
  0
ARC
  5
2B9
330
1F
100
AcDbEntity
  8
0
  6
CONTINUOUS
 62
     7
100
AcDbCircle
 10
184.2107535084
 20
133.0455276309
 30
0.0
 40
0.4999655330770407
100
AcDbArc
 50
310.1374016877
 51
0.0151629989
  0
ELLIPSE
  5
2BA
330
1F
100
AcDbEntity
  8
0
  6
CONTINUOUS
 62
     7
100
AcDbEllipse
 10
183.8359663092
 20
38.5257770188
 30
0.0
 11
0.07624935148280089
 21
1355.657561799817
 31
0.0
210
0.0
220
0.0
230
1.0
 40
0.000642904
 41
4.782168165207822
 42
4.783647140018357
  0
ARC
  5
2BB
330
1F
100
AcDbEntity
  8
0
  6
CONTINUOUS
 62
     7
100
AcDbCircle
 10
184.2107117032
 20
135.0457555082
 30
0.0
 40
0.5000292167010103
100
AcDbArc
 50
359.9886604801
 51
46.7409212949
  0
LINE
  5
2BC
330
1F
100
AcDbEntity
  8
0
  6
CONTINUOUS
 62
     7
100
AcDbLine
 10
184.5533809226
 20
135.4099079812
 30
0.0
 11
184.6076702766
 21
142.7414581026
 31
0.0
  0
LWPOLYLINE
  5
2BD
330
1F
100
AcDbEntity
  8
0
  6
CONTINUOUS
 62
     7
100
AcDbPolyline
 90
        3
 70
   128
 43
0.0
 10
184.710808431
 20
143.0456578577
 10
184.6826964591
 20
142.8803145731
 10
184.6076702766
 20
142.7414581026
  0
ELLIPSE
  5
2BE
330
1F
100
AcDbEntity
  8
0
  6
CONTINUOUS
 62
     7
100
AcDbEllipse
 10
183.8359663092
 20
38.5257770188
 30
0.0
 11
0.07624935148280089
 21
1355.657561799817
 31
0.0
210
0.0
220
0.0
230
1.0
 40
0.000642904
 41
4.789564633628459
 42
4.791044422079984
  0
ARC
  5
2BF
330
1F
100
AcDbEntity
  8
0
  6
CONTINUOUS
 62
     7
100
AcDbCircle
 10
184.2109764262
 20
145.0457534372
 30
0.0
 40
0.4998441203441981
100
AcDbArc
 50
359.9895085836
 51
33.7075399808
  0
LINE
  5
2C0
330
1F
100
AcDbEntity
  8
0
  6
CONTINUOUS
 62
     7
100
AcDbLine
 10
184.6267873023
 20
145.323143884
 30
0.0
 11
184.6827476818
 21
152.8803869928
 31
0.0
  0
ELLIPSE
  5
2C1
330
1F
100
AcDbEntity
  8
0
  6
CONTINUOUS
 62
     7
100
AcDbEllipse
 10
183.8359663092
 20
38.5257770188
 30
0.0
 11
0.07624935148280089
 21
1355.657561799817
 31
0.0
210
0.0
220
0.0
230
1.0
 40
0.000642904
 41
4.796965335073878
 42
4.798445956805381
  0
ARC
  5
2C2
330
1F
100
AcDbEntity
  8
0
  6
CONTINUOUS
 62
     7
100
AcDbCircle
 10
184.2108529445
 20
155.0456590379
 30
0.0
 40
0.5
100
AcDbArc
 50
0.0
 51
12.1985780161
  0
LINE
  5
2C3
330
1F
100
AcDbEntity
  8
0
  6
CONTINUOUS
 62
     7
100
AcDbLine
 10
184.6995636422
 20
155.1513090576
 30
0.0
 11
185.3102788862
 21
237.6261009462
 31
0.0
  0
ELLIPSE
  5
2C4
330
1F
100
AcDbEntity
  8
0
  6
CONTINUOUS
 62
     7
100
AcDbEllipse
 10
185.3109250493
 20
237.7133696271
 30
0.0
 11
10.00027417780953
 21
5.639694109049742E-6
 31
0.0
210
0.0
220
0.0
230
1.0
 40
0.0087266285
 41
4.712324355891058
 42
5.497736226948194
  0
LINE
  5
2C5
330
1F
100
AcDbEntity
  8
0
  6
CONTINUOUS
 62
     7
100
AcDbLine
 10
192.3818270277
 20
237.6516622002
 30
0.0
 11
191.1740478661
 21
74.545653149
 31
0.0
  0
LINE
  5
2C6
330
1F
100
AcDbEntity
  8
0
  6
CONTINUOUS
 62
     7
100
AcDbLine
 10
191.1740478661
 20
74.545653149
 30
0.0
 11
188.7149828087
 21
74.545653149
 31
0.0
  0
ARC
  5
2C7
330
1F
100
AcDbEntity
  8
0
  6
CONTINUOUS
 62
     7
100
AcDbCircle
 10
184.2108529445
 20
113.0456590379
 30
0.0
 40
0.2375340094222338
100
AcDbArc
 50
270.0
 51
0.0
  0
LINE
  5
2C8
330
1F
100
AcDbEntity
  8
0
  6
CONTINUOUS
 62
     7
100
AcDbLine
 10
184.4483868752
 20
113.0456566657
 30
0.0
 11
184.7103977177
 21
113.0456566657
 31
0.0
  0
ARC
  5
2C9
330
1F
100
AcDbEntity
  8
0
  6
CONTINUOUS
 62
     7
100
AcDbCircle
 10
184.2108529445
 20
113.0456590379
 30
0.0
 40
0.500000000000013
100
AcDbArc
 50
270.0
 51
290.2979533816
  0
LINE
  5
2CA
330
1F
100
AcDbEntity
  8
0
  6
CONTINUOUS
 62
     7
100
AcDbLine
 10
184.2108530525
 20
112.8081247056
 30
0.0
 11
184.2108530525
 21
112.5456556524
 31
0.0
  0
LINE
  5
2CB
330
1F
100
AcDbEntity
  8
0
  6
CONTINUOUS
 62
     7
100
AcDbLine
 10
170.2476580228
 20
74.545653149
 30
0.0
 11
169.0398788612
 21
237.6516622002
 31
0.0
  0
ELLIPSE
  5
2CC
330
1F
100
AcDbEntity
  8
0
  6
CONTINUOUS
 62
     7
100
AcDbEllipse
 10
176.1107808396
 20
237.7133696271
 30
0.0
 11
10.00027417780956
 21
-5.639694109049741E-6
 31
0.0
210
0.0
220
0.0
230
1.0
 40
0.0087266285
 41
3.927041733822794
 42
4.712453604878322
  0
LINE
  5
2CD
330
1F
100
AcDbEntity
  8
0
  6
CONTINUOUS
 62
     7
100
AcDbLine
 10
176.1114270028
 20
237.6261009462
 30
0.0
 11
176.7221422467
 21
155.1513090576
 31
0.0
  0
ARC
  5
2CE
330
1F
100
AcDbEntity
  8
0
  6
CONTINUOUS
 62
     7
100
AcDbCircle
 10
177.2108529445
 20
155.0456590379
 30
0.0
 40
0.4999999999999826
100
AcDbArc
 50
167.8014219839
 51
180.0008349163
  0
ELLIPSE
  5
2CF
330
1F
100
AcDbEntity
  8
0
  6
CONTINUOUS
 62
     7
100
AcDbEllipse
 10
177.5857395797
 20
38.5257770188
 30
0.0
 11
-0.07624935148280089
 21
1355.657561799817
 31
0.0
210
0.0
220
0.0
230
1.0
 40
0.000642904
 41
1.484739287598707
 42
1.486219972105867
  0
LWPOLYLINE
  5
2D0
330
1F
100
AcDbEntity
  8
0
  6
CONTINUOUS
 62
     7
100
AcDbPolyline
 90
        3
 70
   128
 43
0.0
 10
176.7389582071
 20
152.8803869928
 10
176.7238447044
 20
152.9324218477
 10
176.7108560141
 20
153.0456557716
  0
LINE
  5
2D1
330
1F
100
AcDbEntity
  8
0
  6
CONTINUOUS
 62
     7
100
AcDbLine
 10
176.7389582071
 20
152.8803869928
 30
0.0
 11
176.7949185867
 21
145.323143884
 31
0.0
  0
LWPOLYLINE
  5
2D2
330
1F
100
AcDbEntity
  8
0
  6
CONTINUOUS
 62
     7
100
AcDbPolyline
 90
        3
 70
   128
 43
0.0
 10
176.7108853508
 20
145.0456619109
 10
176.7389908034
 20
145.2109828437
 10
176.7949185867
 20
145.323143884
  0
ELLIPSE
  5
2D3
330
1F
100
AcDbEntity
  8
0
  6
CONTINUOUS
 62
     7
100
AcDbEllipse
 10
177.5857395797
 20
38.5257770188
 30
0.0
 11
-0.07624935148280089
 21
1355.657561799817
 31
0.0
210
0.0
220
0.0
230
1.0
 40
0.000642904
 41
1.492140885099733
 42
1.493620673551253
  0
ARC
  5
2D4
330
1F
100
AcDbEntity
  8
0
  6
CONTINUOUS
 62
     7
100
AcDbCircle
 10
177.2108854463
 20
143.0455932731
 30
0.0
 40
0.4999879925029772
100
AcDbArc
 50
179.9925989615
 51
217.4655966534
  0
LINE
  5
2D5
330
1F
100
AcDbEntity
  8
0
  6
CONTINUOUS
 62
     7
100
AcDbLine
 10
176.8140356123
 20
142.7414581026
 30
0.0
 11
176.8683249663
 21
135.4099079812
 31
0.0
  0
ARC
  5
2D6
330
1F
100
AcDbEntity
  8
0
  6
CONTINUOUS
 62
     7
100
AcDbCircle
 10
177.2109192678
 20
135.0457878734
 30
0.0
 40
0.4999543062507967
100
AcDbArc
 50
133.2553678851
 51
180.0150503399
  0
ELLIPSE
  5
2D7
330
1F
100
AcDbEntity
  8
0
  6
CONTINUOUS
 62
     7
100
AcDbEllipse
 10
177.5857395797
 20
38.5257770188
 30
0.0
 11
-0.07624935148280089
 21
1355.657561799817
 31
0.0
210
0.0
220
0.0
230
1.0
 40
0.000642904
 41
1.499538167161338
 42
1.501017141971873
  0
ARC
  5
2D8
330
1F
100
AcDbEntity
  8
0
  6
CONTINUOUS
 62
     7
100
AcDbCircle
 10
177.2110168479
 20
133.0455575881
 30
0.0
 40
0.5000299934196332
100
AcDbArc
 50
179.9882715925
 51
229.8591637209
  0
LINE
  5
2D9
330
1F
100
AcDbEntity
  8
0
  6
CONTINUOUS
 62
     7
100
AcDbLine
 10
176.8886631887
 20
132.6633035983
 30
0.0
 11
176.9419495083
 21
125.467190131
 31
0.0
  0
ARC
  5
2DA
330
1F
100
AcDbEntity
  8
0
  6
CONTINUOUS
 62
     7
100
AcDbCircle
 10
177.2110150471
 20
125.0458514832
 30
0.0
 40
0.4999225143015966
100
AcDbArc
 50
122.5621736612
 51
180.0221024808
  0
ELLIPSE
  5
2DB
330
1F
100
AcDbEntity
  8
0
  6
CONTINUOUS
 62
     7
100
AcDbEllipse
 10
177.5857395797
 20
38.5257770188
 30
0.0
 11
-0.07624935148280089
 21
1355.657561799817
 31
0.0
210
0.0
220
0.0
230
1.0
 40
0.000642904
 41
1.506931545352583
 42
1.508409788612738
  0
ARC
  5
2DC
330
1F
100
AcDbEntity
  8
0
  6
CONTINUOUS
 62
     7
100
AcDbCircle
 10
177.2110110215
 20
123.0454405813
 30
0.0
 40
0.4998873012416259
100
AcDbArc
 50
179.9746181236
 51
240.2682024563
  0
LINE
  5
2DD
330
1F
100
AcDbEntity
  8
0
  6
CONTINUOUS
 62
     7
100
AcDbLine
 10
176.9630965844
 20
122.6113602365
 30
0.0
 11
177.0157107219
 21
115.5060097421
 31
0.0
  0
ARC
  5
2DE
330
1F
100
AcDbEntity
  8
0
  6
CONTINUOUS
 62
     7
100
AcDbCircle
 10
177.2110370561
 20
115.0459910654
 30
0.0
 40
0.499769506625467
100
AcDbArc
 50
113.0063308931
 51
180.0378723987
  0
ELLIPSE
  5
2DF
330
1F
100
AcDbEntity
  8
0
  6
CONTINUOUS
 62
     7
100
AcDbEllipse
 10
177.5857395797
 20
38.5257770188
 30
0.0
 11
-0.07624935148280089
 21
1355.657561799817
 31
0.0
210
0.0
220
0.0
230
1.0
 40
0.000642904
 41
1.514321429384691
 42
1.515799022822476
  0
ARC
  5
2E0
330
1F
100
AcDbEntity
  8
0
  6
CONTINUOUS
 62
     7
100
AcDbCircle
 10
177.2111572677
 20
113.0453868238
 30
0.0
 40
0.4998491693584734
100
AcDbArc
 50
179.9690690692
 51
249.6584592454
  0
LINE
  5
2E1
330
1F
100
AcDbEntity
  8
0
  6
CONTINUOUS
 62
     7
100
AcDbLine
 10
177.0374019231
 20
112.5767096723
 30
0.0
 11
177.0895764764
 21
105.5307254041
 31
0.0
  0
ARC
  5
2E2
330
1F
100
AcDbEntity
  8
0
  6
CONTINUOUS
 62
     7
100
AcDbCircle
 10
177.2111870033
 20
105.0460524401
 30
0.0
 40
0.4996969104505112
100
AcDbArc
 50
104.0854422818
 51
180.0446759856
  0
ELLIPSE
  5
2E3
330
1F
100
AcDbEntity
  8
0
  6
CONTINUOUS
 62
     7
100
AcDbEllipse
 10
177.5857395797
 20
38.5257770188
 30
0.0
 11
-0.07624935148280089
 21
1355.657561799817
 31
0.0
210
0.0
220
0.0
230
1.0
 40
0.000642904
 41
1.521708227238704
 42
1.52318525226084
  0
ARC
  5
2E4
330
1F
100
AcDbEntity
  8
0
  6
CONTINUOUS
 62
     7
100
AcDbCircle
 10
177.211251483
 20
103.0452798025
 30
0.0
 40
0.4997110904817086
100
AcDbArc
 50
179.9565505021
 51
258.4978701005
  0
LINE
  5
2E5
330
1F
100
AcDbEntity
  8
0
  6
CONTINUOUS
 62
     7
100
AcDbLine
 10
177.1116069119
 20
102.5556042636
 30
0.0
 11
177.1635311723
 21
95.543415829
 31
0.0
  0
ARC
  5
2E6
330
1F
100
AcDbEntity
  8
0
  6
CONTINUOUS
 62
     7
100
AcDbCircle
 10
177.2114285129
 20
95.0460489349
 30
0.0
 40
0.4996678723048188
100
AcDbArc
 50
95.5007254519
 51
180.0448917772
  0
ELLIPSE
  5
2E7
330
1F
100
AcDbEntity
  8
0
  6
CONTINUOUS
 62
     7
100
AcDbEllipse
 10
177.5857395797
 20
38.5257770188
 30
0.0
 11
-0.07624935148280089
 21
1355.657561799817
 31
0.0
210
0.0
220
0.0
230
1.0
 40
0.000642904
 41
1.529092345371125
 42
1.530568883103917
  0
ARC
  5
2E8
330
1F
100
AcDbEntity
  8
0
  6
CONTINUOUS
 62
     7
100
AcDbCircle
 10
177.2112653906
 20
93.0450775129
 30
0.0
 40
0.499445323937007
100
AcDbArc
 50
179.9339363395
 51
267.0687107762
  0
LINE
  5
2E9
330
1F
100
AcDbEntity
  8
0
  6
CONTINUOUS
 62
     7
100
AcDbLine
 10
177.1857245892
 20
92.5462856735
 30
0.0
 11
177.2641901459
 21
81.9498166288
 31
0.0
  0
LINE
  5
2EA
330
1F
100
AcDbEntity
  8
0
  6
CONTINUOUS
 62
     7
100
AcDbLine
 10
172.7067230802
 20
74.545653149
 30
0.0
 11
170.2476580228
 21
74.545653149
 31
0.0
  0
ARC
  5
2EB
330
1F
100
AcDbEntity
  8
0
  6
CONTINUOUS
 62
     7
100
AcDbCircle
 10
177.2108529445
 20
115.0456590379
 30
0.0
 40
0.2375340094222196
100
AcDbArc
 50
90.0
 51
180.0
  0
LINE
  5
2EC
330
1F
100
AcDbEntity
  8
0
  6
CONTINUOUS
 62
     7
100
AcDbLine
 10
176.9733190138
 20
115.0456607188
 30
0.0
 11
176.7112676587
 21
115.0456607188
 31
0.0
  0
ARC
  5
2ED
330
1F
100
AcDbEntity
  8
0
  6
CONTINUOUS
 62
     7
100
AcDbCircle
 10
177.2108529445
 20
115.0456590379
 30
0.0
 40
0.5
100
AcDbArc
 50
90.0
 51
112.9721908087
  0
LINE
  5
2EE
330
1F
100
AcDbEntity
  8
0
  6
CONTINUOUS
 62
     7
100
AcDbLine
 10
177.2108528364
 20
115.2831926788
 30
0.0
 11
177.2108528364
 21
115.5456617321
 31
0.0
  0
ARC
  5
2EF
330
1F
100
AcDbEntity
  8
0
  6
CONTINUOUS
 62
     7
100
AcDbCircle
 10
177.2108529445
 20
105.0456590379
 30
0.0
 40
0.2375340094222196
100
AcDbArc
 50
90.0
 51
180.0
  0
LINE
  5
2F0
330
1F
100
AcDbEntity
  8
0
  6
CONTINUOUS
 62
     7
100
AcDbLine
 10
176.9733190138
 20
105.0456628049
 30
0.0
 11
176.7114902448
 21
105.0456628049
 31
0.0
  0
ARC
  5
2F1
330
1F
100
AcDbEntity
  8
0
  6
CONTINUOUS
 62
     7
100
AcDbCircle
 10
177.2108529445
 20
105.0456590379
 30
0.0
 40
0.5000000000000028
100
AcDbArc
 50
90.0
 51
104.0372683178
  0
LINE
  5
2F2
330
1F
100
AcDbEntity
  8
0
  6
CONTINUOUS
 62
     7
100
AcDbLine
 10
177.2108528364
 20
105.2831873144
 30
0.0
 11
177.2108528364
 21
105.5456563676
 31
0.0
  0
ARC
  5
2F3
330
1F
100
AcDbEntity
  8
0
  6
CONTINUOUS
 62
     7
100
AcDbCircle
 10
184.2108529445
 20
103.0456590379
 30
0.0
 40
0.2375340094222196
100
AcDbArc
 50
270.0
 51
0.0
  0
LINE
  5
2F4
330
1F
100
AcDbEntity
  8
0
  6
CONTINUOUS
 62
     7
100
AcDbLine
 10
184.4483868752
 20
103.0456587518
 30
0.0
 11
184.7101653527
 21
103.0456587518
 31
0.0
  0
ARC
  5
2F5
330
1F
100
AcDbEntity
  8
0
  6
CONTINUOUS
 62
     7
100
AcDbCircle
 10
184.2108529445
 20
103.0456590379
 30
0.0
 40
0.5000000000000108
100
AcDbArc
 50
270.0
 51
281.4488010836
  0
LINE
  5
2F6
330
1F
100
AcDbEntity
  8
0
  6
CONTINUOUS
 62
     7
100
AcDbLine
 10
184.2108530525
 20
102.8081193412
 30
0.0
 11
184.2108530525
 21
102.5456651891
 31
0.0
  0
ARC
  5
2F7
330
1F
100
AcDbEntity
  8
0
  6
CONTINUOUS
 62
     7
100
AcDbCircle
 10
184.2108529445
 20
123.0456590379
 30
0.0
 40
0.2375340094222196
100
AcDbArc
 50
270.0
 51
0.0
  0
LINE
  5
2F8
330
1F
100
AcDbEntity
  8
0
  6
CONTINUOUS
 62
     7
100
AcDbLine
 10
184.4483868752
 20
123.0456620301
 30
0.0
 11
184.7105821196
 21
123.0456620301
 31
0.0
  0
ARC
  5
2F9
330
1F
100
AcDbEntity
  8
0
  6
CONTINUOUS
 62
     7
100
AcDbCircle
 10
184.2108529445
 20
123.0456590379
 30
0.0
 40
0.5
100
AcDbArc
 50
270.0
 51
299.7035682402
  0
LINE
  5
2FA
330
1F
100
AcDbEntity
  8
0
  6
CONTINUOUS
 62
     7
100
AcDbLine
 10
184.2108530525
 20
122.8081226195
 30
0.0
 11
184.2108530525
 21
122.5456610168
 31
0.0
  0
ARC
  5
2FB
330
1F
100
AcDbEntity
  8
0
  6
CONTINUOUS
 62
     7
100
AcDbCircle
 10
184.2108529445
 20
95.0456590379
 30
0.0
 40
0.2375340094222338
100
AcDbArc
 50
0.0
 51
90.0
  0
LINE
  5
2FC
330
1F
100
AcDbEntity
  8
0
  6
CONTINUOUS
 62
     7
100
AcDbLine
 10
184.2108530525
 20
95.2831968511
 30
0.0
 11
184.2108530525
 21
95.5456659044
 31
0.0
  0
ARC
  5
2FD
330
1F
100
AcDbEntity
  8
0
  6
CONTINUOUS
 62
     7
100
AcDbCircle
 10
184.2108529445
 20
95.0456590379
 30
0.0
 40
0.5000000000000165
100
AcDbArc
 50
84.5692037056
 51
90.0
  0
LINE
  5
2FE
330
1F
100
AcDbEntity
  8
0
  6
CONTINUOUS
 62
     7
100
AcDbLine
 10
184.4483868752
 20
95.0456574405
 30
0.0
 11
184.7099450949
 21
95.0456574405
 31
0.0
  0
ARC
  5
2FF
330
1F
100
AcDbEntity
  8
0
  6
CONTINUOUS
 62
     7
100
AcDbCircle
 10
177.2108529445
 20
93.0456590379
 30
0.0
 40
0.2375340094222196
100
AcDbArc
 50
180.0
 51
270.0
  0
LINE
  5
300
330
1F
100
AcDbEntity
  8
0
  6
CONTINUOUS
 62
     7
100
AcDbLine
 10
177.2108528364
 20
92.808128878
 30
0.0
 11
177.2108528364
 21
92.5456598247
 31
0.0
  0
ARC
  5
301
330
1F
100
AcDbEntity
  8
0
  6
CONTINUOUS
 62
     7
100
AcDbCircle
 10
177.2108529445
 20
93.0456590379
 30
0.0
 40
0.5
100
AcDbArc
 50
267.1192855673
 51
270.0
  0
LINE
  5
302
330
1F
100
AcDbEntity
  8
0
  6
CONTINUOUS
 62
     7
100
AcDbLine
 10
176.9733190138
 20
93.0456533874
 30
0.0
 11
176.7118203986
 21
93.0456533874
 31
0.0
  0
ARC
  5
303
330
1F
100
AcDbEntity
  8
0
  6
CONTINUOUS
 62
     7
100
AcDbCircle
 10
177.2108529445
 20
125.0456590379
 30
0.0
 40
0.2375340094222338
100
AcDbArc
 50
90.0
 51
180.0
  0
LINE
  5
304
330
1F
100
AcDbEntity
  8
0
  6
CONTINUOUS
 62
     7
100
AcDbLine
 10
176.9733190138
 20
125.0456586326
 30
0.0
 11
176.71109257
 21
125.0456586326
 31
0.0
  0
ARC
  5
305
330
1F
100
AcDbEntity
  8
0
  6
CONTINUOUS
 62
     7
100
AcDbCircle
 10
177.2108529445
 20
125.0456590379
 30
0.0
 40
0.5
100
AcDbArc
 50
90.0
 51
122.5344723384
  0
LINE
  5
306
330
1F
100
AcDbEntity
  8
0
  6
CONTINUOUS
 62
     7
100
AcDbLine
 10
177.2108528364
 20
125.2831905926
 30
0.0
 11
177.2108528364
 21
125.5456596459
 31
0.0
  0
ARC
  5
307
330
1F
100
AcDbEntity
  8
0
  6
CONTINUOUS
 62
     7
100
AcDbCircle
 10
184.2108529445
 20
133.0456590379
 30
0.0
 40
0.2375340094222338
100
AcDbArc
 50
270.0
 51
0.0
  0
LINE
  5
308
330
1F
100
AcDbEntity
  8
0
  6
CONTINUOUS
 62
     7
100
AcDbLine
 10
184.4483868752
 20
133.0456599439
 30
0.0
 11
184.710719024
 21
133.0456599439
 31
0.0
  0
ARC
  5
309
330
1F
100
AcDbEntity
  8
0
  6
CONTINUOUS
 62
     7
100
AcDbCircle
 10
184.2108529445
 20
133.0456590379
 30
0.0
 40
0.500000000000007
100
AcDbArc
 50
270.0
 51
310.1191716623
  0
LINE
  5
30A
330
1F
100
AcDbEntity
  8
0
  6
CONTINUOUS
 62
     7
100
AcDbLine
 10
184.2108530525
 20
132.8081279839
 30
0.0
 11
184.2108530525
 21
132.5456589306
 31
0.0
  0
ARC
  5
30B
330
1F
100
AcDbEntity
  8
0
  6
CONTINUOUS
 62
     7
100
AcDbCircle
 10
177.2108529445
 20
135.0456590379
 30
0.0
 40
0.2375340094222338
100
AcDbArc
 50
90.0
 51
180.0
  0
LINE
  5
30C
330
1F
100
AcDbEntity
  8
0
  6
CONTINUOUS
 62
     7
100
AcDbLine
 10
176.9733190138
 20
135.0456565464
 30
0.0
 11
176.7109649788
 21
135.0456565464
 31
0.0
  0
ARC
  5
30D
330
1F
100
AcDbEntity
  8
0
  6
CONTINUOUS
 62
     7
100
AcDbCircle
 10
177.2108529445
 20
135.0456590379
 30
0.0
 40
0.500000000000001
100
AcDbArc
 50
90.0
 51
133.2400083544
  0
LINE
  5
30E
330
1F
100
AcDbEntity
  8
0
  6
CONTINUOUS
 62
     7
100
AcDbLine
 10
177.2108528364
 20
135.283195957
 30
0.0
 11
177.2108528364
 21
135.5456575597
 31
0.0
  0
LINE
  5
30F
330
1F
100
AcDbEntity
  8
0
  6
CONTINUOUS
 62
     7
100
AcDbLine
 10
177.2108528364
 20
95.2831968511
 30
0.0
 11
177.2108528364
 21
95.5456659044
 31
0.0
  0
ARC
  5
310
330
1F
100
AcDbEntity
  8
0
  6
CONTINUOUS
 62
     7
100
AcDbCircle
 10
177.2108529445
 20
95.0456590379
 30
0.0
 40
0.2375340094222338
100
AcDbArc
 50
90.0
 51
180.0
  0
LINE
  5
311
330
1F
100
AcDbEntity
  8
0
  6
CONTINUOUS
 62
     7
100
AcDbLine
 10
176.9733190138
 20
95.0456574405
 30
0.0
 11
176.711760794
 21
95.0456574405
 31
0.0
  0
ARC
  5
312
330
1F
100
AcDbEntity
  8
0
  6
CONTINUOUS
 62
     7
100
AcDbCircle
 10
177.2108529445
 20
95.0456590379
 30
0.0
 40
0.5000000000000165
100
AcDbArc
 50
90.0
 51
95.4307962944
  0
LINE
  5
313
330
1F
100
AcDbEntity
  8
0
  6
CONTINUOUS
 62
     7
100
AcDbLine
 10
184.2108530525
 20
92.808128878
 30
0.0
 11
184.2108530525
 21
92.5456598247
 31
0.0
  0
ARC
  5
314
330
1F
100
AcDbEntity
  8
0
  6
CONTINUOUS
 62
     7
100
AcDbCircle
 10
184.2108529445
 20
93.0456590379
 30
0.0
 40
0.2375340094222196
100
AcDbArc
 50
270.0
 51
0.0
  0
LINE
  5
315
330
1F
100
AcDbEntity
  8
0
  6
CONTINUOUS
 62
     7
100
AcDbLine
 10
184.4483868752
 20
93.0456533874
 30
0.0
 11
184.7098854903
 21
93.0456533874
 31
0.0
  0
ARC
  5
316
330
1F
100
AcDbEntity
  8
0
  6
CONTINUOUS
 62
     7
100
AcDbCircle
 10
184.2108529445
 20
93.0456590379
 30
0.0
 40
0.5
100
AcDbArc
 50
270.0
 51
272.8807144327
  0
ARC
  5
317
330
1F
100
AcDbEntity
  8
0
  6
CONTINUOUS
 62
     7
100
AcDbCircle
 10
177.2108529445
 20
103.0456590379
 30
0.0
 40
0.2375340094222196
100
AcDbArc
 50
180.0
 51
270.0
  0
LINE
  5
318
330
1F
100
AcDbEntity
  8
0
  6
CONTINUOUS
 62
     7
100
AcDbLine
 10
177.2108528364
 20
102.8081193412
 30
0.0
 11
177.2108528364
 21
102.5456651891
 31
0.0
  0
ARC
  5
319
330
1F
100
AcDbEntity
  8
0
  6
CONTINUOUS
 62
     7
100
AcDbCircle
 10
177.2108529445
 20
103.0456590379
 30
0.0
 40
0.5
100
AcDbArc
 50
258.5511989164
 51
270.0
  0
LINE
  5
31A
330
1F
100
AcDbEntity
  8
0
  6
CONTINUOUS
 62
     7
100
AcDbLine
 10
176.9733190138
 20
103.0456587518
 30
0.0
 11
176.7115405362
 21
103.0456587518
 31
0.0
  0
ARC
  5
31B
330
1F
100
AcDbEntity
  8
0
  6
CONTINUOUS
 62
     7
100
AcDbCircle
 10
184.2108529445
 20
105.0456590379
 30
0.0
 40
0.2375340094222196
100
AcDbArc
 50
0.0
 51
90.0
  0
LINE
  5
31C
330
1F
100
AcDbEntity
  8
0
  6
CONTINUOUS
 62
     7
100
AcDbLine
 10
184.2108530525
 20
105.2831873144
 30
0.0
 11
184.2108530525
 21
105.5456563676
 31
0.0
  0
ARC
  5
31D
330
1F
100
AcDbEntity
  8
0
  6
CONTINUOUS
 62
     7
100
AcDbCircle
 10
184.2108529445
 20
105.0456590379
 30
0.0
 40
0.5000000000000028
100
AcDbArc
 50
75.9627316822
 51
90.0
  0
LINE
  5
31E
330
1F
100
AcDbEntity
  8
0
  6
CONTINUOUS
 62
     7
100
AcDbLine
 10
184.4483868752
 20
105.0456628049
 30
0.0
 11
184.7102156441
 21
105.0456628049
 31
0.0
  0
ARC
  5
31F
330
1F
100
AcDbEntity
  8
0
  6
CONTINUOUS
 62
     7
100
AcDbCircle
 10
184.2108529445
 20
143.0456590379
 30
0.0
 40
0.2375340094222054
100
AcDbArc
 50
270.0
 51
0.0
  0
LINE
  5
320
330
1F
100
AcDbEntity
  8
0
  6
CONTINUOUS
 62
     7
100
AcDbLine
 10
184.4483868752
 20
143.0456578577
 30
0.0
 11
184.710808431
 21
143.0456578577
 31
0.0
  0
ARC
  5
321
330
1F
100
AcDbEntity
  8
0
  6
CONTINUOUS
 62
     7
100
AcDbCircle
 10
184.2108529445
 20
143.0456590379
 30
0.0
 40
0.5
100
AcDbArc
 50
270.0
 51
322.5264662693
  0
LINE
  5
322
330
1F
100
AcDbEntity
  8
0
  6
CONTINUOUS
 62
     7
100
AcDbLine
 10
184.2108530525
 20
142.8081258977
 30
0.0
 11
184.2108530525
 21
142.5456568445
 31
0.0
  0
ARC
  5
323
330
1F
100
AcDbEntity
  8
0
  6
CONTINUOUS
 62
     7
100
AcDbCircle
 10
177.2108529445
 20
113.0456590379
 30
0.0
 40
0.2375340094222338
100
AcDbArc
 50
180.0
 51
270.0
  0
LINE
  5
324
330
1F
100
AcDbEntity
  8
0
  6
CONTINUOUS
 62
     7
100
AcDbLine
 10
177.2108528364
 20
112.8081247056
 30
0.0
 11
177.2108528364
 21
112.5456556524
 31
0.0
  0
ARC
  5
325
330
1F
100
AcDbEntity
  8
0
  6
CONTINUOUS
 62
     7
100
AcDbCircle
 10
177.2108529445
 20
113.0456590379
 30
0.0
 40
0.500000000000013
100
AcDbArc
 50
249.7020466184
 51
270.0
  0
LINE
  5
326
330
1F
100
AcDbEntity
  8
0
  6
CONTINUOUS
 62
     7
100
AcDbLine
 10
176.9733190138
 20
113.0456566657
 30
0.0
 11
176.7113081712
 21
113.0456566657
 31
0.0
  0
ARC
  5
327
330
1F
100
AcDbEntity
  8
0
  6
CONTINUOUS
 62
     7
100
AcDbCircle
 10
177.2108529445
 20
145.0456590379
 30
0.0
 40
0.2375340094222338
100
AcDbArc
 50
90.0
 51
180.0
  0
LINE
  5
328
330
1F
100
AcDbEntity
  8
0
  6
CONTINUOUS
 62
     7
100
AcDbLine
 10
176.9733190138
 20
145.0456619109
 30
0.0
 11
176.7108853508
 21
145.0456619109
 31
0.0
  0
ARC
  5
329
330
1F
100
AcDbEntity
  8
0
  6
CONTINUOUS
 62
     7
100
AcDbCircle
 10
177.2108529445
 20
145.0456590379
 30
0.0
 40
0.5
100
AcDbArc
 50
90.0
 51
146.2911630269
  0
LINE
  5
32A
330
1F
100
AcDbEntity
  8
0
  6
CONTINUOUS
 62
     7
100
AcDbLine
 10
177.2108528364
 20
145.2831938709
 30
0.0
 11
177.2108528364
 21
145.5456554736
 31
0.0
  0
ARC
  5
32B
330
1F
100
AcDbEntity
  8
0
  6
CONTINUOUS
 62
     7
100
AcDbCircle
 10
184.2108529445
 20
115.0456590379
 30
0.0
 40
0.2375340094222196
100
AcDbArc
 50
0.0
 51
90.0
  0
LINE
  5
32C
330
1F
100
AcDbEntity
  8
0
  6
CONTINUOUS
 62
     7
100
AcDbLine
 10
184.2108530525
 20
115.2831926788
 30
0.0
 11
184.2108530525
 21
115.5456617321
 31
0.0
  0
ARC
  5
32D
330
1F
100
AcDbEntity
  8
0
  6
CONTINUOUS
 62
     7
100
AcDbCircle
 10
184.2108529445
 20
115.0456590379
 30
0.0
 40
0.5
100
AcDbArc
 50
67.0278091913
 51
90.0
  0
LINE
  5
32E
330
1F
100
AcDbEntity
  8
0
  6
CONTINUOUS
 62
     7
100
AcDbLine
 10
184.4483868752
 20
115.0456607188
 30
0.0
 11
184.7104382302
 21
115.0456607188
 31
0.0
  0
ARC
  5
32F
330
1F
100
AcDbEntity
  8
0
  6
CONTINUOUS
 62
     7
100
AcDbCircle
 10
177.2108529445
 20
123.0456590379
 30
0.0
 40
0.2375340094222196
100
AcDbArc
 50
180.0
 51
270.0
  0
LINE
  5
330
330
1F
100
AcDbEntity
  8
0
  6
CONTINUOUS
 62
     7
100
AcDbLine
 10
177.2108528364
 20
122.8081226195
 30
0.0
 11
177.2108528364
 21
122.5456610168
 31
0.0
  0
ARC
  5
331
330
1F
100
AcDbEntity
  8
0
  6
CONTINUOUS
 62
     7
100
AcDbCircle
 10
177.2108529445
 20
123.0456590379
 30
0.0
 40
0.5
100
AcDbArc
 50
240.2964317598
 51
270.0
  0
LINE
  5
332
330
1F
100
AcDbEntity
  8
0
  6
CONTINUOUS
 62
     7
100
AcDbLine
 10
176.9733190138
 20
123.0456620301
 30
0.0
 11
176.7111237693
 21
123.0456620301
 31
0.0
  0
ARC
  5
333
330
1F
100
AcDbEntity
  8
0
  6
CONTINUOUS
 62
     7
100
AcDbCircle
 10
184.2108529445
 20
125.0456590379
 30
0.0
 40
0.2375340094222338
100
AcDbArc
 50
0.0
 51
90.0
  0
LINE
  5
334
330
1F
100
AcDbEntity
  8
0
  6
CONTINUOUS
 62
     7
100
AcDbLine
 10
184.2108530525
 20
125.2831905926
 30
0.0
 11
184.2108530525
 21
125.5456596459
 31
0.0
  0
ARC
  5
335
330
1F
100
AcDbEntity
  8
0
  6
CONTINUOUS
 62
     7
100
AcDbCircle
 10
184.2108529445
 20
125.0456590379
 30
0.0
 40
0.5
100
AcDbArc
 50
57.4655276616
 51
90.0
  0
LINE
  5
336
330
1F
100
AcDbEntity
  8
0
  6
CONTINUOUS
 62
     7
100
AcDbLine
 10
184.4483868752
 20
125.0456586326
 30
0.0
 11
184.7106133189
 21
125.0456586326
 31
0.0
  0
ARC
  5
337
330
1F
100
AcDbEntity
  8
0
  6
CONTINUOUS
 62
     7
100
AcDbCircle
 10
177.2108529445
 20
133.0456590379
 30
0.0
 40
0.2375340094222338
100
AcDbArc
 50
180.0
 51
270.0
  0
LINE
  5
338
330
1F
100
AcDbEntity
  8
0
  6
CONTINUOUS
 62
     7
100
AcDbLine
 10
177.2108528364
 20
132.8081279839
 30
0.0
 11
177.2108528364
 21
132.5456589306
 31
0.0
  0
ARC
  5
339
330
1F
100
AcDbEntity
  8
0
  6
CONTINUOUS
 62
     7
100
AcDbCircle
 10
177.2108529445
 20
133.0456590379
 30
0.0
 40
0.500000000000007
100
AcDbArc
 50
229.8808283377
 51
270.0
  0
LINE
  5
33A
330
1F
100
AcDbEntity
  8
0
  6
CONTINUOUS
 62
     7
100
AcDbLine
 10
176.9733190138
 20
133.0456599439
 30
0.0
 11
176.7109868649
 21
133.0456599439
 31
0.0
  0
ARC
  5
33B
330
1F
100
AcDbEntity
  8
0
  6
CONTINUOUS
 62
     7
100
AcDbCircle
 10
184.2108529445
 20
135.0456590379
 30
0.0
 40
0.2375340094222338
100
AcDbArc
 50
0.0
 51
90.0
  0
LINE
  5
33C
330
1F
100
AcDbEntity
  8
0
  6
CONTINUOUS
 62
     7
100
AcDbLine
 10
184.2108530525
 20
135.283195957
 30
0.0
 11
184.2108530525
 21
135.5456575597
 31
0.0
  0
ARC
  5
33D
330
1F
100
AcDbEntity
  8
0
  6
CONTINUOUS
 62
     7
100
AcDbCircle
 10
184.2108529445
 20
135.0456590379
 30
0.0
 40
0.500000000000001
100
AcDbArc
 50
46.7599916456
 51
90.0
  0
LINE
  5
33E
330
1F
100
AcDbEntity
  8
0
  6
CONTINUOUS
 62
     7
100
AcDbLine
 10
184.4483868752
 20
135.0456565464
 30
0.0
 11
184.7107409101
 21
135.0456565464
 31
0.0
  0
ARC
  5
33F
330
1F
100
AcDbEntity
  8
0
  6
CONTINUOUS
 62
     7
100
AcDbCircle
 10
177.2108529445
 20
143.0456590379
 30
0.0
 40
0.2375340094222054
100
AcDbArc
 50
180.0
 51
270.0
  0
LINE
  5
340
330
1F
100
AcDbEntity
  8
0
  6
CONTINUOUS
 62
     7
100
AcDbLine
 10
177.2108528364
 20
142.8081258977
 30
0.0
 11
177.2108528364
 21
142.5456568445
 31
0.0
  0
ARC
  5
341
330
1F
100
AcDbEntity
  8
0
  6
CONTINUOUS
 62
     7
100
AcDbCircle
 10
177.2108529445
 20
143.0456590379
 30
0.0
 40
0.5000000000000143
100
AcDbArc
 50
217.4735337307
 51
270.0
  0
LINE
  5
342
330
1F
100
AcDbEntity
  8
0
  6
CONTINUOUS
 62
     7
100
AcDbLine
 10
176.9733190138
 20
143.0456578577
 30
0.0
 11
176.710897458
 21
143.0456578577
 31
0.0
  0
ARC
  5
343
330
1F
100
AcDbEntity
  8
0
  6
CONTINUOUS
 62
     7
100
AcDbCircle
 10
184.2108529445
 20
145.0456590379
 30
0.0
 40
0.2375340094222338
100
AcDbArc
 50
0.0
 51
90.0
  0
LINE
  5
344
330
1F
100
AcDbEntity
  8
0
  6
CONTINUOUS
 62
     7
100
AcDbLine
 10
184.2108530525
 20
145.2831938709
 30
0.0
 11
184.2108530525
 21
145.5456554736
 31
0.0
  0
ARC
  5
345
330
1F
100
AcDbEntity
  8
0
  6
CONTINUOUS
 62
     7
100
AcDbCircle
 10
184.2108529445
 20
145.0456590379
 30
0.0
 40
0.5
100
AcDbArc
 50
33.7088369731
 51
90.0
  0
LINE
  5
346
330
1F
100
AcDbEntity
  8
0
  6
CONTINUOUS
 62
     7
100
AcDbLine
 10
184.4483868752
 20
145.0456619109
 30
0.0
 11
184.7108205382
 21
145.0456619109
 31
0.0
  0
ARC
  5
347
330
1F
100
AcDbEntity
  8
0
  6
CONTINUOUS
 62
     7
100
AcDbCircle
 10
177.2108529445
 20
153.0456590379
 30
0.0
 40
0.2375340094222338
100
AcDbArc
 50
180.0
 51
270.0
  0
LINE
  5
348
330
1F
100
AcDbEntity
  8
0
  6
CONTINUOUS
 62
     7
100
AcDbLine
 10
177.2108528364
 20
152.8081238116
 30
0.0
 11
177.2108528364
 21
152.5456622089
 31
0.0
  0
ARC
  5
349
330
1F
100
AcDbEntity
  8
0
  6
CONTINUOUS
 62
     7
100
AcDbCircle
 10
177.2108529445
 20
153.0456590379
 30
0.0
 40
0.5
100
AcDbArc
 50
199.3020141505
 51
270.0
  0
LINE
  5
34A
330
1F
100
AcDbEntity
  8
0
  6
CONTINUOUS
 62
     7
100
AcDbLine
 10
176.9733190138
 20
153.0456557716
 30
0.0
 11
176.7108560141
 21
153.0456557716
 31
0.0
  0
LINE
  5
34B
330
1F
100
AcDbEntity
  8
0
  6
CONTINUOUS
 62
     7
100
AcDbLine
 10
178.6204072248
 20
237.6890235223
 30
0.0
 11
177.6711646069
 21
237.6261009462
 31
0.0
  0
LINE
  5
34C
330
1F
100
AcDbEntity
  8
0
  6
CONTINUOUS
 62
     7
100
AcDbLine
 10
177.6711646069
 20
237.6261009462
 30
0.0
 11
176.1114270028
 21
237.6261009462
 31
0.0
  0
LINE
  5
34D
330
1F
100
AcDbEntity
  8
0
  6
CONTINUOUS
 62
     7
100
AcDbLine
 10
169.0398788612
 20
237.6516622002
 30
0.0
 11
162.2899648335
 21
237.7105639948
 31
0.0
  0
LINE
  5
34E
330
1F
100
AcDbEntity
  8
0
  6
CONTINUOUS
 62
     7
100
AcDbLine
 10
162.2899648335
 20
237.7105639948
 30
0.0
 11
164.4109961178
 21
237.7290767394
 31
0.0
  0
LINE
  5
34F
330
1F
100
AcDbEntity
  8
0
  6
CONTINUOUS
 62
     7
100
AcDbLine
 10
164.4284435149
 20
237.7289244718
 30
0.0
 11
164.4109961178
 21
237.7290767394
 31
0.0
  0
ELLIPSE
  5
350
330
1F
100
AcDbEntity
  8
0
  6
CONTINUOUS
 62
     7
100
AcDbEllipse
 10
169.6245614434
 20
237.6758547287
 30
0.0
 11
7.998781468449919
 21
0.0
 31
0.0
210
0.0
220
0.0
230
1.0
 40
0.0087268679
 41
1.570796326794897
 42
2.277872382007047
  0
LINE
  5
351
330
1F
100
AcDbEntity
  8
0
  6
CONTINUOUS
 62
     7
100
AcDbLine
 10
169.9474899631
 20
237.7456590379
 30
0.0
 11
169.6245613109
 21
237.7456590379
 31
0.0
  0
LINE
  5
352
330
1F
100
AcDbEntity
  8
0
  6
CONTINUOUS
 62
     7
100
AcDbLine
 10
170.7227955174
 20
237.6942062415
 30
0.0
 11
169.9474899631
 21
237.7456590379
 31
0.0
  0
ELLIPSE
  5
353
330
1F
100
AcDbEntity
  8
0
  6
CONTINUOUS
 62
     7
100
AcDbEllipse
 10
172.2108529445
 20
237.6959138963
 30
0.0
 11
1.500868287263245
 21
0.0
 31
0.0
210
0.0
220
0.0
230
1.0
 40
0.0087268679
 41
3.272341321131141
 42
6.152436639641398
  0
LINE
  5
354
330
1F
100
AcDbEntity
  8
0
  6
CONTINUOUS
 62
     7
100
AcDbLine
 10
174.4742154676
 20
237.7456590379
 30
0.0
 11
173.6989108447
 21
237.6942062415
 31
0.0
  0
LINE
  5
355
330
1F
100
AcDbEntity
  8
0
  6
CONTINUOUS
 62
     7
100
AcDbLine
 10
186.9474904213
 20
237.7456590379
 30
0.0
 11
174.4742154676
 21
237.7456590379
 31
0.0
  0
LINE
  5
356
330
1F
100
AcDbEntity
  8
0
  6
CONTINUOUS
 62
     7
100
AcDbLine
 10
187.7227950442
 20
237.6942062415
 30
0.0
 11
186.9474904213
 21
237.7456590379
 31
0.0
  0
ELLIPSE
  5
357
330
1F
100
AcDbEntity
  8
0
  6
CONTINUOUS
 62
     7
100
AcDbEllipse
 10
189.2108529445
 20
237.6959138963
 30
0.0
 11
1.500868287263188
 21
0.0
 31
0.0
210
0.0
220
0.0
230
1.0
 40
0.0087268679
 41
3.272341321131136
 42
6.152436639641404
  0
LINE
  5
358
330
1F
100
AcDbEntity
  8
0
  6
CONTINUOUS
 62
     7
100
AcDbLine
 10
191.4742159258
 20
237.7456590379
 30
0.0
 11
190.6989103716
 21
237.6942062415
 31
0.0
  0
LINE
  5
359
330
1F
100
AcDbEntity
  8
0
  6
CONTINUOUS
 62
     7
100
AcDbLine
 10
191.797144578
 20
237.7456590379
 30
0.0
 11
191.4742159258
 21
237.7456590379
 31
0.0
  0
ELLIPSE
  5
35A
330
1F
100
AcDbEntity
  8
0
  6
CONTINUOUS
 62
     7
100
AcDbEllipse
 10
191.7971444455
 20
237.6758547287
 30
0.0
 11
7.998781468449919
 21
0.0
 31
0.0
210
0.0
220
0.0
230
1.0
 40
0.0087268679
 41
0.8637202715830152
 42
1.570796326794897
  0
LINE
  5
35B
330
1F
100
AcDbEntity
  8
0
  6
CONTINUOUS
 62
     7
100
AcDbLine
 10
197.0107097711
 20
237.7290767394
 30
0.0
 11
196.993262374
 21
237.7289244718
 31
0.0
  0
LINE
  5
35C
330
1F
100
AcDbEntity
  8
0
  6
CONTINUOUS
 62
     7
100
AcDbLine
 10
197.0107097711
 20
237.7290767394
 30
0.0
 11
199.1317410555
 21
237.7105639948
 31
0.0
  0
LINE
  5
35D
330
1F
100
AcDbEntity
  8
0
  6
CONTINUOUS
 62
     7
100
AcDbLine
 10
199.1317410555
 20
237.7105639948
 30
0.0
 11
192.3818270277
 21
237.6516622002
 31
0.0
  0
LINE
  5
35E
330
1F
100
AcDbEntity
  8
0
  6
CONTINUOUS
 62
     7
100
AcDbLine
 10
185.3102788862
 20
237.6261009462
 30
0.0
 11
183.7505412821
 21
237.6261009462
 31
0.0
  0
LINE
  5
35F
330
1F
100
AcDbEntity
  8
0
  6
CONTINUOUS
 62
     7
100
AcDbLine
 10
183.7505412821
 20
237.6261009462
 30
0.0
 11
182.8012986641
 21
237.6890235223
 31
0.0
  0
ELLIPSE
  5
360
330
1F
100
AcDbEntity
  8
0
  6
CONTINUOUS
 62
     7
100
AcDbEllipse
 10
180.7108529445
 20
237.6871862307
 30
0.0
 11
2.101020622270056
 21
0.0
 31
0.0
210
0.0
220
0.0
230
1.0
 40
0.0087268679
 41
0.1003733758821941
 42
3.041219277428401
  0
ARC
  5
361
330
1F
100
AcDbEntity
  8
0
  6
CONTINUOUS
 62
     7
100
AcDbCircle
 10
184.2108529445
 20
155.0456590379
 30
0.0
 40
0.5
100
AcDbArc
 50
12.1985780161
 51
90.0
  0
LINE
  5
362
330
1F
100
AcDbEntity
  8
0
  6
CONTINUOUS
 62
     7
100
AcDbLine
 10
184.2108530525
 20
155.545660838
 30
0.0
 11
177.2108528364
 21
155.545660838
 31
0.0
  0
ARC
  5
363
330
1F
100
AcDbEntity
  8
0
  6
CONTINUOUS
 62
     7
100
AcDbCircle
 10
177.2108529445
 20
155.0456590379
 30
0.0
 40
0.5
100
AcDbArc
 50
90.0
 51
167.8014219839
  0
LINE
  5
364
330
1F
100
AcDbEntity
  8
0
  6
CONTINUOUS
 62
     7
100
AcDbLine
 10
177.6711646069
 20
236.1263294783
 30
0.0
 11
177.6711646069
 21
237.6261009462
 31
0.0
  0
LINE
  5
365
330
1F
100
AcDbEntity
  8
0
  6
CONTINUOUS
 62
     7
100
AcDbLine
 10
183.7505412821
 20
236.1263294783
 30
0.0
 11
177.6711646069
 21
236.1263294783
 31
0.0
  0
LINE
  5
366
330
1F
100
AcDbEntity
  8
0
  6
CONTINUOUS
 62
     7
100
AcDbLine
 10
183.7505412821
 20
237.6261009462
 30
0.0
 11
183.7505412821
 21
236.1263294783
 31
0.0
  0
ARC
  5
367
330
1F
100
AcDbEntity
  8
0
  6
CONTINUOUS
 62
     7
100
AcDbCircle
 10
177.2108529445
 20
165.0456590379
 30
0.0
 40
0.5
100
AcDbArc
 50
90.0
 51
180.0
  0
LINE
  5
368
330
1F
100
AcDbEntity
  8
0
  6
CONTINUOUS
 62
     7
100
AcDbLine
 10
176.7108527545
 20
165.0456577385
 30
0.0
 11
176.7108527545
 21
163.045661136
 31
0.0
  0
ARC
  5
369
330
1F
100
AcDbEntity
  8
0
  6
CONTINUOUS
 62
     7
100
AcDbCircle
 10
177.2108529445
 20
163.0456590379
 30
0.0
 40
0.5
100
AcDbArc
 50
180.0
 51
270.0
  0
LINE
  5
36A
330
1F
100
AcDbEntity
  8
0
  6
CONTINUOUS
 62
     7
100
AcDbLine
 10
177.2108528364
 20
162.5456601227
 30
0.0
 11
184.2108530525
 21
162.5456601227
 31
0.0
  0
ARC
  5
36B
330
1F
100
AcDbEntity
  8
0
  6
CONTINUOUS
 62
     7
100
AcDbCircle
 10
184.2108529445
 20
163.0456590379
 30
0.0
 40
0.5
100
AcDbArc
 50
270.0
 51
0.0
  0
LINE
  5
36C
330
1F
100
AcDbEntity
  8
0
  6
CONTINUOUS
 62
     7
100
AcDbLine
 10
184.7108531345
 20
163.045661136
 30
0.0
 11
184.7108531345
 21
165.0456577385
 31
0.0
  0
ARC
  5
36D
330
1F
100
AcDbEntity
  8
0
  6
CONTINUOUS
 62
     7
100
AcDbCircle
 10
184.2108529445
 20
165.0456590379
 30
0.0
 40
0.5
100
AcDbArc
 50
0.0
 51
90.0
  0
LINE
  5
36E
330
1F
100
AcDbEntity
  8
0
  6
CONTINUOUS
 62
     7
100
AcDbLine
 10
184.2108530525
 20
165.5456587518
 30
0.0
 11
177.2108528364
 21
165.5456587518
 31
0.0
  0
ARC
  5
36F
330
1F
100
AcDbEntity
  8
0
  6
CONTINUOUS
 62
     7
100
AcDbCircle
 10
177.2108529445
 20
175.0456590379
 30
0.0
 40
0.5
100
AcDbArc
 50
90.0
 51
180.0
  0
LINE
  5
370
330
1F
100
AcDbEntity
  8
0
  6
CONTINUOUS
 62
     7
100
AcDbLine
 10
176.7108527545
 20
175.0456556524
 30
0.0
 11
176.7108527545
 21
173.0456590498
 31
0.0
  0
ARC
  5
371
330
1F
100
AcDbEntity
  8
0
  6
CONTINUOUS
 62
     7
100
AcDbCircle
 10
177.2108529445
 20
173.0456590379
 30
0.0
 40
0.5
100
AcDbArc
 50
180.0
 51
270.0
  0
LINE
  5
372
330
1F
100
AcDbEntity
  8
0
  6
CONTINUOUS
 62
     7
100
AcDbLine
 10
177.2108528364
 20
172.5456580366
 30
0.0
 11
184.2108530525
 21
172.5456580366
 31
0.0
  0
ARC
  5
373
330
1F
100
AcDbEntity
  8
0
  6
CONTINUOUS
 62
     7
100
AcDbCircle
 10
184.2108529445
 20
173.0456590379
 30
0.0
 40
0.5
100
AcDbArc
 50
270.0
 51
0.0
  0
LINE
  5
374
330
1F
100
AcDbEntity
  8
0
  6
CONTINUOUS
 62
     7
100
AcDbLine
 10
184.7108531345
 20
173.0456590498
 30
0.0
 11
184.7108531345
 21
175.0456556524
 31
0.0
  0
ARC
  5
375
330
1F
100
AcDbEntity
  8
0
  6
CONTINUOUS
 62
     7
100
AcDbCircle
 10
184.2108529445
 20
175.0456590379
 30
0.0
 40
0.5
100
AcDbArc
 50
0.0
 51
90.0
  0
LINE
  5
376
330
1F
100
AcDbEntity
  8
0
  6
CONTINUOUS
 62
     7
100
AcDbLine
 10
184.2108530525
 20
175.5456603909
 30
0.0
 11
177.2108528364
 21
175.5456603909
 31
0.0
  0
ARC
  5
377
330
1F
100
AcDbEntity
  8
0
  6
CONTINUOUS
 62
     7
100
AcDbCircle
 10
177.2108529445
 20
185.0456590379
 30
0.0
 40
0.5
100
AcDbArc
 50
90.0
 51
180.0
  0
LINE
  5
378
330
1F
100
AcDbEntity
  8
0
  6
CONTINUOUS
 62
     7
100
AcDbLine
 10
176.7108527545
 20
185.0456572915
 30
0.0
 11
176.7108527545
 21
183.045660689
 31
0.0
  0
ARC
  5
379
330
1F
100
AcDbEntity
  8
0
  6
CONTINUOUS
 62
     7
100
AcDbCircle
 10
177.2108529445
 20
183.0456590379
 30
0.0
 40
0.5
100
AcDbArc
 50
180.0
 51
270.0
  0
LINE
  5
37A
330
1F
100
AcDbEntity
  8
0
  6
CONTINUOUS
 62
     7
100
AcDbLine
 10
177.2108528364
 20
182.5456596757
 30
0.0
 11
184.2108530525
 21
182.5456596757
 31
0.0
  0
ARC
  5
37B
330
1F
100
AcDbEntity
  8
0
  6
CONTINUOUS
 62
     7
100
AcDbCircle
 10
184.2108529445
 20
183.0456590379
 30
0.0
 40
0.5
100
AcDbArc
 50
270.0
 51
0.0
  0
LINE
  5
37C
330
1F
100
AcDbEntity
  8
0
  6
CONTINUOUS
 62
     7
100
AcDbLine
 10
184.7108531345
 20
183.045660689
 30
0.0
 11
184.7108531345
 21
185.0456572915
 31
0.0
  0
ARC
  5
37D
330
1F
100
AcDbEntity
  8
0
  6
CONTINUOUS
 62
     7
100
AcDbCircle
 10
184.2108529445
 20
185.0456590379
 30
0.0
 40
0.5
100
AcDbArc
 50
0.0
 51
90.0
  0
LINE
  5
37E
330
1F
100
AcDbEntity
  8
0
  6
CONTINUOUS
 62
     7
100
AcDbLine
 10
184.2108530525
 20
185.5456583048
 30
0.0
 11
177.2108528364
 21
185.5456583048
 31
0.0
  0
ARC
  5
37F
330
1F
100
AcDbEntity
  8
0
  6
CONTINUOUS
 62
     7
100
AcDbCircle
 10
177.2108529445
 20
195.0456590379
 30
0.0
 40
0.5
100
AcDbArc
 50
90.0
 51
180.0
  0
LINE
  5
380
330
1F
100
AcDbEntity
  8
0
  6
CONTINUOUS
 62
     7
100
AcDbLine
 10
176.7108527545
 20
195.0456589306
 30
0.0
 11
176.7108527545
 21
193.0456586028
 31
0.0
  0
ARC
  5
381
330
1F
100
AcDbEntity
  8
0
  6
CONTINUOUS
 62
     7
100
AcDbCircle
 10
177.2108529445
 20
193.0456590379
 30
0.0
 40
0.5
100
AcDbArc
 50
180.0
 51
270.0
  0
LINE
  5
382
330
1F
100
AcDbEntity
  8
0
  6
CONTINUOUS
 62
     7
100
AcDbLine
 10
177.2108528364
 20
192.5456575895
 30
0.0
 11
184.2108530525
 21
192.5456575895
 31
0.0
  0
ARC
  5
383
330
1F
100
AcDbEntity
  8
0
  6
CONTINUOUS
 62
     7
100
AcDbCircle
 10
184.2108529445
 20
193.0456590379
 30
0.0
 40
0.5
100
AcDbArc
 50
270.0
 51
0.0
  0
LINE
  5
384
330
1F
100
AcDbEntity
  8
0
  6
CONTINUOUS
 62
     7
100
AcDbLine
 10
184.7108531345
 20
193.0456586028
 30
0.0
 11
184.7108531345
 21
195.0456589306
 31
0.0
  0
ARC
  5
385
330
1F
100
AcDbEntity
  8
0
  6
CONTINUOUS
 62
     7
100
AcDbCircle
 10
184.2108529445
 20
195.0456590379
 30
0.0
 40
0.5
100
AcDbArc
 50
0.0
 51
90.0
  0
LINE
  5
386
330
1F
100
AcDbEntity
  8
0
  6
CONTINUOUS
 62
     7
100
AcDbLine
 10
184.2108530525
 20
195.5456599439
 30
0.0
 11
177.2108528364
 21
195.5456599439
 31
0.0
  0
ARC
  5
387
330
1F
100
AcDbEntity
  8
0
  6
CONTINUOUS
 62
     7
100
AcDbCircle
 10
177.2108529445
 20
205.0456590379
 30
0.0
 40
0.5
100
AcDbArc
 50
90.0
 51
180.0
  0
LINE
  5
388
330
1F
100
AcDbEntity
  8
0
  6
CONTINUOUS
 62
     7
100
AcDbLine
 10
176.7108527545
 20
205.0456605698
 30
0.0
 11
176.7108527545
 21
203.0456602419
 31
0.0
  0
ARC
  5
389
330
1F
100
AcDbEntity
  8
0
  6
CONTINUOUS
 62
     7
100
AcDbCircle
 10
177.2108529445
 20
203.0456590379
 30
0.0
 40
0.5
100
AcDbArc
 50
180.0
 51
270.0
  0
LINE
  5
38A
330
1F
100
AcDbEntity
  8
0
  6
CONTINUOUS
 62
     7
100
AcDbLine
 10
177.2108528364
 20
202.5456592287
 30
0.0
 11
184.2108530525
 21
202.5456592287
 31
0.0
  0
ARC
  5
38B
330
1F
100
AcDbEntity
  8
0
  6
CONTINUOUS
 62
     7
100
AcDbCircle
 10
184.2108529445
 20
203.0456590379
 30
0.0
 40
0.5
100
AcDbArc
 50
270.0
 51
0.0
  0
LINE
  5
38C
330
1F
100
AcDbEntity
  8
0
  6
CONTINUOUS
 62
     7
100
AcDbLine
 10
184.7108531345
 20
203.0456602419
 30
0.0
 11
184.7108531345
 21
205.0456605698
 31
0.0
  0
ARC
  5
38D
330
1F
100
AcDbEntity
  8
0
  6
CONTINUOUS
 62
     7
100
AcDbCircle
 10
184.2108529445
 20
205.0456590379
 30
0.0
 40
0.5
100
AcDbArc
 50
0.0
 51
90.0
  0
LINE
  5
38E
330
1F
100
AcDbEntity
  8
0
  6
CONTINUOUS
 62
     7
100
AcDbLine
 10
184.2108530525
 20
205.5456578577
 30
0.0
 11
177.2108528364
 21
205.5456578577
 31
0.0
  0
ARC
  5
38F
330
1F
100
AcDbEntity
  8
0
  6
CONTINUOUS
 62
     7
100
AcDbCircle
 10
177.2108529445
 20
215.0456590379
 30
0.0
 40
0.5
100
AcDbArc
 50
90.0
 51
180.0
  0
LINE
  5
390
330
1F
100
AcDbEntity
  8
0
  6
CONTINUOUS
 62
     7
100
AcDbLine
 10
176.7108527545
 20
215.0456584836
 30
0.0
 11
176.7108527545
 21
213.0456581558
 31
0.0
  0
ARC
  5
391
330
1F
100
AcDbEntity
  8
0
  6
CONTINUOUS
 62
     7
100
AcDbCircle
 10
177.2108529445
 20
213.0456590379
 30
0.0
 40
0.5
100
AcDbArc
 50
180.0
 51
270.0
  0
LINE
  5
392
330
1F
100
AcDbEntity
  8
0
  6
CONTINUOUS
 62
     7
100
AcDbLine
 10
177.2108528364
 20
212.5456590051
 30
0.0
 11
184.2108530525
 21
212.5456590051
 31
0.0
  0
ARC
  5
393
330
1F
100
AcDbEntity
  8
0
  6
CONTINUOUS
 62
     7
100
AcDbCircle
 10
184.2108529445
 20
213.0456590379
 30
0.0
 40
0.5
100
AcDbArc
 50
270.0
 51
0.0
  0
LINE
  5
394
330
1F
100
AcDbEntity
  8
0
  6
CONTINUOUS
 62
     7
100
AcDbLine
 10
184.7108531345
 20
213.0456581558
 30
0.0
 11
184.7108531345
 21
215.0456584836
 31
0.0
  0
ARC
  5
395
330
1F
100
AcDbEntity
  8
0
  6
CONTINUOUS
 62
     7
100
AcDbCircle
 10
184.2108529445
 20
215.0456590379
 30
0.0
 40
0.5
100
AcDbArc
 50
0.0
 51
90.0
  0
LINE
  5
396
330
1F
100
AcDbEntity
  8
0
  6
CONTINUOUS
 62
     7
100
AcDbLine
 10
184.2108530525
 20
215.5456594969
 30
0.0
 11
177.2108528364
 21
215.5456594969
 31
0.0
  0
ARC
  5
397
330
1F
100
AcDbEntity
  8
0
  6
CONTINUOUS
 62
     7
100
AcDbCircle
 10
177.2108529445
 20
225.0456590379
 30
0.0
 40
0.5
100
AcDbArc
 50
90.0
 51
180.0
  0
LINE
  5
398
330
1F
100
AcDbEntity
  8
0
  6
CONTINUOUS
 62
     7
100
AcDbLine
 10
176.7108527545
 20
225.0456591914
 30
0.0
 11
176.7108527545
 21
223.0456588636
 31
0.0
  0
ARC
  5
399
330
1F
100
AcDbEntity
  8
0
  6
CONTINUOUS
 62
     7
100
AcDbCircle
 10
177.2108529445
 20
223.0456590379
 30
0.0
 40
0.5
100
AcDbArc
 50
180.0
 51
270.0
  0
LINE
  5
39A
330
1F
100
AcDbEntity
  8
0
  6
CONTINUOUS
 62
     7
100
AcDbLine
 10
177.2108528364
 20
222.5456587816
 30
0.0
 11
184.2108530525
 21
222.5456587816
 31
0.0
  0
ARC
  5
39B
330
1F
100
AcDbEntity
  8
0
  6
CONTINUOUS
 62
     7
100
AcDbCircle
 10
184.2108529445
 20
223.0456590379
 30
0.0
 40
0.5
100
AcDbArc
 50
270.0
 51
0.0
  0
LINE
  5
39C
330
1F
100
AcDbEntity
  8
0
  6
CONTINUOUS
 62
     7
100
AcDbLine
 10
184.7108531345
 20
223.0456588636
 30
0.0
 11
184.7108531345
 21
225.0456591914
 31
0.0
  0
ARC
  5
39D
330
1F
100
AcDbEntity
  8
0
  6
CONTINUOUS
 62
     7
100
AcDbCircle
 10
184.2108529445
 20
225.0456590379
 30
0.0
 40
0.5
100
AcDbArc
 50
0.0
 51
90.0
  0
LINE
  5
39E
330
1F
100
AcDbEntity
  8
0
  6
CONTINUOUS
 62
     7
100
AcDbLine
 10
184.2108530525
 20
225.5456592734
 30
0.0
 11
177.2108528364
 21
225.5456592734
 31
0.0
  0
LINE
  5
39F
330
1F
100
AcDbEntity
  8
0
  6
CONTINUOUS
 62
     7
100
AcDbLine
 10
184.2108530525
 20
105.5456563676
 30
0.0
 11
177.2108528364
 21
105.5456563676
 31
0.0
  0
LINE
  5
3A0
330
1F
100
AcDbEntity
  8
0
  6
CONTINUOUS
 62
     7
100
AcDbLine
 10
177.2108528364
 20
112.5456556524
 30
0.0
 11
184.2108530525
 21
112.5456556524
 31
0.0
  0
LINE
  5
3A1
330
1F
100
AcDbEntity
  8
0
  6
CONTINUOUS
 62
     7
100
AcDbLine
 10
184.2108530525
 20
115.5456617321
 30
0.0
 11
177.2108528364
 21
115.5456617321
 31
0.0
  0
LINE
  5
3A2
330
1F
100
AcDbEntity
  8
0
  6
CONTINUOUS
 62
     7
100
AcDbLine
 10
177.2108528364
 20
122.5456610168
 30
0.0
 11
184.2108530525
 21
122.5456610168
 31
0.0
  0
LINE
  5
3A3
330
1F
100
AcDbEntity
  8
0
  6
CONTINUOUS
 62
     7
100
AcDbLine
 10
184.2108530525
 20
135.5456575597
 30
0.0
 11
177.2108528364
 21
135.5456575597
 31
0.0
  0
LINE
  5
3A4
330
1F
100
AcDbEntity
  8
0
  6
CONTINUOUS
 62
     7
100
AcDbLine
 10
177.2108528364
 20
142.5456568445
 30
0.0
 11
184.2108530525
 21
142.5456568445
 31
0.0
  0
LINE
  5
3A5
330
1F
100
AcDbEntity
  8
0
  6
CONTINUOUS
 62
     7
100
AcDbLine
 10
177.2108528364
 20
182.8081250037
 30
0.0
 11
184.2108530525
 21
182.8081250037
 31
0.0
  0
LINE
  5
3A6
330
1F
100
AcDbEntity
  8
0
  6
CONTINUOUS
 62
     7
100
AcDbLine
 10
184.2108530525
 20
182.8081250037
 30
0.0
 11
184.2108530525
 21
182.5456596757
 31
0.0
  0
LINE
  5
3A7
330
1F
100
AcDbEntity
  8
0
  6
CONTINUOUS
 62
     7
100
AcDbLine
 10
177.2108528364
 20
182.8081250037
 30
0.0
 11
177.2108528364
 21
182.5456596757
 31
0.0
  0
LINE
  5
3A8
330
1F
100
AcDbEntity
  8
0
  6
CONTINUOUS
 62
     7
100
AcDbLine
 10
184.4483868752
 20
193.0456586028
 30
0.0
 11
184.4483868752
 21
195.0456589306
 31
0.0
  0
LINE
  5
3A9
330
1F
100
AcDbEntity
  8
0
  6
CONTINUOUS
 62
     7
100
AcDbLine
 10
184.4483868752
 20
195.0456589306
 30
0.0
 11
184.7108531345
 21
195.0456589306
 31
0.0
  0
LINE
  5
3AA
330
1F
100
AcDbEntity
  8
0
  6
CONTINUOUS
 62
     7
100
AcDbLine
 10
184.4483868752
 20
193.0456586028
 30
0.0
 11
184.7108531345
 21
193.0456586028
 31
0.0
  0
LINE
  5
3AB
330
1F
100
AcDbEntity
  8
0
  6
CONTINUOUS
 62
     7
100
AcDbLine
 10
184.2108530525
 20
105.2831873144
 30
0.0
 11
177.2108528364
 21
105.2831873144
 31
0.0
  0
ARC
  5
3AC
330
1F
100
AcDbEntity
  8
0
  6
CONTINUOUS
 62
     7
100
AcDbCircle
 10
177.2108529445
 20
185.0456590379
 30
0.0
 40
0.2375340094222054
100
AcDbArc
 50
90.0
 51
180.0
  0
LINE
  5
3AD
330
1F
100
AcDbEntity
  8
0
  6
CONTINUOUS
 62
     7
100
AcDbLine
 10
176.9733190138
 20
185.0456572915
 30
0.0
 11
176.7108527545
 21
185.0456572915
 31
0.0
  0
LINE
  5
3AE
330
1F
100
AcDbEntity
  8
0
  6
CONTINUOUS
 62
     7
100
AcDbLine
 10
177.2108528364
 20
185.2831929768
 30
0.0
 11
177.2108528364
 21
185.5456583048
 31
0.0
  0
LINE
  5
3AF
330
1F
100
AcDbEntity
  8
0
  6
CONTINUOUS
 62
     7
100
AcDbLine
 10
184.2108530525
 20
125.5456596459
 30
0.0
 11
177.2108528364
 21
125.5456596459
 31
0.0
  0
LINE
  5
3B0
330
1F
100
AcDbEntity
  8
0
  6
CONTINUOUS
 62
     7
100
AcDbLine
 10
177.2108528364
 20
132.5456589306
 30
0.0
 11
184.2108530525
 21
132.5456589306
 31
0.0
  0
LINE
  5
3B1
330
1F
100
AcDbEntity
  8
0
  6
CONTINUOUS
 62
     7
100
AcDbLine
 10
177.2108528364
 20
102.8081193412
 30
0.0
 11
184.2108530525
 21
102.8081193412
 31
0.0
  0
LINE
  5
3B2
330
1F
100
AcDbEntity
  8
0
  6
CONTINUOUS
 62
     7
100
AcDbLine
 10
177.2108528364
 20
102.5456651891
 30
0.0
 11
184.2108530525
 21
102.5456651891
 31
0.0
  0
LINE
  5
3B3
330
1F
100
AcDbEntity
  8
0
  6
CONTINUOUS
 62
     7
100
AcDbLine
 10
177.2108528364
 20
122.8081226195
 30
0.0
 11
184.2108530525
 21
122.8081226195
 31
0.0
  0
LINE
  5
3B4
330
1F
100
AcDbEntity
  8
0
  6
CONTINUOUS
 62
     7
100
AcDbLine
 10
176.9733190138
 20
185.0456572915
 30
0.0
 11
176.9733190138
 21
183.045660689
 31
0.0
  0
LINE
  5
3B5
330
1F
100
AcDbEntity
  8
0
  6
CONTINUOUS
 62
     7
100
AcDbLine
 10
176.9733190138
 20
183.045660689
 30
0.0
 11
176.7108527545
 21
183.045660689
 31
0.0
  0
LINE
  5
3B6
330
1F
100
AcDbEntity
  8
0
  6
CONTINUOUS
 62
     7
100
AcDbLine
 10
184.4483868752
 20
223.0456588636
 30
0.0
 11
184.4483868752
 21
225.0456591914
 31
0.0
  0
LINE
  5
3B7
330
1F
100
AcDbEntity
  8
0
  6
CONTINUOUS
 62
     7
100
AcDbLine
 10
184.4483868752
 20
225.0456591914
 30
0.0
 11
184.7108531345
 21
225.0456591914
 31
0.0
  0
LINE
  5
3B8
330
1F
100
AcDbEntity
  8
0
  6
CONTINUOUS
 62
     7
100
AcDbLine
 10
184.4483868752
 20
223.0456588636
 30
0.0
 11
184.7108531345
 21
223.0456588636
 31
0.0
  0
LINE
  5
3B9
330
1F
100
AcDbEntity
  8
0
  6
CONTINUOUS
 62
     7
100
AcDbLine
 10
177.2108528364
 20
172.8081270898
 30
0.0
 11
184.2108530525
 21
172.8081270898
 31
0.0
  0
LINE
  5
3BA
330
1F
100
AcDbEntity
  8
0
  6
CONTINUOUS
 62
     7
100
AcDbLine
 10
184.2108530525
 20
172.8081270898
 30
0.0
 11
184.2108530525
 21
172.5456580366
 31
0.0
  0
LINE
  5
3BB
330
1F
100
AcDbEntity
  8
0
  6
CONTINUOUS
 62
     7
100
AcDbLine
 10
177.2108528364
 20
172.8081270898
 30
0.0
 11
177.2108528364
 21
172.5456580366
 31
0.0
  0
LINE
  5
3BC
330
1F
100
AcDbEntity
  8
0
  6
CONTINUOUS
 62
     7
100
AcDbLine
 10
177.2108528364
 20
92.808128878
 30
0.0
 11
184.2108530525
 21
92.808128878
 31
0.0
  0
LINE
  5
3BD
330
1F
100
AcDbEntity
  8
0
  6
CONTINUOUS
 62
     7
100
AcDbLine
 10
177.2108528364
 20
92.5456598247
 30
0.0
 11
184.2108530525
 21
92.5456598247
 31
0.0
  0
LINE
  5
3BE
330
1F
100
AcDbEntity
  8
0
  6
CONTINUOUS
 62
     7
100
AcDbLine
 10
184.2108530525
 20
95.2831968511
 30
0.0
 11
177.2108528364
 21
95.2831968511
 31
0.0
  0
LINE
  5
3BF
330
1F
100
AcDbEntity
  8
0
  6
CONTINUOUS
 62
     7
100
AcDbLine
 10
184.2108530525
 20
95.5456659044
 30
0.0
 11
177.2108528364
 21
95.5456659044
 31
0.0
  0
LINE
  5
3C0
330
1F
100
AcDbEntity
  8
0
  6
CONTINUOUS
 62
     7
100
AcDbLine
 10
184.4483868752
 20
183.045660689
 30
0.0
 11
184.4483868752
 21
185.0456572915
 31
0.0
  0
LINE
  5
3C1
330
1F
100
AcDbEntity
  8
0
  6
CONTINUOUS
 62
     7
100
AcDbLine
 10
184.4483868752
 20
185.0456572915
 30
0.0
 11
184.7108531345
 21
185.0456572915
 31
0.0
  0
LINE
  5
3C2
330
1F
100
AcDbEntity
  8
0
  6
CONTINUOUS
 62
     7
100
AcDbLine
 10
184.4483868752
 20
183.045660689
 30
0.0
 11
184.7108531345
 21
183.045660689
 31
0.0
  0
LINE
  5
3C3
330
1F
100
AcDbEntity
  8
0
  6
CONTINUOUS
 62
     7
100
AcDbLine
 10
184.4483868752
 20
203.0456602419
 30
0.0
 11
184.4483868752
 21
205.0456605698
 31
0.0
  0
LINE
  5
3C4
330
1F
100
AcDbEntity
  8
0
  6
CONTINUOUS
 62
     7
100
AcDbLine
 10
184.4483868752
 20
205.0456605698
 30
0.0
 11
184.7108531345
 21
205.0456605698
 31
0.0
  0
LINE
  5
3C5
330
1F
100
AcDbEntity
  8
0
  6
CONTINUOUS
 62
     7
100
AcDbLine
 10
184.4483868752
 20
203.0456602419
 30
0.0
 11
184.7108531345
 21
203.0456602419
 31
0.0
  0
LINE
  5
3C6
330
1F
100
AcDbEntity
  8
0
  6
CONTINUOUS
 62
     7
100
AcDbLine
 10
176.9733190138
 20
205.0456605698
 30
0.0
 11
176.9733190138
 21
203.0456602419
 31
0.0
  0
LINE
  5
3C7
330
1F
100
AcDbEntity
  8
0
  6
CONTINUOUS
 62
     7
100
AcDbLine
 10
176.9733190138
 20
203.0456602419
 30
0.0
 11
176.7108527545
 21
203.0456602419
 31
0.0
  0
LINE
  5
3C8
330
1F
100
AcDbEntity
  8
0
  6
CONTINUOUS
 62
     7
100
AcDbLine
 10
176.9733190138
 20
205.0456605698
 30
0.0
 11
176.7108527545
 21
205.0456605698
 31
0.0
  0
LINE
  5
3C9
330
1F
100
AcDbEntity
  8
0
  6
CONTINUOUS
 62
     7
100
AcDbLine
 10
184.2108530525
 20
125.2831905926
 30
0.0
 11
177.2108528364
 21
125.2831905926
 31
0.0
  0
LINE
  5
3CA
330
1F
100
AcDbEntity
  8
0
  6
CONTINUOUS
 62
     7
100
AcDbLine
 10
184.2108530525
 20
205.2831925298
 30
0.0
 11
177.2108528364
 21
205.2831925298
 31
0.0
  0
LINE
  5
3CB
330
1F
100
AcDbEntity
  8
0
  6
CONTINUOUS
 62
     7
100
AcDbLine
 10
177.2108528364
 20
205.2831925298
 30
0.0
 11
177.2108528364
 21
205.5456578577
 31
0.0
  0
LINE
  5
3CC
330
1F
100
AcDbEntity
  8
0
  6
CONTINUOUS
 62
     7
100
AcDbLine
 10
184.2108530525
 20
205.2831925298
 30
0.0
 11
184.2108530525
 21
205.5456578577
 31
0.0
  0
LINE
  5
3CD
330
1F
100
AcDbEntity
  8
0
  6
CONTINUOUS
 62
     7
100
AcDbLine
 10
177.2108528364
 20
212.8081243331
 30
0.0
 11
184.2108530525
 21
212.8081243331
 31
0.0
  0
LINE
  5
3CE
330
1F
100
AcDbEntity
  8
0
  6
CONTINUOUS
 62
     7
100
AcDbLine
 10
184.2108530525
 20
212.8081243331
 30
0.0
 11
184.2108530525
 21
212.5456590051
 31
0.0
  0
LINE
  5
3CF
330
1F
100
AcDbEntity
  8
0
  6
CONTINUOUS
 62
     7
100
AcDbLine
 10
177.2108528364
 20
212.8081243331
 30
0.0
 11
177.2108528364
 21
212.5456590051
 31
0.0
  0
LINE
  5
3D0
330
1F
100
AcDbEntity
  8
0
  6
CONTINUOUS
 62
     7
100
AcDbLine
 10
176.9733190138
 20
195.0456589306
 30
0.0
 11
176.9733190138
 21
193.0456586028
 31
0.0
  0
LINE
  5
3D1
330
1F
100
AcDbEntity
  8
0
  6
CONTINUOUS
 62
     7
100
AcDbLine
 10
176.9733190138
 20
193.0456586028
 30
0.0
 11
176.7108527545
 21
193.0456586028
 31
0.0
  0
LINE
  5
3D2
330
1F
100
AcDbEntity
  8
0
  6
CONTINUOUS
 62
     7
100
AcDbLine
 10
176.9733190138
 20
195.0456589306
 30
0.0
 11
176.7108527545
 21
195.0456589306
 31
0.0
  0
LINE
  5
3D3
330
1F
100
AcDbEntity
  8
0
  6
CONTINUOUS
 62
     7
100
AcDbLine
 10
176.9733190138
 20
215.0456584836
 30
0.0
 11
176.9733190138
 21
213.0456581558
 31
0.0
  0
LINE
  5
3D4
330
1F
100
AcDbEntity
  8
0
  6
CONTINUOUS
 62
     7
100
AcDbLine
 10
176.9733190138
 20
213.0456581558
 30
0.0
 11
176.7108527545
 21
213.0456581558
 31
0.0
  0
LINE
  5
3D5
330
1F
100
AcDbEntity
  8
0
  6
CONTINUOUS
 62
     7
100
AcDbLine
 10
176.9733190138
 20
215.0456584836
 30
0.0
 11
176.7108527545
 21
215.0456584836
 31
0.0
  0
ARC
  5
3D6
330
1F
100
AcDbEntity
  8
0
  6
CONTINUOUS
 62
     7
100
AcDbCircle
 10
184.2108529445
 20
173.0456590379
 30
0.0
 40
0.2375340094222054
100
AcDbArc
 50
270.0
 51
0.0
  0
LINE
  5
3D7
330
1F
100
AcDbEntity
  8
0
  6
CONTINUOUS
 62
     7
100
AcDbLine
 10
184.4483868752
 20
173.0456590498
 30
0.0
 11
184.7108531345
 21
173.0456590498
 31
0.0
  0
LINE
  5
3D8
330
1F
100
AcDbEntity
  8
0
  6
CONTINUOUS
 62
     7
100
AcDbLine
 10
177.2108528364
 20
202.8081245566
 30
0.0
 11
184.2108530525
 21
202.8081245566
 31
0.0
  0
LINE
  5
3D9
330
1F
100
AcDbEntity
  8
0
  6
CONTINUOUS
 62
     7
100
AcDbLine
 10
184.2108530525
 20
202.8081245566
 30
0.0
 11
184.2108530525
 21
202.5456592287
 31
0.0
  0
LINE
  5
3DA
330
1F
100
AcDbEntity
  8
0
  6
CONTINUOUS
 62
     7
100
AcDbLine
 10
177.2108528364
 20
202.8081245566
 30
0.0
 11
177.2108528364
 21
202.5456592287
 31
0.0
  0
ARC
  5
3DB
330
1F
100
AcDbEntity
  8
0
  6
CONTINUOUS
 62
     7
100
AcDbCircle
 10
184.2108529445
 20
183.0456590379
 30
0.0
 40
0.2375340094222622
100
AcDbArc
 50
270.0
 51
0.0
  0
LINE
  5
3DC
330
1F
100
AcDbEntity
  8
0
  6
CONTINUOUS
 62
     7
100
AcDbLine
 10
184.4483868752
 20
163.045661136
 30
0.0
 11
184.4483868752
 21
165.0456577385
 31
0.0
  0
LINE
  5
3DD
330
1F
100
AcDbEntity
  8
0
  6
CONTINUOUS
 62
     7
100
AcDbLine
 10
184.4483868752
 20
165.0456577385
 30
0.0
 11
184.7108531345
 21
165.0456577385
 31
0.0
  0
LINE
  5
3DE
330
1F
100
AcDbEntity
  8
0
  6
CONTINUOUS
 62
     7
100
AcDbLine
 10
184.4483868752
 20
163.045661136
 30
0.0
 11
184.7108531345
 21
163.045661136
 31
0.0
  0
LINE
  5
3DF
330
1F
100
AcDbEntity
  8
0
  6
CONTINUOUS
 62
     7
100
AcDbLine
 10
184.4483868752
 20
213.0456581558
 30
0.0
 11
184.4483868752
 21
215.0456584836
 31
0.0
  0
LINE
  5
3E0
330
1F
100
AcDbEntity
  8
0
  6
CONTINUOUS
 62
     7
100
AcDbLine
 10
184.4483868752
 20
215.0456584836
 30
0.0
 11
184.7108531345
 21
215.0456584836
 31
0.0
  0
LINE
  5
3E1
330
1F
100
AcDbEntity
  8
0
  6
CONTINUOUS
 62
     7
100
AcDbLine
 10
184.4483868752
 20
213.0456581558
 30
0.0
 11
184.7108531345
 21
213.0456581558
 31
0.0
  0
ARC
  5
3E2
330
1F
100
AcDbEntity
  8
0
  6
CONTINUOUS
 62
     7
100
AcDbCircle
 10
177.2108529445
 20
163.0456590379
 30
0.0
 40
0.2375340094222338
100
AcDbArc
 50
180.0
 51
270.0
  0
LINE
  5
3E3
330
1F
100
AcDbEntity
  8
0
  6
CONTINUOUS
 62
     7
100
AcDbLine
 10
177.2108528364
 20
162.8081217254
 30
0.0
 11
177.2108528364
 21
162.5456601227
 31
0.0
  0
LINE
  5
3E4
330
1F
100
AcDbEntity
  8
0
  6
CONTINUOUS
 62
     7
100
AcDbLine
 10
176.9733190138
 20
163.045661136
 30
0.0
 11
176.7108527545
 21
163.045661136
 31
0.0
  0
ARC
  5
3E5
330
1F
100
AcDbEntity
  8
0
  6
CONTINUOUS
 62
     7
100
AcDbCircle
 10
177.2108529445
 20
215.0456590379
 30
0.0
 40
0.2375340094222054
100
AcDbArc
 50
90.0
 51
180.0
  0
LINE
  5
3E6
330
1F
100
AcDbEntity
  8
0
  6
CONTINUOUS
 62
     7
100
AcDbLine
 10
177.2108528364
 20
215.2831923063
 30
0.0
 11
177.2108528364
 21
215.5456594969
 31
0.0
  0
LINE
  5
3E7
330
1F
100
AcDbEntity
  8
0
  6
CONTINUOUS
 62
     7
100
AcDbLine
 10
184.2108530525
 20
215.2831923063
 30
0.0
 11
177.2108528364
 21
215.2831923063
 31
0.0
  0
LINE
  5
3E8
330
1F
100
AcDbEntity
  8
0
  6
CONTINUOUS
 62
     7
100
AcDbLine
 10
184.2108530525
 20
215.2831923063
 30
0.0
 11
184.2108530525
 21
215.5456594969
 31
0.0
  0
LINE
  5
3E9
330
1F
100
AcDbEntity
  8
0
  6
CONTINUOUS
 62
     7
100
AcDbLine
 10
184.2108530525
 20
165.2831896986
 30
0.0
 11
177.2108528364
 21
165.2831896986
 31
0.0
  0
LINE
  5
3EA
330
1F
100
AcDbEntity
  8
0
  6
CONTINUOUS
 62
     7
100
AcDbLine
 10
177.2108528364
 20
165.2831896986
 30
0.0
 11
177.2108528364
 21
165.5456587518
 31
0.0
  0
LINE
  5
3EB
330
1F
100
AcDbEntity
  8
0
  6
CONTINUOUS
 62
     7
100
AcDbLine
 10
184.2108530525
 20
165.2831896986
 30
0.0
 11
184.2108530525
 21
165.5456587518
 31
0.0
  0
LINE
  5
3EC
330
1F
100
AcDbEntity
  8
0
  6
CONTINUOUS
 62
     7
100
AcDbLine
 10
176.9733190138
 20
225.0456591914
 30
0.0
 11
176.9733190138
 21
223.0456588636
 31
0.0
  0
LINE
  5
3ED
330
1F
100
AcDbEntity
  8
0
  6
CONTINUOUS
 62
     7
100
AcDbLine
 10
176.9733190138
 20
223.0456588636
 30
0.0
 11
176.7108527545
 21
223.0456588636
 31
0.0
  0
LINE
  5
3EE
330
1F
100
AcDbEntity
  8
0
  6
CONTINUOUS
 62
     7
100
AcDbLine
 10
176.9733190138
 20
225.0456591914
 30
0.0
 11
176.7108527545
 21
225.0456591914
 31
0.0
  0
LINE
  5
3EF
330
1F
100
AcDbEntity
  8
0
  6
CONTINUOUS
 62
     7
100
AcDbLine
 10
184.4483868752
 20
173.0456590498
 30
0.0
 11
184.4483868752
 21
175.0456556524
 31
0.0
  0
LINE
  5
3F0
330
1F
100
AcDbEntity
  8
0
  6
CONTINUOUS
 62
     7
100
AcDbLine
 10
184.4483868752
 20
175.0456556524
 30
0.0
 11
184.7108531345
 21
175.0456556524
 31
0.0
  0
LINE
  5
3F1
330
1F
100
AcDbEntity
  8
0
  6
CONTINUOUS
 62
     7
100
AcDbLine
 10
177.2108528364
 20
112.8081247056
 30
0.0
 11
184.2108530525
 21
112.8081247056
 31
0.0
  0
LINE
  5
3F2
330
1F
100
AcDbEntity
  8
0
  6
CONTINUOUS
 62
     7
100
AcDbLine
 10
177.2108528364
 20
142.8081258977
 30
0.0
 11
184.2108530525
 21
142.8081258977
 31
0.0
  0
LINE
  5
3F3
330
1F
100
AcDbEntity
  8
0
  6
CONTINUOUS
 62
     7
100
AcDbLine
 10
176.9733190138
 20
175.0456556524
 30
0.0
 11
176.9733190138
 21
173.0456590498
 31
0.0
  0
LINE
  5
3F4
330
1F
100
AcDbEntity
  8
0
  6
CONTINUOUS
 62
     7
100
AcDbLine
 10
176.9733190138
 20
173.0456590498
 30
0.0
 11
176.7108527545
 21
173.0456590498
 31
0.0
  0
LINE
  5
3F5
330
1F
100
AcDbEntity
  8
0
  6
CONTINUOUS
 62
     7
100
AcDbLine
 10
176.9733190138
 20
175.0456556524
 30
0.0
 11
176.7108527545
 21
175.0456556524
 31
0.0
  0
LINE
  5
3F6
330
1F
100
AcDbEntity
  8
0
  6
CONTINUOUS
 62
     7
100
AcDbLine
 10
184.2108530525
 20
145.5456554736
 30
0.0
 11
177.2108528364
 21
145.5456554736
 31
0.0
  0
LINE
  5
3F7
330
1F
100
AcDbEntity
  8
0
  6
CONTINUOUS
 62
     7
100
AcDbLine
 10
177.2108528364
 20
152.5456622089
 30
0.0
 11
184.2108530525
 21
152.5456622089
 31
0.0
  0
LINE
  5
3F8
330
1F
100
AcDbEntity
  8
0
  6
CONTINUOUS
 62
     7
100
AcDbLine
 10
184.2108530525
 20
175.2831913377
 30
0.0
 11
177.2108528364
 21
175.2831913377
 31
0.0
  0
LINE
  5
3F9
330
1F
100
AcDbEntity
  8
0
  6
CONTINUOUS
 62
     7
100
AcDbLine
 10
177.2108528364
 20
175.2831913377
 30
0.0
 11
177.2108528364
 21
175.5456603909
 31
0.0
  0
LINE
  5
3FA
330
1F
100
AcDbEntity
  8
0
  6
CONTINUOUS
 62
     7
100
AcDbLine
 10
184.2108530525
 20
175.2831913377
 30
0.0
 11
184.2108530525
 21
175.5456603909
 31
0.0
  0
ARC
  5
3FB
330
1F
100
AcDbEntity
  8
0
  6
CONTINUOUS
 62
     7
100
AcDbCircle
 10
184.2108529445
 20
215.0456590379
 30
0.0
 40
0.2375340094222054
100
AcDbArc
 50
0.0
 51
90.0
  0
LINE
  5
3FC
330
1F
100
AcDbEntity
  8
0
  6
CONTINUOUS
 62
     7
100
AcDbLine
 10
184.4483868752
 20
153.0456557716
 30
0.0
 11
184.4483868752
 21
155.0456598247
 31
0.0
  0
LINE
  5
3FD
330
1F
100
AcDbEntity
  8
0
  6
CONTINUOUS
 62
     7
100
AcDbLine
 10
184.4483868752
 20
155.0456598247
 30
0.0
 11
184.7108531345
 21
155.0456598247
 31
0.0
  0
ARC
  5
3FE
330
1F
100
AcDbEntity
  8
0
  6
CONTINUOUS
 62
     7
100
AcDbCircle
 10
184.2108529445
 20
213.0456590379
 30
0.0
 40
0.2375340094222338
100
AcDbArc
 50
270.0
 51
0.0
  0
LINE
  5
3FF
330
1F
100
AcDbEntity
  8
0
  6
CONTINUOUS
 62
     7
100
AcDbLine
 10
177.2108528364
 20
152.8081238116
 30
0.0
 11
184.2108530525
 21
152.8081238116
 31
0.0
  0
ARC
  5
400
330
1F
100
AcDbEntity
  8
0
  6
CONTINUOUS
 62
     7
100
AcDbCircle
 10
177.2108529445
 20
183.0456590379
 30
0.0
 40
0.2375340094222622
100
AcDbArc
 50
180.0
 51
270.0
  0
LINE
  5
401
330
1F
100
AcDbEntity
  8
0
  6
CONTINUOUS
 62
     7
100
AcDbLine
 10
177.2108528364
 20
192.8081266428
 30
0.0
 11
184.2108530525
 21
192.8081266428
 31
0.0
  0
LINE
  5
402
330
1F
100
AcDbEntity
  8
0
  6
CONTINUOUS
 62
     7
100
AcDbLine
 10
184.2108530525
 20
192.8081266428
 30
0.0
 11
184.2108530525
 21
192.5456575895
 31
0.0
  0
LINE
  5
403
330
1F
100
AcDbEntity
  8
0
  6
CONTINUOUS
 62
     7
100
AcDbLine
 10
177.2108528364
 20
192.8081266428
 30
0.0
 11
177.2108528364
 21
192.5456575895
 31
0.0
  0
LINE
  5
404
330
1F
100
AcDbEntity
  8
0
  6
CONTINUOUS
 62
     7
100
AcDbLine
 10
184.2108530525
 20
185.2831929768
 30
0.0
 11
177.2108528364
 21
185.2831929768
 31
0.0
  0
LINE
  5
405
330
1F
100
AcDbEntity
  8
0
  6
CONTINUOUS
 62
     7
100
AcDbLine
 10
184.2108530525
 20
185.2831929768
 30
0.0
 11
184.2108530525
 21
185.5456583048
 31
0.0
  0
ARC
  5
406
330
1F
100
AcDbEntity
  8
0
  6
CONTINUOUS
 62
     7
100
AcDbCircle
 10
184.2108529445
 20
195.0456590379
 30
0.0
 40
0.2375340094222338
100
AcDbArc
 50
0.0
 51
90.0
  0
LINE
  5
407
330
1F
100
AcDbEntity
  8
0
  6
CONTINUOUS
 62
     7
100
AcDbLine
 10
184.2108530525
 20
195.2831946159
 30
0.0
 11
184.2108530525
 21
195.5456599439
 31
0.0
  0
LINE
  5
408
330
1F
100
AcDbEntity
  8
0
  6
CONTINUOUS
 62
     7
100
AcDbLine
 10
184.2108530525
 20
195.2831946159
 30
0.0
 11
177.2108528364
 21
195.2831946159
 31
0.0
  0
LINE
  5
409
330
1F
100
AcDbEntity
  8
0
  6
CONTINUOUS
 62
     7
100
AcDbLine
 10
177.2108528364
 20
195.2831946159
 30
0.0
 11
177.2108528364
 21
195.5456599439
 31
0.0
  0
ARC
  5
40A
330
1F
100
AcDbEntity
  8
0
  6
CONTINUOUS
 62
     7
100
AcDbCircle
 10
184.2108529445
 20
193.0456590379
 30
0.0
 40
0.2375340094222338
100
AcDbArc
 50
270.0
 51
0.0
  0
LINE
  5
40B
330
1F
100
AcDbEntity
  8
0
  6
CONTINUOUS
 62
     7
100
AcDbLine
 10
184.2108530525
 20
145.2831938709
 30
0.0
 11
177.2108528364
 21
145.2831938709
 31
0.0
  0
ARC
  5
40C
330
1F
100
AcDbEntity
  8
0
  6
CONTINUOUS
 62
     7
100
AcDbCircle
 10
184.2108529445
 20
185.0456590379
 30
0.0
 40
0.2375340094222054
100
AcDbArc
 50
0.0
 51
90.0
  0
LINE
  5
40D
330
1F
100
AcDbEntity
  8
0
  6
CONTINUOUS
 62
     7
100
AcDbLine
 10
176.9733190138
 20
165.0456577385
 30
0.0
 11
176.9733190138
 21
163.045661136
 31
0.0
  0
LINE
  5
40E
330
1F
100
AcDbEntity
  8
0
  6
CONTINUOUS
 62
     7
100
AcDbLine
 10
176.9733190138
 20
165.0456577385
 30
0.0
 11
176.7108527545
 21
165.0456577385
 31
0.0
  0
LINE
  5
40F
330
1F
100
AcDbEntity
  8
0
  6
CONTINUOUS
 62
     7
100
AcDbLine
 10
184.2108530525
 20
225.2831930141
 30
0.0
 11
177.2108528364
 21
225.2831930141
 31
0.0
  0
LINE
  5
410
330
1F
100
AcDbEntity
  8
0
  6
CONTINUOUS
 62
     7
100
AcDbLine
 10
177.2108528364
 20
225.2831930141
 30
0.0
 11
177.2108528364
 21
225.5456592734
 31
0.0
  0
LINE
  5
411
330
1F
100
AcDbEntity
  8
0
  6
CONTINUOUS
 62
     7
100
AcDbLine
 10
184.2108530525
 20
225.2831930141
 30
0.0
 11
184.2108530525
 21
225.5456592734
 31
0.0
  0
ARC
  5
412
330
1F
100
AcDbEntity
  8
0
  6
CONTINUOUS
 62
     7
100
AcDbCircle
 10
184.2108529445
 20
205.0456590379
 30
0.0
 40
0.2375340094222338
100
AcDbArc
 50
0.0
 51
90.0
  0
LINE
  5
413
330
1F
100
AcDbEntity
  8
0
  6
CONTINUOUS
 62
     7
100
AcDbLine
 10
177.2108528364
 20
222.8081250409
 30
0.0
 11
184.2108530525
 21
222.8081250409
 31
0.0
  0
LINE
  5
414
330
1F
100
AcDbEntity
  8
0
  6
CONTINUOUS
 62
     7
100
AcDbLine
 10
184.2108530525
 20
222.8081250409
 30
0.0
 11
184.2108530525
 21
222.5456587816
 31
0.0
  0
LINE
  5
415
330
1F
100
AcDbEntity
  8
0
  6
CONTINUOUS
 62
     7
100
AcDbLine
 10
177.2108528364
 20
222.8081250409
 30
0.0
 11
177.2108528364
 21
222.5456587816
 31
0.0
  0
ARC
  5
416
330
1F
100
AcDbEntity
  8
0
  6
CONTINUOUS
 62
     7
100
AcDbCircle
 10
184.2108529445
 20
203.0456590379
 30
0.0
 40
0.2375340094222054
100
AcDbArc
 50
270.0
 51
0.0
  0
LINE
  5
417
330
1F
100
AcDbEntity
  8
0
  6
CONTINUOUS
 62
     7
100
AcDbLine
 10
184.2108530525
 20
155.2831917847
 30
0.0
 11
177.2108528364
 21
155.2831917847
 31
0.0
  0
LINE
  5
418
330
1F
100
AcDbEntity
  8
0
  6
CONTINUOUS
 62
     7
100
AcDbLine
 10
177.2108528364
 20
155.2831917847
 30
0.0
 11
177.2108528364
 21
155.545660838
 31
0.0
  0
LINE
  5
419
330
1F
100
AcDbEntity
  8
0
  6
CONTINUOUS
 62
     7
100
AcDbLine
 10
184.2108530525
 20
155.2831917847
 30
0.0
 11
184.2108530525
 21
155.545660838
 31
0.0
  0
ARC
  5
41A
330
1F
100
AcDbEntity
  8
0
  6
CONTINUOUS
 62
     7
100
AcDbCircle
 10
177.2108529445
 20
203.0456590379
 30
0.0
 40
0.2375340094222054
100
AcDbArc
 50
180.0
 51
270.0
  0
LINE
  5
41B
330
1F
100
AcDbEntity
  8
0
  6
CONTINUOUS
 62
     7
100
AcDbLine
 10
184.2108530525
 20
135.283195957
 30
0.0
 11
177.2108528364
 21
135.283195957
 31
0.0
  0
ARC
  5
41C
330
1F
100
AcDbEntity
  8
0
  6
CONTINUOUS
 62
     7
100
AcDbCircle
 10
177.2108529445
 20
205.0456590379
 30
0.0
 40
0.2375340094222622
100
AcDbArc
 50
90.0
 51
180.0
  0
LINE
  5
41D
330
1F
100
AcDbEntity
  8
0
  6
CONTINUOUS
 62
     7
100
AcDbLine
 10
184.2108530525
 20
115.2831926788
 30
0.0
 11
177.2108528364
 21
115.2831926788
 31
0.0
  0
ARC
  5
41E
330
1F
100
AcDbEntity
  8
0
  6
CONTINUOUS
 62
     7
100
AcDbCircle
 10
184.2108529445
 20
155.0456590379
 30
0.0
 40
0.2375340094222054
100
AcDbArc
 50
0.0
 51
90.0
  0
ARC
  5
41F
330
1F
100
AcDbEntity
  8
0
  6
CONTINUOUS
 62
     7
100
AcDbCircle
 10
152.5274368474
 20
236.2326568276
 30
0.0
 40
30.30887185705546
100
AcDbArc
 50
0.0245793065
 51
2.7541707625
  0
LINE
  5
420
330
1F
100
AcDbEntity
  8
0
  6
CONTINUOUS
 62
     7
100
AcDbLine
 10
183.7505412821
 20
236.1263294783
 30
0.0
 11
183.2218399338
 21
236.161375496
 31
0.0
  0
LINE
  5
421
330
1F
100
AcDbEntity
  8
0
  6
CONTINUOUS
 62
     7
100
AcDbLine
 10
183.2218399338
 20
236.161375496
 30
0.0
 11
183.2218399338
 21
236.2456590249
 31
0.0
  0
LINE
  5
422
330
1F
100
AcDbEntity
  8
0
  6
CONTINUOUS
 62
     7
100
AcDbLine
 10
182.8363059155
 20
236.2456590249
 30
0.0
 11
183.2218399338
 21
236.2456590249
 31
0.0
  0
ARC
  5
423
330
1F
100
AcDbEntity
  8
0
  6
CONTINUOUS
 62
     7
100
AcDbCircle
 10
177.2108529445
 20
225.0456590379
 30
0.0
 40
0.2375340094222338
100
AcDbArc
 50
90.0
 51
180.0
  0
ARC
  5
424
330
1F
100
AcDbEntity
  8
0
  6
CONTINUOUS
 62
     7
100
AcDbCircle
 10
177.2108529445
 20
213.0456590379
 30
0.0
 40
0.2375340094222338
100
AcDbArc
 50
180.0
 51
270.0
  0
LINE
  5
425
330
1F
100
AcDbEntity
  8
0
  6
CONTINUOUS
 62
     7
100
AcDbLine
 10
177.2108528364
 20
132.8081279839
 30
0.0
 11
184.2108530525
 21
132.8081279839
 31
0.0
  0
ARC
  5
426
330
1F
100
AcDbEntity
  8
0
  6
CONTINUOUS
 62
     7
100
AcDbCircle
 10
177.2108529445
 20
155.0456590379
 30
0.0
 40
0.2375340094222054
100
AcDbArc
 50
90.0
 51
180.0
  0
LINE
  5
427
330
1F
100
AcDbEntity
  8
0
  6
CONTINUOUS
 62
     7
100
AcDbLine
 10
176.9733190138
 20
155.0456598247
 30
0.0
 11
176.7108536858
 21
155.0456598247
 31
0.0
  0
ARC
  5
428
330
1F
100
AcDbEntity
  8
0
  6
CONTINUOUS
 62
     7
100
AcDbCircle
 10
184.2108529445
 20
223.0456590379
 30
0.0
 40
0.2375340094222622
100
AcDbArc
 50
270.0
 51
0.0
  0
ARC
  5
429
330
1F
100
AcDbEntity
  8
0
  6
CONTINUOUS
 62
     7
100
AcDbCircle
 10
184.2108529445
 20
225.0456590379
 30
0.0
 40
0.2375340094222338
100
AcDbArc
 50
0.0
 51
90.0
  0
ARC
  5
42A
330
1F
100
AcDbEntity
  8
0
  6
CONTINUOUS
 62
     7
100
AcDbCircle
 10
177.2108529445
 20
223.0456590379
 30
0.0
 40
0.2375340094222622
100
AcDbArc
 50
180.0
 51
270.0
  0
ARC
  5
42B
330
1F
100
AcDbEntity
  8
0
  6
CONTINUOUS
 62
     7
100
AcDbCircle
 10
184.2108529445
 20
175.0456590379
 30
0.0
 40
0.2375340094222622
100
AcDbArc
 50
0.0
 51
90.0
  0
LINE
  5
42C
330
1F
100
AcDbEntity
  8
0
  6
CONTINUOUS
 62
     7
100
AcDbLine
 10
177.2108528364
 20
162.8081217254
 30
0.0
 11
184.2108530525
 21
162.8081217254
 31
0.0
  0
LINE
  5
42D
330
1F
100
AcDbEntity
  8
0
  6
CONTINUOUS
 62
     7
100
AcDbLine
 10
184.2108530525
 20
162.8081217254
 30
0.0
 11
184.2108530525
 21
162.5456601227
 31
0.0
  0
LINE
  5
42E
330
1F
100
AcDbEntity
  8
0
  6
CONTINUOUS
 62
     7
100
AcDbLine
 10
178.1998659551
 20
236.161375496
 30
0.0
 11
177.6711646069
 21
236.1263294783
 31
0.0
  0
ELLIPSE
  5
42F
330
1F
100
AcDbEntity
  8
0
  6
CONTINUOUS
 62
     7
100
AcDbEllipse
 10
180.7108529445
 20
236.1874175158
 30
0.0
 11
3.900000000000006
 21
0.0
 31
0.0
210
0.0
220
0.0
230
1.0
 40
0.0087268678
 41
4.012878986221555
 42
5.411898974549178
  0
ARC
  5
430
330
1F
100
AcDbEntity
  8
0
  6
CONTINUOUS
 62
     7
100
AcDbCircle
 10
177.2108529445
 20
175.0456590379
 30
0.0
 40
0.2375340094222338
100
AcDbArc
 50
90.0
 51
180.0
  0
ARC
  5
431
330
1F
100
AcDbEntity
  8
0
  6
CONTINUOUS
 62
     7
100
AcDbCircle
 10
177.2108529445
 20
195.0456590379
 30
0.0
 40
0.2375340094222338
100
AcDbArc
 50
90.0
 51
180.0
  0
ARC
  5
432
330
1F
100
AcDbEntity
  8
0
  6
CONTINUOUS
 62
     7
100
AcDbCircle
 10
177.2108529445
 20
193.0456590379
 30
0.0
 40
0.2375340094222338
100
AcDbArc
 50
180.0
 51
270.0
  0
ARC
  5
433
330
1F
100
AcDbEntity
  8
0
  6
CONTINUOUS
 62
     7
100
AcDbCircle
 10
184.2108529445
 20
163.0456590379
 30
0.0
 40
0.2375340094222338
100
AcDbArc
 50
270.0
 51
0.0
  0
ARC
  5
434
330
1F
100
AcDbEntity
  8
0
  6
CONTINUOUS
 62
     7
100
AcDbCircle
 10
177.2108529445
 20
173.0456590379
 30
0.0
 40
0.2375340094222054
100
AcDbArc
 50
180.0
 51
270.0
  0
ARC
  5
435
330
1F
100
AcDbEntity
  8
0
  6
CONTINUOUS
 62
     7
100
AcDbCircle
 10
177.2108529445
 20
165.0456590379
 30
0.0
 40
0.2375340094222338
100
AcDbArc
 50
90.0
 51
180.0
  0
ARC
  5
436
330
1F
100
AcDbEntity
  8
0
  6
CONTINUOUS
 62
     7
100
AcDbCircle
 10
212.6398047755
 20
236.1418128922
 30
0.0
 40
34.05456313693482
100
AcDbArc
 50
177.3959682006
 51
179.8252817304
  0
LINE
  5
437
330
1F
100
AcDbEntity
  8
0
  6
CONTINUOUS
 62
     7
100
AcDbLine
 10
178.1998659551
 20
236.2456590249
 30
0.0
 11
178.5853999734
 21
236.2456590249
 31
0.0
  0
LINE
  5
438
330
1F
100
AcDbEntity
  8
0
  6
CONTINUOUS
 62
     7
100
AcDbLine
 10
178.1998659551
 20
236.2456590249
 30
0.0
 11
178.1998659551
 21
236.161375496
 31
0.0
  0
ARC
  5
439
330
1F
100
AcDbEntity
  8
0
  6
CONTINUOUS
 62
     7
100
AcDbCircle
 10
184.2108529445
 20
165.0456590379
 30
0.0
 40
0.2375340094222338
100
AcDbArc
 50
0.0
 51
90.0
  0
LINE
  5
43A
330
1F
100
AcDbEntity
  8
0
  6
CONTINUOUS
 62
     7
100
AcDbLine
 10
176.9733190138
 20
155.0456598247
 30
0.0
 11
176.9733190138
 21
153.0456557716
 31
0.0
  0
LINE
  5
43B
330
1F
100
AcDbEntity
  8
0
  6
CONTINUOUS
 62
     7
100
AcDbLine
 10
176.9733190138
 20
145.0456619109
 30
0.0
 11
176.9733190138
 21
143.0456578577
 31
0.0
  0
LINE
  5
43C
330
1F
100
AcDbEntity
  8
0
  6
CONTINUOUS
 62
     7
100
AcDbLine
 10
184.4483868752
 20
143.0456578577
 30
0.0
 11
184.4483868752
 21
145.0456619109
 31
0.0
  0
LINE
  5
43D
330
1F
100
AcDbEntity
  8
0
  6
CONTINUOUS
 62
     7
100
AcDbLine
 10
184.4483868752
 20
133.0456599439
 30
0.0
 11
184.4483868752
 21
135.0456565464
 31
0.0
  0
LINE
  5
43E
330
1F
100
AcDbEntity
  8
0
  6
CONTINUOUS
 62
     7
100
AcDbLine
 10
176.9733190138
 20
135.0456565464
 30
0.0
 11
176.9733190138
 21
133.0456599439
 31
0.0
  0
LINE
  5
43F
330
1F
100
AcDbEntity
  8
0
  6
CONTINUOUS
 62
     7
100
AcDbLine
 10
184.4483868752
 20
123.0456620301
 30
0.0
 11
184.4483868752
 21
125.0456586326
 31
0.0
  0
LINE
  5
440
330
1F
100
AcDbEntity
  8
0
  6
CONTINUOUS
 62
     7
100
AcDbLine
 10
176.9733190138
 20
125.0456586326
 30
0.0
 11
176.9733190138
 21
123.0456620301
 31
0.0
  0
LINE
  5
441
330
1F
100
AcDbEntity
  8
0
  6
CONTINUOUS
 62
     7
100
AcDbLine
 10
176.9733190138
 20
115.0456607188
 30
0.0
 11
176.9733190138
 21
113.0456566657
 31
0.0
  0
LINE
  5
442
330
1F
100
AcDbEntity
  8
0
  6
CONTINUOUS
 62
     7
100
AcDbLine
 10
184.4483868752
 20
113.0456566657
 30
0.0
 11
184.4483868752
 21
115.0456607188
 31
0.0
  0
LINE
  5
443
330
1F
100
AcDbEntity
  8
0
  6
CONTINUOUS
 62
     7
100
AcDbLine
 10
176.9733190138
 20
105.0456628049
 30
0.0
 11
176.9733190138
 21
103.0456587518
 31
0.0
  0
LINE
  5
444
330
1F
100
AcDbEntity
  8
0
  6
CONTINUOUS
 62
     7
100
AcDbLine
 10
184.4483868752
 20
103.0456587518
 30
0.0
 11
184.4483868752
 21
105.0456628049
 31
0.0
  0
LINE
  5
445
330
1F
100
AcDbEntity
  8
0
  6
CONTINUOUS
 62
     7
100
AcDbLine
 10
176.9733190138
 20
95.0456574405
 30
0.0
 11
176.9733190138
 21
93.0456533874
 31
0.0
  0
LINE
  5
446
330
1F
100
AcDbEntity
  8
0
  6
CONTINUOUS
 62
     7
100
AcDbLine
 10
184.4483868752
 20
93.0456533874
 30
0.0
 11
184.4483868752
 21
95.0456574405
 31
0.0
  0
ELLIPSE
  5
447
330
1F
100
AcDbEntity
  8
0
  6
CONTINUOUS
 62
     7
100
AcDbEllipse
 10
165.6933507092
 20
76.5456590379
 30
0.0
 11
-0.01480913616120461
 21
1.999972587500977
 31
0.0
210
0.0
220
0.0
230
1.0
 40
0.7070873962
 41
1.577777930874412
 42
3.136356952905344
  0
LINE
  5
448
330
1F
100
AcDbEntity
  8
0
  6
CONTINUOUS
 62
     7
100
AcDbLine
 10
164.2793331828
 20
76.5212192977
 30
0.0
 11
162.2899648335
 21
237.7105639948
 31
0.0
  0
LINE
  5
449
330
1F
100
AcDbEntity
  8
0
  6
CONTINUOUS
 62
     7
100
AcDbLine
 10
170.2476580228
 20
74.545653149
 30
0.0
 11
165.7007558804
 21
74.545653149
 31
0.0
  0
LINE
  5
44A
330
1F
100
AcDbEntity
  8
0
  6
CONTINUOUS
 62
     7
100
AcDbLine
 10
197.1423727061
 20
76.5212192977
 30
0.0
 11
199.1317410555
 21
237.7105639948
 31
0.0
  0
ELLIPSE
  5
44B
330
1F
100
AcDbEntity
  8
0
  6
CONTINUOUS
 62
     7
100
AcDbEllipse
 10
195.7283551797
 20
76.5456590379
 30
0.0
 11
0.01480913616120461
 21
1.999972587500977
 31
0.0
210
0.0
220
0.0
230
1.0
 40
0.7070873962
 41
3.146828354274262
 42
4.705407376305184
  0
LINE
  5
44C
330
1F
100
AcDbEntity
  8
0
  6
CONTINUOUS
 62
     7
100
AcDbLine
 10
195.7209500085
 20
74.545653149
 30
0.0
 11
191.1740478661
 21
74.545653149
 31
0.0
  0
LINE
  5
44D
330
1F
100
AcDbEntity
  8
0
  6
CONTINUOUS
 62
     7
100
AcDbLine
 10
182.8363059155
 20
236.2456590249
 30
0.0
 11
178.5853999734
 21
236.2456590249
 31
0.0
  0
LINE
  5
44E
330
1F
100
AcDbEntity
  8
0
  6
CONTINUOUS
 62
     7
100
AcDbLine
 10
117.5987017047
 20
76.5212192977
 30
0.0
 11
118.991435476
 21
237.7290767394
 31
0.0
  0
LINE
  5
44F
330
1F
100
AcDbEntity
  8
0
  6
CONTINUOUS
 62
     7
100
AcDbLine
 10
116.0743045326
 20
76.5212192977
 30
0.0
 11
117.5987017047
 21
76.5212192977
 31
0.0
  0
LINE
  5
450
330
1F
100
AcDbEntity
  8
0
  6
CONTINUOUS
 62
     7
100
AcDbLine
 10
116.0743045326
 20
76.5212192977
 30
0.0
 11
116.8700852137
 21
237.7105639948
 31
0.0
  0
LINE
  5
451
330
1F
100
AcDbEntity
  8
0
  6
CONTINUOUS
 62
     7
100
AcDbLine
 10
118.991435476
 20
237.7290767394
 30
0.0
 11
116.8700852137
 21
237.7105639948
 31
0.0
  0
LINE
  5
452
330
1F
100
AcDbEntity
  8
0
  6
CONTINUOUS
 62
     7
100
AcDbLine
 10
110.1206080635
 20
237.6516622002
 30
0.0
 11
110.1206080635
 21
74.545653149
 31
0.0
  0
ELLIPSE
  5
453
330
1F
100
AcDbEntity
  8
0
  6
CONTINUOUS
 62
     7
100
AcDbEllipse
 10
114.6601059533
 20
76.5456590379
 30
0.0
 11
-0.01480913616120461
 21
1.999972587500977
 31
0.0
210
0.0
220
0.0
230
1.0
 40
0.7070873962
 41
3.136356952905344
 42
4.694935974936303
  0
LINE
  5
454
330
1F
100
AcDbEntity
  8
0
  6
CONTINUOUS
 62
     7
100
AcDbLine
 10
114.66751105
 20
74.545653149
 30
0.0
 11
110.1206080635
 21
74.545653149
 31
0.0
  0
LINE
  5
455
330
1F
100
AcDbEntity
  8
0
  6
CONTINUOUS
 62
     7
100
AcDbLine
 10
116.8700852137
 20
237.7105639948
 30
0.0
 11
110.1206080635
 21
237.6516622002
 31
0.0
  0
LINE
  5
456
330
1F
100
AcDbEntity
  8
0
  6
CONTINUOUS
 62
     7
100
AcDbLine
 10
116.1845936146
 20
74.545653149
 30
0.0
 11
114.66751105
 21
74.545653149
 31
0.0
  0
ARC
  5
457
330
1F
100
AcDbEntity
  8
0
  6
CONTINUOUS
 62
     7
100
AcDbCircle
 10
115.8368175247
 20
76.2884824811
 30
0.0
 40
1.777189435450668
100
AcDbArc
 50
281.284964892
 51
7.5249433436
  0
LINE
  5
458
330
1F
100
AcDbEntity
  8
0
  6
CONTINUOUS
 62
     7
100
AcDbLine
 10
120.839213923
 20
234.7456590118
 30
0.0
 11
120.8915793974
 21
237.7456590379
 31
0.0
  0
LINE
  5
459
330
1F
100
AcDbEntity
  8
0
  6
CONTINUOUS
 62
     7
100
AcDbLine
 10
118.9370518256
 20
234.7456590118
 30
0.0
 11
120.839213923
 21
234.7456590118
 31
0.0
  0
LINE
  5
45A
330
1F
100
AcDbEntity
  8
0
  6
CONTINUOUS
 62
     7
100
AcDbLine
 10
118.9739871476
 20
237.7289244718
 30
0.0
 11
120.8915793974
 21
237.7456590379
 31
0.0
  0
LINE
  5
45B
330
1F
100
AcDbEntity
  8
0
  6
CONTINUOUS
 62
     7
100
AcDbLine
 10
107.1915789213
 20
81.9498166288
 30
0.0
 11
107.1915789213
 21
92.5462856735
 31
0.0
  0
ARC
  5
45C
330
1F
100
AcDbEntity
  8
0
  6
CONTINUOUS
 62
     7
100
AcDbCircle
 10
94.2413810709
 20
93.0829170901
 30
0.0
 40
12.9613115710373
100
AcDbArc
 50
357.6271300837
 51
359.8352747077
  0
ELLIPSE
  5
45D
330
1F
100
AcDbEntity
  8
0
  6
CONTINUOUS
 62
     7
100
AcDbEllipse
 10
117.1915789474
 20
38.5257770188
 30
0.0
 11
-0.8715807800499392
 21
1355.657561784689
 31
0.0
210
0.0
220
0.0
230
1.0
 40
0.0073484228
 41
1.529087657075759
 42
1.530564194808549
  0
ARC
  5
45E
330
1F
100
AcDbEntity
  8
0
  6
CONTINUOUS
 62
     7
100
AcDbCircle
 10
154.3457214827
 20
96.2774534398
 30
0.0
 40
47.15985551198732
100
AcDbArc
 50
180.8918380899
 51
181.4967123762
  0
LINE
  5
45F
330
1F
100
AcDbEntity
  8
0
  6
CONTINUOUS
 62
     7
100
AcDbLine
 10
107.1915789213
 20
95.543415829
 30
0.0
 11
107.1915789213
 21
102.5556042636
 31
0.0
  0
ARC
  5
460
330
1F
100
AcDbEntity
  8
0
  6
CONTINUOUS
 62
     7
100
AcDbCircle
 10
92.1178392564
 20
103.0424882336
 30
0.0
 40
15.08160082637875
100
AcDbArc
 50
358.1499812356
 51
0.0120449623
  0
ELLIPSE
  5
461
330
1F
100
AcDbEntity
  8
0
  6
CONTINUOUS
 62
     7
100
AcDbEllipse
 10
117.1915789474
 20
38.5257770188
 30
0.0
 11
-0.8715807800499392
 21
1355.657561784689
 31
0.0
210
0.0
220
0.0
230
1.0
 40
0.0073484228
 41
1.521703538943335
 42
1.523180563965472
  0
ARC
  5
462
330
1F
100
AcDbEntity
  8
0
  6
CONTINUOUS
 62
     7
100
AcDbCircle
 10
103.9845282519
 20
105.2399657647
 30
0.0
 40
3.220204211575437
100
AcDbArc
 50
356.5407455026
 51
5.1804230188
  0
LINE
  5
463
330
1F
100
AcDbEntity
  8
0
  6
CONTINUOUS
 62
     7
100
AcDbLine
 10
107.1915789213
 20
105.5307254041
 30
0.0
 11
107.1915789213
 21
112.5767096723
 31
0.0
  0
ARC
  5
464
330
1F
100
AcDbEntity
  8
0
  6
CONTINUOUS
 62
     7
100
AcDbCircle
 10
122.3742473263
 20
112.6426817505
 30
0.0
 40
15.18281173601492
100
AcDbArc
 50
178.4791042679
 51
180.2489613653
  0
ELLIPSE
  5
465
330
1F
100
AcDbEntity
  8
0
  6
CONTINUOUS
 62
     7
100
AcDbEllipse
 10
117.1915789474
 20
38.5257770188
 30
0.0
 11
-0.8715807800499392
 21
1355.657561784689
 31
0.0
210
0.0
220
0.0
230
1.0
 40
0.0073484228
 41
1.514316741089322
 42
1.515794334527106
  0
ARC
  5
466
330
1F
100
AcDbEntity
  8
0
  6
CONTINUOUS
 62
     7
100
AcDbCircle
 10
219.5684732586
 20
116.4327815857
 30
0.0
 40
112.3807158143948
100
AcDbArc
 50
180.4725073757
 51
180.7072226668
  0
LINE
  5
467
330
1F
100
AcDbEntity
  8
0
  6
CONTINUOUS
 62
     7
100
AcDbLine
 10
107.1915789213
 20
115.5060097421
 30
0.0
 11
107.1915789213
 21
122.6113602365
 31
0.0
  0
ARC
  5
468
330
1F
100
AcDbEntity
  8
0
  6
CONTINUOUS
 62
     7
100
AcDbCircle
 10
58.6556703502
 20
123.17433145
 30
0.0
 40
48.5391734314143
100
AcDbArc
 50
359.3354522654
 51
359.8481180698
  0
ELLIPSE
  5
469
330
1F
100
AcDbEntity
  8
0
  6
CONTINUOUS
 62
     7
100
AcDbEllipse
 10
117.1915789474
 20
38.5257770188
 30
0.0
 11
-0.8715807800499392
 21
1355.657561784689
 31
0.0
210
0.0
220
0.0
230
1.0
 40
0.0073484228
 41
1.506926857057215
 42
1.508405100317369
  0
ARC
  5
46A
330
1F
100
AcDbEntity
  8
0
  6
CONTINUOUS
 62
     7
100
AcDbCircle
 10
76.5993303773
 20
125.0577351216
 30
0.0
 40
30.59498855010314
100
AcDbArc
 50
359.9773841436
 51
0.7668165742
  0
LINE
  5
46B
330
1F
100
AcDbEntity
  8
0
  6
CONTINUOUS
 62
     7
100
AcDbLine
 10
107.1915789213
 20
125.467190131
 30
0.0
 11
107.1915789213
 21
132.6633035983
 31
0.0
  0
ARC
  5
46C
330
1F
100
AcDbEntity
  8
0
  6
CONTINUOUS
 62
     7
100
AcDbCircle
 10
175.3157080994
 20
132.5821472735
 30
0.0
 40
68.12417751887945
100
AcDbArc
 50
179.6101600688
 51
179.9317435284
  0
ELLIPSE
  5
46D
330
1F
100
AcDbEntity
  8
0
  6
CONTINUOUS
 62
     7
100
AcDbEllipse
 10
117.1915789474
 20
38.5257770188
 30
0.0
 11
-0.8715807800499392
 21
1355.657561784689
 31
0.0
210
0.0
220
0.0
230
1.0
 40
0.0073484228
 41
1.499533478865969
 42
1.501012453676503
  0
LINE
  5
46E
330
1F
100
AcDbEntity
  8
0
  6
CONTINUOUS
 62
     7
100
AcDbLine
 10
107.1915789213
 20
135.4099079812
 30
0.0
 11
107.1928599555
 21
135.0456565464
 31
0.0
  0
LINE
  5
46F
330
1F
100
AcDbEntity
  8
0
  6
CONTINUOUS
 62
     7
100
AcDbLine
 10
107.1915789213
 20
135.4099079812
 30
0.0
 11
107.1915789213
 21
142.7414581026
 31
0.0
  0
LWPOLYLINE
  5
470
330
1F
100
AcDbEntity
  8
0
  6
CONTINUOUS
 62
     7
100
AcDbPolyline
 90
        3
 70
   128
 43
0.0
 10
107.1920878891
 20
143.0456578577
 10
107.1918527301
 20
142.8803145731
 10
107.1915789213
 20
142.7414581026
  0
ELLIPSE
  5
471
330
1F
100
AcDbEntity
  8
0
  6
CONTINUOUS
 62
     7
100
AcDbEllipse
 10
117.1915789474
 20
38.5257770188
 30
0.0
 11
-0.8715807800499392
 21
1355.657561784689
 31
0.0
210
0.0
220
0.0
230
1.0
 40
0.0073484228
 41
1.492136196804363
 42
1.493615985255885
  0
ARC
  5
472
330
1F
100
AcDbEntity
  8
0
  6
CONTINUOUS
 62
     7
100
AcDbCircle
 10
55.694383279
 20
145.1156115889
 30
0.0
 40
51.49761381532652
100
AcDbArc
 50
359.9221745967
 51
0.2308991801
  0
LINE
  5
473
330
1F
100
AcDbEntity
  8
0
  6
CONTINUOUS
 62
     7
100
AcDbLine
 10
107.1915789213
 20
145.323143884
 30
0.0
 11
107.1915789213
 21
152.8803869928
 31
0.0
  0
LINE
  5
474
330
1F
100
AcDbEntity
  8
0
  6
CONTINUOUS
 62
     7
100
AcDbLine
 10
107.19161501
 20
153.0456557716
 30
0.0
 11
107.1915789213
 21
152.8803869928
 31
0.0
  0
ELLIPSE
  5
475
330
1F
100
AcDbEntity
  8
0
  6
CONTINUOUS
 62
     7
100
AcDbEllipse
 10
117.1915789474
 20
38.5257770188
 30
0.0
 11
-0.8715807800499392
 21
1355.657561784689
 31
0.0
210
0.0
220
0.0
230
1.0
 40
0.0073484228
 41
1.484734662078996
 42
1.486215283810497
  0
LINE
  5
476
330
1F
100
AcDbEntity
  8
0
  6
CONTINUOUS
 62
     7
100
AcDbLine
 10
107.1915789213
 20
155.0456598247
 30
0.0
 11
107.1915789213
 21
155.1513090576
 31
0.0
  0
LINE
  5
477
330
1F
100
AcDbEntity
  8
0
  6
CONTINUOUS
 62
     7
100
AcDbLine
 10
107.1915789213
 20
155.1513090576
 30
0.0
 11
107.1915789213
 21
237.6261009462
 31
0.0
  0
ELLIPSE
  5
478
330
1F
100
AcDbEntity
  8
0
  6
CONTINUOUS
 62
     7
100
AcDbEllipse
 10
117.1915789474
 20
855.1708699657
 30
0.0
 11
1.305295898565447
 21
1362.151924467677
 31
0.0
210
0.0
220
0.0
230
1.0
 40
0.0072785157
 41
2.174439330269455
 42
2.181065485466597
  0
LINE
  5
479
330
1F
100
AcDbEntity
  8
0
  6
CONTINUOUS
 62
     7
100
AcDbLine
 10
110.1206080635
 20
74.545653149
 30
0.0
 11
108.3187040346
 21
74.545653149
 31
0.0
  0
LINE
  5
47A
330
1F
100
AcDbEntity
  8
0
  6
CONTINUOUS
 62
     7
100
AcDbLine
 10
107.1915789213
 20
237.6261009462
 30
0.0
 11
110.1206080635
 21
237.6516622002
 31
0.0
  0
LINE
  5
47B
330
1F
100
AcDbEntity
  8
0
  6
CONTINUOUS
 62
     7
100
AcDbLine
 10
100.6915792528
 20
81.8930879081
 30
0.0
 11
100.6915792528
 21
74.545653149
 31
0.0
  0
LINE
  5
47C
330
1F
100
AcDbEntity
  8
0
  6
CONTINUOUS
 62
     7
100
AcDbLine
 10
108.2883380292
 20
81.9593831743
 30
0.0
 11
100.6915792528
 21
81.8930879081
 31
0.0
  0
LINE
  5
47D
330
1F
100
AcDbEntity
  8
0
  6
CONTINUOUS
 62
     7
100
AcDbLine
 10
108.3187040346
 20
74.545653149
 30
0.0
 11
100.6915792528
 21
74.545653149
 31
0.0
  0
LINE
  5
47E
330
1F
100
AcDbEntity
  8
0
  6
CONTINUOUS
 62
     7
100
AcDbLine
 10
106.8915789652
 20
139.21925573
 30
0.0
 11
107.1915789213
 21
139.21925573
 31
0.0
  0
LINE
  5
47F
330
1F
100
AcDbEntity
  8
0
  6
CONTINUOUS
 62
     7
100
AcDbLine
 10
106.8915789652
 20
141.0341501082
 30
0.0
 11
106.8915789652
 21
139.21925573
 31
0.0
  0
LWPOLYLINE
  5
480
330
1F
100
AcDbEntity
  8
0
  6
CONTINUOUS
 62
     7
100
AcDbPolyline
 90
        4
 70
   128
 43
0.0
 10
106.8915789652
 20
141.0341501082
 10
106.9815819789
 20
141.0420253719
 10
107.0715847596
 20
141.0499006356
 10
107.1915789213
 20
141.0604059542
  0
LWPOLYLINE
  5
481
330
1F
100
AcDbEntity
  8
0
  6
CONTINUOUS
 62
     7
100
AcDbPolyline
 90
        4
 70
   128
 43
0.0
 10
106.8915789652
 20
137.4071627701
 10
106.9815824445
 20
137.3992875064
 10
107.071585691
 20
137.3914122427
 10
107.1915789213
 20
137.3809143747
  0
LINE
  5
482
330
1F
100
AcDbEntity
  8
0
  6
CONTINUOUS
 62
     7
100
AcDbLine
 10
106.8915789652
 20
139.21925573
 30
0.0
 11
106.8915789652
 21
137.4071627701
 31
0.0
  0
LWPOLYLINE
  5
483
330
1F
100
AcDbEntity
  8
0
  6
CONTINUOUS
 62
     7
100
AcDbPolyline
 90
        4
 70
   128
 43
0.0
 10
106.8915789652
 20
107.3821648801
 10
106.9815847728
 20
107.374297067
 10
107.0715908132
 20
107.3664143527
 10
107.1915789213
 20
107.3559090341
  0
LINE
  5
484
330
1F
100
AcDbEntity
  8
0
  6
CONTINUOUS
 62
     7
100
AcDbLine
 10
106.8915789652
 20
108.4855660642
 30
0.0
 11
106.8915789652
 21
107.3821648801
 31
0.0
  0
LINE
  5
485
330
1F
100
AcDbEntity
  8
0
  6
CONTINUOUS
 62
     7
100
AcDbLine
 10
106.8915789652
 20
108.4855660642
 30
0.0
 11
107.1915789213
 21
108.4854170526
 31
0.0
  0
LINE
  5
486
330
1F
100
AcDbEntity
  8
0
  6
CONTINUOUS
 62
     7
100
AcDbLine
 10
106.8915789652
 20
109.0913131679
 30
0.0
 11
106.8915789652
 21
108.4855660642
 31
0.0
  0
LWPOLYLINE
  5
487
330
1F
100
AcDbEntity
  8
0
  6
CONTINUOUS
 62
     7
100
AcDbPolyline
 90
        4
 70
   128
 43
0.0
 10
106.8915789652
 20
109.0913131679
 10
106.9815798834
 20
109.0961113418
 10
107.0715805687
 20
109.1009095157
 10
107.1915789213
 20
109.107317015
  0
LINE
  5
488
330
1F
100
AcDbEntity
  8
0
  6
CONTINUOUS
 62
     7
100
AcDbLine
 10
106.8915789652
 20
118.7654673899
 30
0.0
 11
107.1915789213
 21
118.7475636447
 31
0.0
  0
LINE
  5
489
330
1F
100
AcDbEntity
  8
0
  6
CONTINUOUS
 62
     7
100
AcDbLine
 10
106.8915789652
 20
120.003329202
 30
0.0
 11
106.8915789652
 21
118.7654673899
 31
0.0
  0
LWPOLYLINE
  5
48A
330
1F
100
AcDbEntity
  8
0
  6
CONTINUOUS
 62
     7
100
AcDbPolyline
 90
        4
 70
   128
 43
0.0
 10
106.8915789652
 20
120.003329202
 10
106.9815801162
 20
120.0033143009
 10
107.0715810344
 20
120.0032993997
 10
107.1915789213
 20
120.0032695974
  0
LINE
  5
48B
330
1F
100
AcDbEntity
  8
0
  6
CONTINUOUS
 62
     7
100
AcDbLine
 10
106.8915789652
 20
121.0174798811
 30
0.0
 11
106.8915789652
 21
120.003329202
 31
0.0
  0
LWPOLYLINE
  5
48C
330
1F
100
AcDbEntity
  8
0
  6
CONTINUOUS
 62
     7
100
AcDbPolyline
 90
        4
 70
   128
 43
0.0
 10
106.8915789652
 20
121.0174798811
 10
106.9815810475
 20
121.0253551448
 10
107.0715831298
 20
121.0332378591
 10
107.1915789213
 20
121.0437357272
  0
LINE
  5
48D
330
1F
100
AcDbEntity
  8
0
  6
CONTINUOUS
 62
     7
100
AcDbLine
 10
106.8915789652
 20
98.2712671007
 30
0.0
 11
107.1915789213
 21
98.2450112546
 31
0.0
  0
LINE
  5
48E
330
1F
100
AcDbEntity
  8
0
  6
CONTINUOUS
 62
     7
100
AcDbLine
 10
106.8915789652
 20
98.5777392829
 30
0.0
 11
106.8915789652
 21
98.2712671007
 31
0.0
  0
LINE
  5
48F
330
1F
100
AcDbEntity
  8
0
  6
CONTINUOUS
 62
     7
100
AcDbLine
 10
106.8915789652
 20
98.5777392829
 30
0.0
 11
107.1915789213
 21
98.603995129
 31
0.0
  0
LINE
  5
490
330
1F
100
AcDbEntity
  8
0
  6
CONTINUOUS
 62
     7
100
AcDbLine
 10
106.8915789652
 20
117.4802422369
 30
0.0
 11
107.1915789213
 21
117.4539938415
 31
0.0
  0
LINE
  5
491
330
1F
100
AcDbEntity
  8
0
  6
CONTINUOUS
 62
     7
100
AcDbLine
 10
106.8915789652
 20
117.7867218698
 30
0.0
 11
107.1915789213
 21
117.8129702652
 31
0.0
  0
LINE
  5
492
330
1F
100
AcDbEntity
  8
0
  6
CONTINUOUS
 62
     7
100
AcDbLine
 10
106.8915789652
 20
117.7867218698
 30
0.0
 11
106.8915789652
 21
117.4802422369
 31
0.0
  0
LWPOLYLINE
  5
493
330
1F
100
AcDbEntity
  8
0
  6
CONTINUOUS
 62
     7
100
AcDbPolyline
 90
        3
 70
   128
 43
0.0
 10
106.8915789652
 20
109.40201728
 10
107.0415789433
 20
109.4039991344
 10
107.1915789213
 20
109.40599589
  0
LWPOLYLINE
  5
494
330
1F
100
AcDbEntity
  8
0
  6
CONTINUOUS
 62
     7
100
AcDbPolyline
 90
        4
 70
   128
 43
0.0
 10
106.8915789652
 20
110.1258858884
 10
106.981581746
 20
110.1259454931
 10
107.071584294
 20
110.1259901966
 10
107.1915789213
 20
110.1260498012
  0
LINE
  5
495
330
1F
100
AcDbEntity
  8
0
  6
CONTINUOUS
 62
     7
100
AcDbLine
 10
106.8915789652
 20
110.1258858884
 30
0.0
 11
106.8915789652
 21
109.40201728
 31
0.0
  0
LWPOLYLINE
  5
496
330
1F
100
AcDbEntity
  8
0
  6
CONTINUOUS
 62
     7
100
AcDbPolyline
 90
        4
 70
   128
 43
0.0
 10
106.8915789652
 20
111.0091522182
 10
106.9815852385
 20
111.0170200313
 10
107.0715912789
 20
111.0249027456
 10
107.1915789213
 20
111.0354080642
  0
LINE
  5
497
330
1F
100
AcDbEntity
  8
0
  6
CONTINUOUS
 62
     7
100
AcDbLine
 10
106.8915789652
 20
111.0091522182
 30
0.0
 11
106.8915789652
 21
110.1258858884
 31
0.0
  0
LINE
  5
498
330
1F
100
AcDbEntity
  8
0
  6
CONTINUOUS
 62
     7
100
AcDbLine
 10
106.8915789652
 20
109.40201728
 30
0.0
 11
106.8915789652
 21
109.0913131679
 31
0.0
  0
LINE
  5
499
330
1F
100
AcDbEntity
  8
0
  6
CONTINUOUS
 62
     7
100
AcDbLine
 10
106.8915789652
 20
101.0008171047
 30
0.0
 11
107.1915789213
 21
101.0270729507
 31
0.0
  0
LINE
  5
49A
330
1F
100
AcDbEntity
  8
0
  6
CONTINUOUS
 62
     7
100
AcDbLine
 10
106.8915789652
 20
101.0008171047
 30
0.0
 11
106.8915789652
 21
98.5777392829
 31
0.0
  0
LINE
  5
49B
330
1F
100
AcDbEntity
  8
0
  6
CONTINUOUS
 62
     7
100
AcDbLine
 10
106.8915789652
 20
97.4635794605
 30
0.0
 11
107.1915789213
 21
97.4373236145
 31
0.0
  0
LINE
  5
49C
330
1F
100
AcDbEntity
  8
0
  6
CONTINUOUS
 62
     7
100
AcDbLine
 10
106.8915789652
 20
98.2712671007
 30
0.0
 11
106.8915789652
 21
97.4635794605
 31
0.0
  0
LINE
  5
49D
330
1F
100
AcDbEntity
  8
0
  6
CONTINUOUS
 62
     7
100
AcDbLine
 10
106.8915789652
 20
118.7654673899
 30
0.0
 11
106.8915789652
 21
117.7867218698
 31
0.0
  0
LINE
  5
49E
330
1F
100
AcDbEntity
  8
0
  6
CONTINUOUS
 62
     7
100
AcDbLine
 10
106.8915789652
 20
127.4885698999
 30
0.0
 11
107.1915789213
 21
127.462328955
 31
0.0
  0
LINE
  5
49F
330
1F
100
AcDbEntity
  8
0
  6
CONTINUOUS
 62
     7
100
AcDbLine
 10
106.8915789652
 20
130.936080202
 30
0.0
 11
106.8915789652
 21
127.4885698999
 31
0.0
  0
LINE
  5
4A0
330
1F
100
AcDbEntity
  8
0
  6
CONTINUOUS
 62
     7
100
AcDbLine
 10
106.8915789652
 20
130.936080202
 30
0.0
 11
107.1915789213
 21
130.9623285974
 31
0.0
  0
LWPOLYLINE
  5
4A1
330
1F
100
AcDbEntity
  8
0
  6
CONTINUOUS
 62
     7
100
AcDbPolyline
 90
        4
 70
   128
 43
0.0
 10
106.8915789652
 20
207.4655048395
 10
106.9815847728
 20
207.4576277132
 10
107.0715908132
 20
207.4497505868
 10
107.1915789213
 20
207.4392489935
  0
LINE
  5
4A2
330
1F
100
AcDbEntity
  8
0
  6
CONTINUOUS
 62
     7
100
AcDbLine
 10
106.8915789652
 20
208.5689004357
 30
0.0
 11
106.8915789652
 21
207.4655048395
 31
0.0
  0
LWPOLYLINE
  5
4A3
330
1F
100
AcDbEntity
  8
0
  6
CONTINUOUS
 62
     7
100
AcDbPolyline
 90
        4
 70
   128
 43
0.0
 10
106.8915789652
 20
208.5689004357
 10
106.9815796506
 20
208.5688575948
 10
107.0715805687
 20
208.568814754
 10
107.1915789213
 20
208.5687551493
  0
LWPOLYLINE
  5
4A4
330
1F
100
AcDbEntity
  8
0
  6
CONTINUOUS
 62
     7
100
AcDbPolyline
 90
        4
 70
   128
 43
0.0
 10
106.8915789652
 20
157.7989324773
 10
106.9815801162
 20
157.7937915767
 10
107.0715812672
 20
157.7886506761
 10
107.1915789213
 20
157.781796142
  0
LINE
  5
4A5
330
1F
100
AcDbEntity
  8
0
  6
CONTINUOUS
 62
     7
100
AcDbLine
 10
106.8915789652
 20
158.5067003811
 30
0.0
 11
106.8915789652
 21
157.7989324773
 31
0.0
  0
LWPOLYLINE
  5
4A6
330
1F
100
AcDbEntity
  8
0
  6
CONTINUOUS
 62
     7
100
AcDbPolyline
 90
        4
 70
   128
 43
0.0
 10
106.8915789652
 20
158.5067003811
 10
106.9815801162
 20
158.5067152823
 10
107.0715815
 20
158.506737634
 10
107.1915789213
 20
158.5067599858
  0
LINE
  5
4A7
330
1F
100
AcDbEntity
  8
0
  6
CONTINUOUS
 62
     7
100
AcDbLine
 10
106.8915789652
 20
209.174649402
 30
0.0
 11
106.8915789652
 21
208.5689004357
 31
0.0
  0
LWPOLYLINE
  5
4A8
330
1F
100
AcDbEntity
  8
0
  6
CONTINUOUS
 62
     7
100
AcDbPolyline
 90
        4
 70
   128
 43
0.0
 10
106.8915789652
 20
209.174649402
 10
106.9815798834
 20
209.1794494385
 10
107.0715805687
 20
209.1842494751
 10
107.1915789213
 20
209.1906513865
  0
LWPOLYLINE
  5
4A9
330
1F
100
AcDbEntity
  8
0
  6
CONTINUOUS
 62
     7
100
AcDbPolyline
 90
        4
 70
   128
 43
0.0
 10
106.8915789652
 20
187.4488308872
 10
106.9815815132
 20
187.4409556235
 10
107.0715840611
 20
187.4330803598
 10
107.1915789213
 20
187.4225824917
  0
LINE
  5
4AA
330
1F
100
AcDbEntity
  8
0
  6
CONTINUOUS
 62
     7
100
AcDbLine
 10
106.8915789652
 20
188.6558808232
 30
0.0
 11
106.8915789652
 21
187.4488308872
 31
0.0
  0
LWPOLYLINE
  5
4AB
330
1F
100
AcDbEntity
  8
0
  6
CONTINUOUS
 62
     7
100
AcDbPolyline
 90
        4
 70
   128
 43
0.0
 10
106.8915789652
 20
188.6558808232
 10
106.9815815132
 20
188.6558733726
 10
107.0715838283
 20
188.6558659221
 10
107.1915789213
 20
188.6558547462
  0
LINE
  5
4AC
330
1F
100
AcDbEntity
  8
0
  6
CONTINUOUS
 62
     7
100
AcDbLine
 10
106.8915789652
 20
159.4361975635
 30
0.0
 11
106.8915789652
 21
158.5067003811
 31
0.0
  0
LWPOLYLINE
  5
4AD
330
1F
100
AcDbEntity
  8
0
  6
CONTINUOUS
 62
     7
100
AcDbPolyline
 90
        3
 70
   128
 43
0.0
 10
106.8915789652
 20
159.4361975635
 10
107.0415789433
 20
159.4366669501
 10
107.1915789213
 20
159.4371437872
  0
LWPOLYLINE
  5
4AE
330
1F
100
AcDbEntity
  8
0
  6
CONTINUOUS
 62
     7
100
AcDbPolyline
 90
        4
 70
   128
 43
0.0
 10
106.8915789652
 20
178.4862853433
 10
106.9815843072
 20
178.4862778927
 10
107.0715896491
 20
178.4862741674
 10
107.1915789213
 20
178.4862629915
  0
LINE
  5
4AF
330
1F
100
AcDbEntity
  8
0
  6
CONTINUOUS
 62
     7
100
AcDbLine
 10
106.8915789652
 20
179.4969677771
 30
0.0
 11
106.8915789652
 21
178.4862853433
 31
0.0
  0
LWPOLYLINE
  5
4B0
330
1F
100
AcDbEntity
  8
0
  6
CONTINUOUS
 62
     7
100
AcDbPolyline
 90
        4
 70
   128
 43
0.0
 10
106.8915789652
 20
179.4969677771
 10
106.9815794177
 20
179.5048430408
 10
107.0715796374
 20
179.5127220298
 10
107.1915789213
 20
179.5232236231
  0
LINE
  5
4B1
330
1F
100
AcDbEntity
  8
0
  6
CONTINUOUS
 62
     7
100
AcDbLine
 10
106.8915789652
 20
218.8487998987
 30
0.0
 11
107.1915789213
 21
218.8308961535
 31
0.0
  0
LINE
  5
4B2
330
1F
100
AcDbEntity
  8
0
  6
CONTINUOUS
 62
     7
100
AcDbLine
 10
106.8915789652
 20
220.0866654361
 30
0.0
 11
106.8915789652
 21
218.8487998987
 31
0.0
  0
LWPOLYLINE
  5
4B3
330
1F
100
AcDbEntity
  8
0
  6
CONTINUOUS
 62
     7
100
AcDbPolyline
 90
        4
 70
   128
 43
0.0
 10
106.8915789652
 20
220.0866654361
 10
106.9815801162
 20
220.0866468097
 10
107.0715810344
 20
220.0866281832
 10
107.1915789213
 20
220.0866039688
  0
LINE
  5
4B4
330
1F
100
AcDbEntity
  8
0
  6
CONTINUOUS
 62
     7
100
AcDbLine
 10
106.8915789652
 20
189.7745333458
 30
0.0
 11
106.8915789652
 21
188.6558808232
 31
0.0
  0
LWPOLYLINE
  5
4B5
330
1F
100
AcDbEntity
  8
0
  6
CONTINUOUS
 62
     7
100
AcDbPolyline
 90
        4
 70
   128
 43
0.0
 10
106.8915789652
 20
189.7745333458
 10
106.9815794177
 20
189.7824086095
 10
107.071580103
 20
189.7902838732
 10
107.1915789213
 20
189.8007854665
  0
LINE
  5
4B6
330
1F
100
AcDbEntity
  8
0
  6
CONTINUOUS
 62
     7
100
AcDbLine
 10
106.8915789652
 20
221.1008161152
 30
0.0
 11
106.8915789652
 21
220.0866654361
 31
0.0
  0
LWPOLYLINE
  5
4B7
330
1F
100
AcDbEntity
  8
0
  6
CONTINUOUS
 62
     7
100
AcDbPolyline
 90
        4
 70
   128
 43
0.0
 10
106.8915789652
 20
221.1008161152
 10
106.9815810475
 20
221.1086913789
 10
107.0715831298
 20
221.1165685053
 10
107.1915789213
 20
221.1270700986
  0
LWPOLYLINE
  5
4B8
330
1F
100
AcDbEntity
  8
0
  6
CONTINUOUS
 62
     7
100
AcDbPolyline
 90
        4
 70
   128
 43
0.0
 10
106.8915789652
 20
177.4405106748
 10
106.9815843072
 20
177.4326316858
 10
107.0715894163
 20
177.4247526968
 10
107.1915789213
 20
177.4142473782
  0
LINE
  5
4B9
330
1F
100
AcDbEntity
  8
0
  6
CONTINUOUS
 62
     7
100
AcDbLine
 10
106.8915789652
 20
178.4862853433
 30
0.0
 11
106.8915789652
 21
177.4405106748
 31
0.0
  0
LINE
  5
4BA
330
1F
100
AcDbEntity
  8
0
  6
CONTINUOUS
 62
     7
100
AcDbLine
 10
106.8915789652
 20
198.3545996095
 30
0.0
 11
107.1915789213
 21
198.328351214
 31
0.0
  0
LINE
  5
4BB
330
1F
100
AcDbEntity
  8
0
  6
CONTINUOUS
 62
     7
100
AcDbLine
 10
106.8915789652
 20
198.6610792423
 30
0.0
 11
106.8915789652
 21
198.3545996095
 31
0.0
  0
LINE
  5
4BC
330
1F
100
AcDbEntity
  8
0
  6
CONTINUOUS
 62
     7
100
AcDbLine
 10
106.8915789652
 20
198.6610792423
 30
0.0
 11
107.1915789213
 21
198.6873239125
 31
0.0
  0
LINE
  5
4BD
330
1F
100
AcDbEntity
  8
0
  6
CONTINUOUS
 62
     7
100
AcDbLine
 10
106.8915789652
 20
217.5635728831
 30
0.0
 11
107.1915789213
 21
217.5373263503
 31
0.0
  0
LINE
  5
4BE
330
1F
100
AcDbEntity
  8
0
  6
CONTINUOUS
 62
     7
100
AcDbLine
 10
106.8915789652
 20
217.8700543786
 30
0.0
 11
107.1915789213
 21
217.8963009114
 31
0.0
  0
LINE
  5
4BF
330
1F
100
AcDbEntity
  8
0
  6
CONTINUOUS
 62
     7
100
AcDbLine
 10
106.8915789652
 20
217.8700543786
 30
0.0
 11
106.8915789652
 21
217.5635728831
 31
0.0
  0
LINE
  5
4C0
330
1F
100
AcDbEntity
  8
0
  6
CONTINUOUS
 62
     7
100
AcDbLine
 10
106.8915789652
 20
167.4419432724
 30
0.0
 11
107.1915789213
 21
167.4059122647
 31
0.0
  0
LINE
  5
4C1
330
1F
100
AcDbEntity
  8
0
  6
CONTINUOUS
 62
     7
100
AcDbLine
 10
106.8915789652
 20
170.9694132055
 30
0.0
 11
106.8915789652
 21
167.4419432724
 31
0.0
  0
LINE
  5
4C2
330
1F
100
AcDbEntity
  8
0
  6
CONTINUOUS
 62
     7
100
AcDbLine
 10
106.8915789652
 20
170.9694132055
 30
0.0
 11
107.1915789213
 21
170.9956616009
 31
0.0
  0
LWPOLYLINE
  5
4C3
330
1F
100
AcDbEntity
  8
0
  6
CONTINUOUS
 62
     7
100
AcDbPolyline
 90
        4
 70
   128
 43
0.0
 10
106.8915789652
 20
148.9801049078
 10
106.9815805819
 20
148.9756867135
 10
107.0715821985
 20
148.9712610687
 10
107.1915789213
 20
148.9653676594
  0
LINE
  5
4C4
330
1F
100
AcDbEntity
  8
0
  6
CONTINUOUS
 62
     7
100
AcDbLine
 10
106.8915789652
 20
149.9931454504
 30
0.0
 11
106.8915789652
 21
148.9801049078
 31
0.0
  0
LWPOLYLINE
  5
4C5
330
1F
100
AcDbEntity
  8
0
  6
CONTINUOUS
 62
     7
100
AcDbPolyline
 90
        4
 70
   128
 43
0.0
 10
106.8915789652
 20
149.9931454504
 10
106.9815801162
 20
149.9931678022
 10
107.0715812672
 20
149.9931901539
 10
107.1915789213
 20
149.9932125057
  0
LINE
  5
4C6
330
1F
100
AcDbEntity
  8
0
  6
CONTINUOUS
 62
     7
100
AcDbLine
 10
106.8915789652
 20
151.0424703206
 30
0.0
 11
106.8915789652
 21
149.9931454504
 31
0.0
  0
LWPOLYLINE
  5
4C7
330
1F
100
AcDbEntity
  8
0
  6
CONTINUOUS
 62
     7
100
AcDbPolyline
 90
        4
 70
   128
 43
0.0
 10
106.8915789652
 20
151.0424703206
 10
106.9815854713
 20
151.0503530348
 10
107.0715922102
 20
151.0582282985
 10
107.1915789213
 20
151.0687336172
  0
LWPOLYLINE
  5
4C8
330
1F
100
AcDbEntity
  8
0
  6
CONTINUOUS
 62
     7
100
AcDbPolyline
 90
        4
 70
   128
 43
0.0
 10
106.8915789652
 20
160.1690590228
 10
106.9815826774
 20
160.1690739239
 10
107.0715866223
 20
160.1690888251
 10
107.1915789213
 20
160.1691186274
  0
LWPOLYLINE
  5
4C9
330
1F
100
AcDbEntity
  8
0
  6
CONTINUOUS
 62
     7
100
AcDbPolyline
 90
        4
 70
   128
 43
0.0
 10
106.8915789652
 20
161.0508128847
 10
106.9815840743
 20
161.0586881484
 10
107.0715889506
 20
161.066563412
 10
107.1915789213
 20
161.0770687307
  0
LINE
  5
4CA
330
1F
100
AcDbEntity
  8
0
  6
CONTINUOUS
 62
     7
100
AcDbLine
 10
106.8915789652
 20
161.0508128847
 30
0.0
 11
106.8915789652
 21
160.1690590228
 31
0.0
  0
LINE
  5
4CB
330
1F
100
AcDbEntity
  8
0
  6
CONTINUOUS
 62
     7
100
AcDbLine
 10
106.8915789652
 20
209.4853460635
 30
0.0
 11
107.1915789213
 21
209.4893283988
 31
0.0
  0
LWPOLYLINE
  5
4CC
330
1F
100
AcDbEntity
  8
0
  6
CONTINUOUS
 62
     7
100
AcDbPolyline
 90
        4
 70
   128
 43
0.0
 10
106.8915789652
 20
210.2092258478
 10
106.981581746
 20
210.2092724139
 10
107.071584294
 20
210.2093189801
 10
107.1915789213
 20
210.2093804474
  0
LINE
  5
4CD
330
1F
100
AcDbEntity
  8
0
  6
CONTINUOUS
 62
     7
100
AcDbLine
 10
106.8915789652
 20
210.2092258478
 30
0.0
 11
106.8915789652
 21
209.4853460635
 31
0.0
  0
LINE
  5
4CE
330
1F
100
AcDbEntity
  8
0
  6
CONTINUOUS
 62
     7
100
AcDbLine
 10
106.8915789652
 20
160.1690590228
 30
0.0
 11
106.8915789652
 21
159.4361975635
 31
0.0
  0
LWPOLYLINE
  5
4CF
330
1F
100
AcDbEntity
  8
0
  6
CONTINUOUS
 62
     7
100
AcDbPolyline
 90
        4
 70
   128
 43
0.0
 10
106.8915789652
 20
211.0924828644
 10
106.9815852385
 20
211.100358128
 10
107.0715912789
 20
211.1082352544
 10
107.1915789213
 20
211.1187368477
  0
LINE
  5
4D0
330
1F
100
AcDbEntity
  8
0
  6
CONTINUOUS
 62
     7
100
AcDbLine
 10
106.8915789652
 20
211.0924828644
 30
0.0
 11
106.8915789652
 21
210.2092258478
 31
0.0
  0
LINE
  5
4D1
330
1F
100
AcDbEntity
  8
0
  6
CONTINUOUS
 62
     7
100
AcDbLine
 10
106.8915789652
 20
190.6795963491
 30
0.0
 11
107.1915789213
 21
190.6533516789
 31
0.0
  0
LINE
  5
4D2
330
1F
100
AcDbEntity
  8
0
  6
CONTINUOUS
 62
     7
100
AcDbLine
 10
106.8915789652
 20
190.9860797072
 30
0.0
 11
107.1915789213
 21
191.0123243774
 31
0.0
  0
LINE
  5
4D3
330
1F
100
AcDbEntity
  8
0
  6
CONTINUOUS
 62
     7
100
AcDbLine
 10
106.8915789652
 20
190.9860797072
 30
0.0
 11
106.8915789652
 21
190.6795963491
 31
0.0
  0
LINE
  5
4D4
330
1F
100
AcDbEntity
  8
0
  6
CONTINUOUS
 62
     7
100
AcDbLine
 10
106.8915789652
 20
209.4853460635
 30
0.0
 11
106.8915789652
 21
209.174649402
 31
0.0
  0
LWPOLYLINE
  5
4D5
330
1F
100
AcDbEntity
  8
0
  6
CONTINUOUS
 62
     7
100
AcDbPolyline
 90
        4
 70
   128
 43
0.0
 10
106.8915789652
 20
157.4238404478
 10
106.9815815132
 20
157.4159577335
 10
107.0715840611
 20
157.4080824698
 10
107.1915789213
 20
157.3975846017
  0
LINE
  5
4D6
330
1F
100
AcDbEntity
  8
0
  6
CONTINUOUS
 62
     7
100
AcDbLine
 10
106.8915789652
 20
157.7989324773
 30
0.0
 11
106.8915789652
 21
157.4238404478
 31
0.0
  0
LINE
  5
4D7
330
1F
100
AcDbEntity
  8
0
  6
CONTINUOUS
 62
     7
100
AcDbLine
 10
106.8915789652
 20
197.5469045187
 30
0.0
 11
107.1915789213
 21
197.5206598485
 31
0.0
  0
LINE
  5
4D8
330
1F
100
AcDbEntity
  8
0
  6
CONTINUOUS
 62
     7
100
AcDbLine
 10
106.8915789652
 20
198.3545996095
 30
0.0
 11
106.8915789652
 21
197.5469045187
 31
0.0
  0
LINE
  5
4D9
330
1F
100
AcDbEntity
  8
0
  6
CONTINUOUS
 62
     7
100
AcDbLine
 10
106.8915789652
 20
201.0841570641
 30
0.0
 11
107.1915789213
 21
201.1104017342
 31
0.0
  0
LINE
  5
4DA
330
1F
100
AcDbEntity
  8
0
  6
CONTINUOUS
 62
     7
100
AcDbLine
 10
106.8915789652
 20
201.0841570641
 30
0.0
 11
106.8915789652
 21
198.6610792423
 31
0.0
  0
LINE
  5
4DB
330
1F
100
AcDbEntity
  8
0
  6
CONTINUOUS
 62
     7
100
AcDbLine
 10
106.8915789652
 20
180.8979563261
 30
0.0
 11
107.1915789213
 21
180.9037305261
 31
0.0
  0
LINE
  5
4DC
330
1F
100
AcDbEntity
  8
0
  6
CONTINUOUS
 62
     7
100
AcDbLine
 10
106.8915789652
 20
181.0554131711
 30
0.0
 11
107.1915789213
 21
181.0937352324
 31
0.0
  0
LINE
  5
4DD
330
1F
100
AcDbEntity
  8
0
  6
CONTINUOUS
 62
     7
100
AcDbLine
 10
106.8915789652
 20
181.0554131711
 30
0.0
 11
106.8915789652
 21
180.8979563261
 31
0.0
  0
LINE
  5
4DE
330
1F
100
AcDbEntity
  8
0
  6
CONTINUOUS
 62
     7
100
AcDbLine
 10
106.8915789652
 20
180.8979563261
 30
0.0
 11
106.8915789652
 21
179.4969677771
 31
0.0
  0
LINE
  5
4DF
330
1F
100
AcDbEntity
  8
0
  6
CONTINUOUS
 62
     7
100
AcDbLine
 10
106.8915789652
 20
147.4259063447
 30
0.0
 11
107.1915789213
 21
147.3892494882
 31
0.0
  0
LINE
  5
4E0
330
1F
100
AcDbEntity
  8
0
  6
CONTINUOUS
 62
     7
100
AcDbLine
 10
106.8915789652
 20
148.9801049078
 30
0.0
 11
106.8915789652
 21
147.4259063447
 31
0.0
  0
LINE
  5
4E1
330
1F
100
AcDbEntity
  8
0
  6
CONTINUOUS
 62
     7
100
AcDbLine
 10
106.8915789652
 20
218.8487998987
 30
0.0
 11
106.8915789652
 21
217.8700543786
 31
0.0
  0
LINE
  5
4E2
330
1F
100
AcDbEntity
  8
0
  6
CONTINUOUS
 62
     7
100
AcDbLine
 10
106.8915789652
 20
227.5719052027
 30
0.0
 11
107.1915789213
 21
227.5456586699
 31
0.0
  0
LINE
  5
4E3
330
1F
100
AcDbEntity
  8
0
  6
CONTINUOUS
 62
     7
100
AcDbLine
 10
106.8915789652
 20
231.0194122451
 30
0.0
 11
106.8915789652
 21
227.5719052027
 31
0.0
  0
LINE
  5
4E4
330
1F
100
AcDbEntity
  8
0
  6
CONTINUOUS
 62
     7
100
AcDbLine
 10
106.8915789652
 20
231.0194122451
 30
0.0
 11
107.1915789213
 21
231.0456592436
 31
0.0
  0
LINE
  5
4E5
330
1F
100
AcDbEntity
  8
0
  6
CONTINUOUS
 62
     7
100
AcDbLine
 10
106.8915789652
 20
190.6795963491
 30
0.0
 11
106.8915789652
 21
189.7745333458
 31
0.0
  0
LINE
  5
4E6
330
1F
100
AcDbEntity
  8
0
  6
CONTINUOUS
 62
     7
100
AcDbLine
 10
192.3818270277
 20
276.1991381029
 30
0.0
 11
191.1740478661
 21
276.1991381029
 31
0.0
  0
LINE
  5
4E7
330
1F
100
AcDbEntity
  8
0
  6
CONTINUOUS
 62
     7
100
AcDbLine
 10
199.1317410555
 20
269.4496609527
 30
0.0
 11
192.3818270277
 21
276.1991381029
 31
0.0
  0
LINE
  5
4E8
330
1F
100
AcDbEntity
  8
0
  6
CONTINUOUS
 62
     7
100
AcDbLine
 10
197.1423727061
 20
270.2454416338
 30
0.0
 11
199.1317410555
 21
269.4496609527
 31
0.0
  0
ELLIPSE
  5
4E9
330
1F
100
AcDbEntity
  8
0
  6
CONTINUOUS
 62
     7
100
AcDbEllipse
 10
195.7283551797
 20
271.6596402132
 30
0.0
 11
1.414213562373817
 21
-1.414213562373789
 31
0.0
210
0.0
220
0.0
230
1.0
 40
0.0052360356
 41
4.712388980384699
 42
6.270968002415552
  0
LINE
  5
4EA
330
1F
100
AcDbEntity
  8
0
  6
CONTINUOUS
 62
     7
100
AcDbLine
 10
195.7209500085
 20
271.6522351164
 30
0.0
 11
191.1740478661
 21
276.1991381029
 31
0.0
  0
LINE
  5
4EB
330
1F
100
AcDbEntity
  8
0
  6
CONTINUOUS
 62
     7
100
AcDbLine
 10
169.0398788612
 20
276.1991381029
 30
0.0
 11
162.2899648335
 21
269.4496609527
 31
0.0
  0
LINE
  5
4EC
330
1F
100
AcDbEntity
  8
0
  6
CONTINUOUS
 62
     7
100
AcDbLine
 10
170.2476580228
 20
276.1991381029
 30
0.0
 11
169.0398788612
 21
276.1991381029
 31
0.0
  0
LINE
  5
4ED
330
1F
100
AcDbEntity
  8
0
  6
CONTINUOUS
 62
     7
100
AcDbLine
 10
170.2476580228
 20
276.1991381029
 30
0.0
 11
165.7007558804
 21
271.6522351164
 31
0.0
  0
ELLIPSE
  5
4EE
330
1F
100
AcDbEntity
  8
0
  6
CONTINUOUS
 62
     7
100
AcDbEllipse
 10
165.6933507092
 20
271.6596402132
 30
0.0
 11
1.414213562373817
 21
1.414213562373789
 31
0.0
210
0.0
220
0.0
230
1.0
 40
0.0052360356
 41
3.153809958357319
 42
4.71238898038468
  0
LINE
  5
4EF
330
1F
100
AcDbEntity
  8
0
  6
CONTINUOUS
 62
     7
100
AcDbLine
 10
164.2793331828
 20
270.2454416338
 30
0.0
 11
162.2899648335
 21
269.4496609527
 31
0.0
  0
ARC
  5
4F0
330
1F
100
AcDbEntity
  8
0
  6
CONTINUOUS
 62
     7
100
AcDbCircle
 10
184.8971444455
 20
268.128167219
 30
0.0
 40
8.000000000000016
100
AcDbArc
 50
45.0
 51
70.9658815035
  0
LINE
  5
4F1
330
1F
100
AcDbEntity
  8
0
  6
CONTINUOUS
 62
     7
100
AcDbLine
 10
187.5061936278
 20
275.6907635392
 30
0.0
 11
186.6938684668
 21
281.86098526
 31
0.0
  0
ARC
  5
4F2
330
1F
100
AcDbEntity
  8
0
  6
CONTINUOUS
 62
     7
100
AcDbCircle
 10
180.7108529445
 20
286.628167219
 30
0.0
 40
7.650000000000034
100
AcDbArc
 50
218.5473413783
 51
321.4526586217
  0
LINE
  5
4F3
330
1F
100
AcDbEntity
  8
0
  6
CONTINUOUS
 62
     7
100
AcDbLine
 10
174.7278374221
 20
281.86098526
 30
0.0
 11
173.9155122612
 21
275.6907635392
 31
0.0
  0
ARC
  5
4F4
330
1F
100
AcDbEntity
  8
0
  6
CONTINUOUS
 62
     7
100
AcDbCircle
 10
176.5245614434
 20
268.128167219
 30
0.0
 40
8.000000000000016
100
AcDbArc
 50
109.0341184965
 51
135.0
  0
LINE
  5
4F5
330
1F
100
AcDbEntity
  8
0
  6
CONTINUOUS
 62
     7
100
AcDbLine
 10
170.8677074473
 20
273.7850215543
 30
0.0
 11
167.2178384449
 21
270.1351525519
 31
0.0
  0
LINE
  5
4F6
330
1F
100
AcDbEntity
  8
0
  6
CONTINUOUS
 62
     7
100
AcDbLine
 10
165.7007558804
 20
271.6522351164
 30
0.0
 11
167.2178384449
 21
270.1351525519
 31
0.0
  0
ELLIPSE
  5
4F7
330
1F
100
AcDbEntity
  8
0
  6
CONTINUOUS
 62
     7
100
AcDbEllipse
 10
177.3190169435
 20
269.128167219
 30
0.0
 11
10.00027415693054
 21
0.0
 31
0.0
210
0.0
220
0.0
230
1.0
 40
0.9999725851
 41
2.050162364611682
 42
2.356208197850965
  0
LINE
  5
4F8
330
1F
100
AcDbEntity
  8
0
  6
CONTINUOUS
 62
     7
100
AcDbLine
 10
173.7108527284
 20
285.6281669136
 30
0.0
 11
172.7067230802
 21
278.0010421319
 31
0.0
  0
LINE
  5
4F9
330
1F
100
AcDbEntity
  8
0
  6
CONTINUOUS
 62
     7
100
AcDbLine
 10
174.6426982406
 20
285.6281669136
 30
0.0
 11
173.7108527284
 21
285.6281669136
 31
0.0
  0
ARC
  5
4FA
330
1F
100
AcDbEntity
  8
0
  6
CONTINUOUS
 62
     7
100
AcDbCircle
 10
180.7108529445
 20
286.628167219
 30
0.0
 40
6.150000000000007
100
AcDbArc
 50
189.3579362847
 51
350.6420637153
  0
LINE
  5
4FB
330
1F
100
AcDbEntity
  8
0
  6
CONTINUOUS
 62
     7
100
AcDbLine
 10
187.7108531605
 20
285.6281669136
 30
0.0
 11
186.7790076483
 21
285.6281669136
 31
0.0
  0
LINE
  5
4FC
330
1F
100
AcDbEntity
  8
0
  6
CONTINUOUS
 62
     7
100
AcDbLine
 10
188.7149828087
 20
278.0010421319
 30
0.0
 11
187.7108531605
 21
285.6281669136
 31
0.0
  0
ELLIPSE
  5
4FD
330
1F
100
AcDbEntity
  8
0
  6
CONTINUOUS
 62
     7
100
AcDbEllipse
 10
184.1026889454
 20
269.128167219
 30
0.0
 11
-10.00027415693054
 21
0.0
 31
0.0
210
0.0
220
0.0
230
1.0
 40
0.9999725851
 41
3.926977109328635
 42
4.233022942567919
  0
LINE
  5
4FE
330
1F
100
AcDbEntity
  8
0
  6
CONTINUOUS
 62
     7
100
AcDbLine
 10
194.203867444
 20
270.1351525519
 30
0.0
 11
195.7209500085
 21
271.6522351164
 31
0.0
  0
LINE
  5
4FF
330
1F
100
AcDbEntity
  8
0
  6
CONTINUOUS
 62
     7
100
AcDbLine
 10
194.203867444
 20
270.1351525519
 30
0.0
 11
190.5539984416
 21
273.7850215543
 31
0.0
  0
LINE
  5
500
330
1F
100
AcDbEntity
  8
0
  6
CONTINUOUS
 62
     7
100
AcDbLine
 10
197.1423727061
 20
270.2454416338
 30
0.0
 11
195.6179755341
 21
268.7210444618
 31
0.0
  0
LWPOLYLINE
  5
501
330
1F
100
AcDbEntity
  8
0
  6
CONTINUOUS
 62
     7
100
AcDbPolyline
 90
        9
 70
   128
 43
0.0
 10
195.6179755341
 20
268.7210444618
 10
195.5878789138
 20
268.7511415477
 10
195.5054168191
 20
268.8336031768
 10
195.3737091806
 20
268.9653108153
 10
195.1977404367
 20
269.1412800248
 10
194.9841667499
 20
269.3548532459
 10
194.7410701375
 20
269.5979498583
 10
194.4776483413
 20
269.8613716546
 10
194.203867444
 20
270.1351525519
  0
LWPOLYLINE
  5
502
330
1F
100
AcDbEntity
  8
0
  6
CONTINUOUS
 62
     7
100
AcDbPolyline
 90
        9
 70
   128
 43
0.0
 10
167.2178384449
 20
270.1351525519
 10
166.9440575477
 20
269.8613716546
 10
166.6806357514
 20
269.5979498583
 10
166.437539139
 20
269.3548532459
 10
166.2239654522
 20
269.1412800248
 10
166.0479967084
 20
268.9653108153
 10
165.9162890699
 20
268.8336031768
 10
165.8338269751
 20
268.7511415477
 10
165.8037303548
 20
268.7210444618
  0
LINE
  5
503
330
1F
100
AcDbEntity
  8
0
  6
CONTINUOUS
 62
     7
100
AcDbLine
 10
165.8037303548
 20
268.7210444618
 30
0.0
 11
164.2793331828
 21
270.2454416338
 31
0.0
  0
ELLIPSE
  5
504
330
1F
100
AcDbEntity
  8
0
  6
CONTINUOUS
 62
     7
100
AcDbEllipse
 10
185.3109250493
 20
269.128167219
 30
0.0
 11
8.338831768375769
 21
-5.520294040474711
 31
0.0
210
0.0
220
0.0
230
1.0
 40
0.999929807
 41
1.370180588226811
 42
1.815961664235657
  0
ELLIPSE
  5
505
330
1F
100
AcDbEntity
  8
0
  6
CONTINUOUS
 62
     7
100
AcDbEllipse
 10
176.1107808396
 20
269.128167219
 30
0.0
 11
8.338831768373353
 21
5.520294040478346
 31
0.0
210
0.0
220
0.0
230
1.0
 40
0.999929807
 41
1.325630989353698
 42
1.771412065362547
  0
LINE
  5
506
330
1F
100
AcDbEntity
  8
0
  6
CONTINUOUS
 62
     7
100
AcDbLine
 10
197.0107097711
 20
267.3283106904
 30
0.0
 11
199.1317410555
 21
269.4496609527
 31
0.0
  0
LINE
  5
507
330
1F
100
AcDbEntity
  8
0
  6
CONTINUOUS
 62
     7
100
AcDbLine
 10
195.6179755341
 20
268.7210444618
 30
0.0
 11
197.0107097711
 21
267.3283106904
 31
0.0
  0
LINE
  5
508
330
1F
100
AcDbEntity
  8
0
  6
CONTINUOUS
 62
     7
100
AcDbLine
 10
162.2899648335
 20
269.4496609527
 30
0.0
 11
164.4109961178
 21
267.3283106904
 31
0.0
  0
LINE
  5
509
330
1F
100
AcDbEntity
  8
0
  6
CONTINUOUS
 62
     7
100
AcDbLine
 10
165.8037303548
 20
268.7210444618
 30
0.0
 11
164.4109961178
 21
267.3283106904
 31
0.0
  0
LINE
  5
50A
330
1F
100
AcDbEntity
  8
0
  6
CONTINUOUS
 62
     7
100
AcDbLine
 10
184.8971446577
 20
276.128167219
 30
0.0
 11
176.5245612312
 21
276.128167219
 31
0.0
  0
ARC
  5
50B
330
1F
100
AcDbEntity
  8
0
  6
CONTINUOUS
 62
     7
100
AcDbCircle
 10
184.8971444455
 20
268.128167219
 30
0.0
 40
8.000000000000016
100
AcDbArc
 50
70.9658815035
 51
90.0
  0
ARC
  5
50C
330
1F
100
AcDbEntity
  8
0
  6
CONTINUOUS
 62
     7
100
AcDbCircle
 10
176.5245614434
 20
268.128167219
 30
0.0
 40
8.000000000000016
100
AcDbArc
 50
90.0
 51
109.0341184965
  0
LINE
  5
50D
330
1F
100
AcDbEntity
  8
0
  6
CONTINUOUS
 62
     7
100
AcDbLine
 10
174.5201385181
 20
265.4805322434
 30
0.0
 11
173.7499375429
 21
271.3307914581
 31
0.0
  0
ARC
  5
50E
330
1F
100
AcDbEntity
  8
0
  6
CONTINUOUS
 62
     7
100
AcDbCircle
 10
172.2108529445
 20
271.128167219
 30
0.0
 40
1.55236519478466
100
AcDbArc
 50
7.5
 51
172.5
  0
LINE
  5
50F
330
1F
100
AcDbEntity
  8
0
  6
CONTINUOUS
 62
     7
100
AcDbLine
 10
170.6717683535
 20
271.3307914581
 30
0.0
 11
169.9015673783
 21
265.4805322434
 31
0.0
  0
LINE
  5
510
330
1F
100
AcDbEntity
  8
0
  6
CONTINUOUS
 62
     7
100
AcDbLine
 10
169.9015673783
 20
265.4805322434
 30
0.0
 11
169.6245613109
 21
265.4805322434
 31
0.0
  0
ARC
  5
511
330
1F
100
AcDbEntity
  8
0
  6
CONTINUOUS
 62
     7
100
AcDbCircle
 10
169.6245614434
 20
273.428167219
 30
0.0
 40
7.947634805215387
100
AcDbArc
 50
229.5226962015
 51
270.0
  0
ARC
  5
512
330
1F
100
AcDbEntity
  8
0
  6
CONTINUOUS
 62
     7
100
AcDbCircle
 10
191.7971444455
 20
273.428167219
 30
0.0
 40
7.947634805215387
100
AcDbArc
 50
270.0
 51
310.4773037985
  0
LINE
  5
513
330
1F
100
AcDbEntity
  8
0
  6
CONTINUOUS
 62
     7
100
AcDbLine
 10
191.797144578
 20
265.4805322434
 30
0.0
 11
191.5201385107
 21
265.4805322434
 31
0.0
  0
LINE
  5
514
330
1F
100
AcDbEntity
  8
0
  6
CONTINUOUS
 62
     7
100
AcDbLine
 10
191.5201385107
 20
265.4805322434
 30
0.0
 11
190.7499375354
 21
271.3307914581
 31
0.0
  0
ARC
  5
515
330
1F
100
AcDbEntity
  8
0
  6
CONTINUOUS
 62
     7
100
AcDbCircle
 10
189.2108529445
 20
271.128167219
 30
0.0
 40
1.552365194784688
100
AcDbArc
 50
7.5
 51
172.5
  0
LINE
  5
516
330
1F
100
AcDbEntity
  8
0
  6
CONTINUOUS
 62
     7
100
AcDbLine
 10
187.671768346
 20
271.3307914581
 30
0.0
 11
186.9015673708
 21
265.4805322434
 31
0.0
  0
LINE
  5
517
330
1F
100
AcDbEntity
  8
0
  6
CONTINUOUS
 62
     7
100
AcDbLine
 10
186.9015673708
 20
265.4805322434
 30
0.0
 11
184.9048103738
 21
265.4805322434
 31
0.0
  0
LINE
  5
518
330
1F
100
AcDbEntity
  8
0
  6
CONTINUOUS
 62
     7
100
AcDbLine
 10
184.6071410525
 20
272.2982828762
 30
0.0
 11
184.9048103738
 21
265.4805322434
 31
0.0
  0
ARC
  5
519
330
1F
100
AcDbEntity
  8
0
  6
CONTINUOUS
 62
     7
100
AcDbCircle
 10
180.7108529445
 20
272.128167219
 30
0.0
 40
3.900000000000009
100
AcDbArc
 50
2.5
 51
177.5
  0
LINE
  5
51A
330
1F
100
AcDbEntity
  8
0
  6
CONTINUOUS
 62
     7
100
AcDbLine
 10
176.5168955151
 20
265.4805322434
 30
0.0
 11
176.8145648364
 21
272.2982828762
 31
0.0
  0
LINE
  5
51B
330
1F
100
AcDbEntity
  8
0
  6
CONTINUOUS
 62
     7
100
AcDbLine
 10
176.5168955151
 20
265.4805322434
 30
0.0
 11
174.5201385181
 21
265.4805322434
 31
0.0
  0
LINE
  5
51C
330
1F
100
AcDbEntity
  8
0
  6
CONTINUOUS
 62
     7
100
AcDbLine
 10
184.9059535723
 20
265.4543499719
 30
0.0
 11
176.5157523166
 21
265.4543499719
 31
0.0
  0
LINE
  5
51D
330
1F
100
AcDbEntity
  8
0
  6
CONTINUOUS
 62
     7
100
AcDbLine
 10
184.9059535723
 20
265.4543499719
 30
0.0
 11
184.9048103738
 21
265.4805322434
 31
0.0
  0
LINE
  5
51E
330
1F
100
AcDbEntity
  8
0
  6
CONTINUOUS
 62
     7
100
AcDbLine
 10
186.9015673708
 20
265.4805322434
 30
0.0
 11
186.9474904213
 21
265.428166769
 31
0.0
  0
LINE
  5
51F
330
1F
100
AcDbEntity
  8
0
  6
CONTINUOUS
 62
     7
100
AcDbLine
 10
186.9474904213
 20
265.428166769
 30
0.0
 11
174.4742154676
 21
265.428166769
 31
0.0
  0
LINE
  5
520
330
1F
100
AcDbEntity
  8
0
  6
CONTINUOUS
 62
     7
100
AcDbLine
 10
174.5201385181
 20
265.4805322434
 30
0.0
 11
174.4742154676
 21
265.428166769
 31
0.0
  0
LINE
  5
521
330
1F
100
AcDbEntity
  8
0
  6
CONTINUOUS
 62
     7
100
AcDbLine
 10
176.5168955151
 20
265.4805322434
 30
0.0
 11
176.5157523166
 21
265.4543499719
 31
0.0
  0
LINE
  5
522
330
1F
100
AcDbEntity
  8
0
  6
CONTINUOUS
 62
     7
100
AcDbLine
 10
187.671768346
 20
271.3307914581
 30
0.0
 11
187.7227950442
 21
271.3240738283
 31
0.0
  0
LINE
  5
523
330
1F
100
AcDbEntity
  8
0
  6
CONTINUOUS
 62
     7
100
AcDbLine
 10
187.7227950442
 20
271.3240738283
 30
0.0
 11
186.9474904213
 21
265.428166769
 31
0.0
  0
LINE
  5
524
330
1F
100
AcDbEntity
  8
0
  6
CONTINUOUS
 62
     7
100
AcDbLine
 10
169.9015673783
 20
265.4805322434
 30
0.0
 11
169.9474899631
 21
265.428166769
 31
0.0
  0
LINE
  5
525
330
1F
100
AcDbEntity
  8
0
  6
CONTINUOUS
 62
     7
100
AcDbLine
 10
170.6717683535
 20
271.3307914581
 30
0.0
 11
170.7227955174
 21
271.3240738283
 31
0.0
  0
LINE
  5
526
330
1F
100
AcDbEntity
  8
0
  6
CONTINUOUS
 62
     7
100
AcDbLine
 10
170.7227955174
 20
271.3240738283
 30
0.0
 11
169.9474899631
 21
265.428166769
 31
0.0
  0
LINE
  5
527
330
1F
100
AcDbEntity
  8
0
  6
CONTINUOUS
 62
     7
100
AcDbLine
 10
173.7499375429
 20
271.3307914581
 30
0.0
 11
173.6989108447
 21
271.3240738283
 31
0.0
  0
LINE
  5
528
330
1F
100
AcDbEntity
  8
0
  6
CONTINUOUS
 62
     7
100
AcDbLine
 10
174.4742154676
 20
265.428166769
 30
0.0
 11
173.6989108447
 21
271.3240738283
 31
0.0
  0
LINE
  5
529
330
1F
100
AcDbEntity
  8
0
  6
CONTINUOUS
 62
     7
100
AcDbLine
 10
169.6245613109
 20
265.4805322434
 30
0.0
 11
169.6245613109
 21
265.428166769
 31
0.0
  0
ARC
  5
52A
330
1F
100
AcDbEntity
  8
0
  6
CONTINUOUS
 62
     7
100
AcDbCircle
 10
169.6245614434
 20
273.4269487803
 30
0.0
 40
7.998781561251121
100
AcDbArc
 50
229.4875265699
 51
270.0
  0
LINE
  5
52B
330
1F
100
AcDbEntity
  8
0
  6
CONTINUOUS
 62
     7
100
AcDbLine
 10
169.9474899631
 20
265.428166769
 30
0.0
 11
169.6245613109
 21
265.428166769
 31
0.0
  0
LINE
  5
52C
330
1F
100
AcDbEntity
  8
0
  6
CONTINUOUS
 62
     7
100
AcDbLine
 10
191.797144578
 20
265.4805322434
 30
0.0
 11
191.797144578
 21
265.428166769
 31
0.0
  0
ARC
  5
52D
330
1F
100
AcDbEntity
  8
0
  6
CONTINUOUS
 62
     7
100
AcDbCircle
 10
191.7971444455
 20
273.4269487803
 30
0.0
 40
7.998781561251121
100
AcDbArc
 50
270.0
 51
310.5124734301
  0
LINE
  5
52E
330
1F
100
AcDbEntity
  8
0
  6
CONTINUOUS
 62
     7
100
AcDbLine
 10
191.5201385107
 20
265.4805322434
 30
0.0
 11
191.4742159258
 21
265.428166769
 31
0.0
  0
LINE
  5
52F
330
1F
100
AcDbEntity
  8
0
  6
CONTINUOUS
 62
     7
100
AcDbLine
 10
191.797144578
 20
265.428166769
 30
0.0
 11
191.4742159258
 21
265.428166769
 31
0.0
  0
LINE
  5
530
330
1F
100
AcDbEntity
  8
0
  6
CONTINUOUS
 62
     7
100
AcDbLine
 10
190.7499375354
 20
271.3307914581
 30
0.0
 11
190.6989103716
 21
271.3240738283
 31
0.0
  0
LINE
  5
531
330
1F
100
AcDbEntity
  8
0
  6
CONTINUOUS
 62
     7
100
AcDbLine
 10
191.4742159258
 20
265.428166769
 30
0.0
 11
190.6989103716
 21
271.3240738283
 31
0.0
  0
ARC
  5
532
330
1F
100
AcDbEntity
  8
0
  6
CONTINUOUS
 62
     7
100
AcDbCircle
 10
189.2108529445
 20
271.1283958434
 30
0.0
 40
1.500868287559235
100
AcDbArc
 50
7.491346913
 51
172.508653087
  0
ARC
  5
533
330
1F
100
AcDbEntity
  8
0
  6
CONTINUOUS
 62
     7
100
AcDbCircle
 10
172.2108529445
 20
271.1283958434
 30
0.0
 40
1.500868287559207
100
AcDbArc
 50
7.491346913
 51
172.508653087
  0
ARC
  5
534
330
1F
100
AcDbEntity
  8
0
  6
CONTINUOUS
 62
     7
100
AcDbCircle
 10
180.7108529445
 20
272.128167219
 30
0.0
 40
2.126182597392317
100
AcDbArc
 50
178.4990075801
 51
1.5009924199
  0
LINE
  5
535
330
1F
100
AcDbEntity
  8
0
  6
CONTINUOUS
 62
     7
100
AcDbLine
 10
178.1998659551
 20
275.1122825337
 30
0.0
 11
178.5853999734
 21
272.1838610503
 31
0.0
  0
LINE
  5
536
330
1F
100
AcDbEntity
  8
0
  6
CONTINUOUS
 62
     7
100
AcDbLine
 10
182.8363059155
 20
272.1838610503
 30
0.0
 11
183.2218399338
 21
275.1122825337
 31
0.0
  0
ARC
  5
537
330
1F
100
AcDbEntity
  8
0
  6
CONTINUOUS
 62
     7
100
AcDbCircle
 10
180.7108529445
 20
272.1284872634
 30
0.0
 40
2.101020622514807
100
AcDbArc
 50
185.7509708805
 51
354.2490291197
  0
LWPOLYLINE
  5
538
330
1F
100
AcDbEntity
  8
0
  6
CONTINUOUS
 62
     7
100
AcDbPolyline
 90
        4
 70
   128
 43
0.0
 10
178.6204072248
 20
271.9179544854
 10
178.6145086933
 20
271.9627580862
 10
178.5990329061
 20
272.0803077589
 10
178.5853999734
 20
272.1838610503
  0
LWPOLYLINE
  5
539
330
1F
100
AcDbEntity
  8
0
  6
CONTINUOUS
 62
     7
100
AcDbPolyline
 90
        9
 70
   128
 43
0.0
 10
182.8363059155
 20
272.1838610503
 10
182.8282199401
 20
272.1224412579
 10
182.8215875264
 20
272.0720632258
 10
182.8161311403
 20
272.0306179743
 10
182.8116228405
 20
271.9963737089
 10
182.8078754313
 20
271.9679101627
 10
182.8047340803
 20
271.9440492127
 10
182.8020679366
 20
271.9237971376
 10
182.8012986641
 20
271.9179544854
  0
LINE
  5
53A
330
1F
100
AcDbEntity
  8
0
  6
CONTINUOUS
 62
     7
100
AcDbLine
 10
178.6204072248
 20
41.9653612484
 30
0.0
 11
177.6711646069
 21
34.7551484888
 31
0.0
  0
LINE
  5
53B
330
1F
100
AcDbEntity
  8
0
  6
CONTINUOUS
 62
     7
100
AcDbLine
 10
177.6711646069
 20
34.7551484888
 30
0.0
 11
176.1114270028
 21
34.7551484888
 31
0.0
  0
ELLIPSE
  5
53C
330
1F
100
AcDbEntity
  8
0
  6
CONTINUOUS
 62
     7
100
AcDbEllipse
 10
176.1107808396
 20
44.7551485149
 30
0.0
 11
8.338831768373355
 21
-5.52029404047837
 31
0.0
210
0.0
220
0.0
230
1.0
 40
0.999929807
 41
4.511773241817057
 42
5.297185112873126
  0
LINE
  5
53D
330
1F
100
AcDbEntity
  8
0
  6
CONTINUOUS
 62
     7
100
AcDbLine
 10
169.0398788612
 20
37.684177631
 30
0.0
 11
162.2899648335
 21
44.4336547812
 31
0.0
  0
LINE
  5
53E
330
1F
100
AcDbEntity
  8
0
  6
CONTINUOUS
 62
     7
100
AcDbLine
 10
162.2899648335
 20
44.4336547812
 30
0.0
 11
164.4109961178
 21
46.5550050435
 31
0.0
  0
LINE
  5
53F
330
1F
100
AcDbEntity
  8
0
  6
CONTINUOUS
 62
     7
100
AcDbLine
 10
164.4284435149
 20
46.5375567151
 30
0.0
 11
164.4109961178
 21
46.5550050435
 31
0.0
  0
ARC
  5
540
330
1F
100
AcDbEntity
  8
0
  6
CONTINUOUS
 62
     7
100
AcDbCircle
 10
169.6245614434
 20
40.4563669536
 30
0.0
 40
7.998781561251128
100
AcDbArc
 50
90.0
 51
130.5124734301
  0
LINE
  5
541
330
1F
100
AcDbEntity
  8
0
  6
CONTINUOUS
 62
     7
100
AcDbLine
 10
170.7227955174
 20
42.5592419056
 30
0.0
 11
169.9474899631
 21
48.4551489649
 31
0.0
  0
ARC
  5
542
330
1F
100
AcDbEntity
  8
0
  6
CONTINUOUS
 62
     7
100
AcDbCircle
 10
172.2108529445
 20
42.7549198905
 30
0.0
 40
1.500868287559212
100
AcDbArc
 50
187.491346913
 51
352.508653087
  0
LINE
  5
543
330
1F
100
AcDbEntity
  8
0
  6
CONTINUOUS
 62
     7
100
AcDbLine
 10
174.4742154676
 20
48.4551489649
 30
0.0
 11
173.6989108447
 21
42.5592419056
 31
0.0
  0
LINE
  5
544
330
1F
100
AcDbEntity
  8
0
  6
CONTINUOUS
 62
     7
100
AcDbLine
 10
186.9474904213
 20
48.4551489649
 30
0.0
 11
174.4742154676
 21
48.4551489649
 31
0.0
  0
LINE
  5
545
330
1F
100
AcDbEntity
  8
0
  6
CONTINUOUS
 62
     7
100
AcDbLine
 10
187.7227950442
 20
42.5592419056
 30
0.0
 11
186.9474904213
 21
48.4551489649
 31
0.0
  0
ARC
  5
546
330
1F
100
AcDbEntity
  8
0
  6
CONTINUOUS
 62
     7
100
AcDbCircle
 10
189.2108529445
 20
42.7549198905
 30
0.0
 40
1.50086828755924
100
AcDbArc
 50
187.491346913
 51
352.508653087
  0
LINE
  5
547
330
1F
100
AcDbEntity
  8
0
  6
CONTINUOUS
 62
     7
100
AcDbLine
 10
191.4742159258
 20
48.4551489649
 30
0.0
 11
190.6989103716
 21
42.5592419056
 31
0.0
  0
LINE
  5
548
330
1F
100
AcDbEntity
  8
0
  6
CONTINUOUS
 62
     7
100
AcDbLine
 10
191.797144578
 20
48.4551489649
 30
0.0
 11
191.4742159258
 21
48.4551489649
 31
0.0
  0
ARC
  5
549
330
1F
100
AcDbEntity
  8
0
  6
CONTINUOUS
 62
     7
100
AcDbCircle
 10
191.7971444455
 20
40.4563669536
 30
0.0
 40
7.998781561251128
100
AcDbArc
 50
49.4875265699
 51
90.0
  0
LINE
  5
54A
330
1F
100
AcDbEntity
  8
0
  6
CONTINUOUS
 62
     7
100
AcDbLine
 10
197.0107097711
 20
46.5550050435
 30
0.0
 11
196.993262374
 21
46.5375567151
 31
0.0
  0
LINE
  5
54B
330
1F
100
AcDbEntity
  8
0
  6
CONTINUOUS
 62
     7
100
AcDbLine
 10
197.0107097711
 20
46.5550050435
 30
0.0
 11
199.1317410555
 21
44.4336547812
 31
0.0
  0
LINE
  5
54C
330
1F
100
AcDbEntity
  8
0
  6
CONTINUOUS
 62
     7
100
AcDbLine
 10
199.1317410555
 20
44.4336547812
 30
0.0
 11
192.3818270277
 21
37.684177631
 31
0.0
  0
ELLIPSE
  5
54D
330
1F
100
AcDbEntity
  8
0
  6
CONTINUOUS
 62
     7
100
AcDbEllipse
 10
185.3109250493
 20
44.7551485149
 30
0.0
 11
8.338831768375769
 21
5.520294040474725
 31
0.0
210
0.0
220
0.0
230
1.0
 40
0.999929807
 41
4.12759284789672
 42
4.913004718952786
  0
LINE
  5
54E
330
1F
100
AcDbEntity
  8
0
  6
CONTINUOUS
 62
     7
100
AcDbLine
 10
185.3102788862
 20
34.7551484888
 30
0.0
 11
183.7505412821
 21
34.7551484888
 31
0.0
  0
LINE
  5
54F
330
1F
100
AcDbEntity
  8
0
  6
CONTINUOUS
 62
     7
100
AcDbLine
 10
183.7505412821
 20
34.7551484888
 30
0.0
 11
182.8012986641
 21
41.9653612484
 31
0.0
  0
ARC
  5
550
330
1F
100
AcDbEntity
  8
0
  6
CONTINUOUS
 62
     7
100
AcDbCircle
 10
180.7108529445
 20
41.7548284705
 30
0.0
 40
2.101020622514805
100
AcDbArc
 50
5.7509708803
 51
174.2490291195
  0
LINE
  5
551
330
1F
100
AcDbEntity
  8
0
  6
CONTINUOUS
 62
     7
100
AcDbLine
 10
169.9474899631
 20
48.4551489649
 30
0.0
 11
169.6245613109
 21
48.4551489649
 31
0.0
  0
ARC
  5
552
330
1F
100
AcDbEntity
  8
0
  6
CONTINUOUS
 62
     7
100
AcDbCircle
 10
180.7108529445
 20
41.7551485149
 30
0.0
 40
3.900000000000002
100
AcDbArc
 50
229.9210296072
 51
310.0789703928
  0
LINE
  5
553
330
1F
100
AcDbEntity
  8
0
  6
CONTINUOUS
 62
     7
100
AcDbLine
 10
183.7505412821
 20
34.7551484888
 30
0.0
 11
177.6711646069
 21
34.7551484888
 31
0.0
  0
LINE
  5
554
330
1F
100
AcDbEntity
  8
0
  6
CONTINUOUS
 62
     7
100
AcDbLine
 10
180.2507328227
 20
34.4551485327
 30
0.0
 11
180.8564012151
 21
34.4551485327
 31
0.0
  0
LINE
  5
555
330
1F
100
AcDbEntity
  8
0
  6
CONTINUOUS
 62
     7
100
AcDbLine
 10
180.2507328227
 20
34.4551485327
 30
0.0
 11
180.2355123925
 21
34.7551484888
 31
0.0
  0
LINE
  5
556
330
1F
100
AcDbEntity
  8
0
  6
CONTINUOUS
 62
     7
100
AcDbLine
 10
180.8564012151
 20
34.4551485327
 30
0.0
 11
180.8826478207
 21
34.7551484888
 31
0.0
  0
LINE
  5
557
330
1F
100
AcDbEntity
  8
0
  6
CONTINUOUS
 62
     7
100
AcDbLine
 10
180.0753442055
 20
34.4551485327
 30
0.0
 11
180.2507328227
 21
34.4551485327
 31
0.0
  0
LINE
  5
558
330
1F
100
AcDbEntity
  8
0
  6
CONTINUOUS
 62
     7
100
AcDbLine
 10
180.0753442055
 20
34.4551485327
 30
0.0
 11
180.0300837328
 21
34.7551484888
 31
0.0
  0
LINE
  5
559
330
1F
100
AcDbEntity
  8
0
  6
CONTINUOUS
 62
     7
100
AcDbLine
 10
179.6538305769
 20
34.4551485327
 30
0.0
 11
179.955537589
 21
34.4551485327
 31
0.0
  0
LWPOLYLINE
  5
55A
330
1F
100
AcDbEntity
  8
0
  6
CONTINUOUS
 62
     7
100
AcDbPolyline
 90
        3
 70
   128
 43
0.0
 10
179.6538305769
 20
34.4551485327
 10
179.640024651
 20
34.6051475794
 10
179.6262375844
 20
34.7551484888
  0
LINE
  5
55B
330
1F
100
AcDbEntity
  8
0
  6
CONTINUOUS
 62
     7
100
AcDbLine
 10
181.7986952208
 20
34.4551485327
 30
0.0
 11
181.8249554906
 21
34.7551484888
 31
0.0
  0
LINE
  5
55C
330
1F
100
AcDbEntity
  8
0
  6
CONTINUOUS
 62
     7
100
AcDbLine
 10
180.8876405246
 20
34.4551485327
 30
0.0
 11
181.7986952208
 21
34.4551485327
 31
0.0
  0
LINE
  5
55D
330
1F
100
AcDbEntity
  8
0
  6
CONTINUOUS
 62
     7
100
AcDbLine
 10
179.5521867296
 20
34.4551485327
 30
0.0
 11
179.491622124
 21
34.7551484888
 31
0.0
  0
LINE
  5
55E
330
1F
100
AcDbEntity
  8
0
  6
CONTINUOUS
 62
     7
100
AcDbLine
 10
179.5521867296
 20
34.4551485327
 30
0.0
 11
179.5695596209
 21
34.4551485327
 31
0.0
  0
LINE
  5
55F
330
1F
100
AcDbEntity
  8
0
  6
CONTINUOUS
 62
     7
100
AcDbLine
 10
181.8435806615
 20
34.4551485327
 30
0.0
 11
181.8698273107
 21
34.7551484888
 31
0.0
  0
LWPOLYLINE
  5
560
330
1F
100
AcDbEntity
  8
0
  6
CONTINUOUS
 62
     7
100
AcDbPolyline
 90
        3
 70
   128
 43
0.0
 10
179.5237203894
 20
34.4551485327
 10
179.5076430842
 20
34.605145484
 10
179.491622124
 20
34.7551484888
  0
LINE
  5
561
330
1F
100
AcDbEntity
  8
0
  6
CONTINUOUS
 62
     7
100
AcDbLine
 10
179.5237203894
 20
34.4551485327
 30
0.0
 11
179.5521867296
 21
34.4551485327
 31
0.0
  0
LWPOLYLINE
  5
562
330
1F
100
AcDbEntity
  8
0
  6
CONTINUOUS
 62
     7
100
AcDbPolyline
 90
        4
 70
   128
 43
0.0
 10
179.5178778536
 20
34.4551485327
 10
179.5100006109
 20
34.5451538746
 10
179.5021234846
 20
34.6351592166
 10
179.491622124
 20
34.7551484888
  0
LWPOLYLINE
  5
563
330
1F
100
AcDbEntity
  8
0
  6
CONTINUOUS
 62
     7
100
AcDbPolyline
 90
        4
 70
   128
 43
0.0
 10
183.1897325881
 20
34.4551485327
 10
183.1976073861
 20
34.5451515463
 10
183.2054821841
 20
34.63515456
 10
183.2159812163
 20
34.7551484888
  0
LINE
  5
564
330
1F
100
AcDbEntity
  8
0
  6
CONTINUOUS
 62
     7
100
AcDbLine
 10
182.0079387232
 20
34.4551485327
 30
0.0
 11
183.1897325881
 21
34.4551485327
 31
0.0
  0
LWPOLYLINE
  5
565
330
1F
100
AcDbEntity
  8
0
  6
CONTINUOUS
 62
     7
100
AcDbPolyline
 90
        4
 70
   128
 43
0.0
 10
182.0079387232
 20
34.4551485327
 10
182.0079415172
 20
34.5451515463
 10
182.0079444276
 20
34.6351543271
 10
182.0079482693
 20
34.7551484888
  0
LINE
  5
566
330
1F
100
AcDbEntity
  8
0
  6
CONTINUOUS
 62
     7
100
AcDbLine
 10
179.5102474114
 20
34.4551485327
 30
0.0
 11
179.5140619922
 21
34.4987493304
 31
0.0
  0
LINE
  5
567
330
1F
100
AcDbEntity
  8
0
  6
CONTINUOUS
 62
     7
100
AcDbLine
 10
178.9045790044
 20
34.4551485327
 30
0.0
 11
179.5102474114
 21
34.4551485327
 31
0.0
  0
LINE
  5
568
330
1F
100
AcDbEntity
  8
0
  6
CONTINUOUS
 62
     7
100
AcDbLine
 10
178.9045790044
 20
34.4551485327
 30
0.0
 11
178.889358516
 21
34.7551484888
 31
0.0
  0
LINE
  5
569
330
1F
100
AcDbEntity
  8
0
  6
CONTINUOUS
 62
     7
100
AcDbLine
 10
178.7291903581
 20
34.4551485327
 30
0.0
 11
178.9045790044
 21
34.4551485327
 31
0.0
  0
LINE
  5
56A
330
1F
100
AcDbEntity
  8
0
  6
CONTINUOUS
 62
     7
100
AcDbLine
 10
178.7291903581
 20
34.4551485327
 30
0.0
 11
178.6839299436
 21
34.7551484888
 31
0.0
  0
LINE
  5
56B
330
1F
100
AcDbEntity
  8
0
  6
CONTINUOUS
 62
     7
100
AcDbLine
 10
182.0922095628
 20
34.4551485327
 30
0.0
 11
182.2025551062
 21
34.4551485327
 31
0.0
  0
LINE
  5
56C
330
1F
100
AcDbEntity
  8
0
  6
CONTINUOUS
 62
     7
100
AcDbLine
 10
188.6417966869
 20
35.3263712318
 30
0.0
 11
187.7108531605
 21
28.2551488203
 31
0.0
  0
LINE
  5
56D
330
1F
100
AcDbEntity
  8
0
  6
CONTINUOUS
 62
     7
100
AcDbLine
 10
187.7108531605
 20
28.2551488203
 30
0.0
 11
186.7790076483
 21
28.2551488203
 31
0.0
  0
ARC
  5
56E
330
1F
100
AcDbEntity
  8
0
  6
CONTINUOUS
 62
     7
100
AcDbCircle
 10
180.7108529445
 20
27.2551485149
 30
0.0
 40
6.150000000000007
100
AcDbArc
 50
9.3579362847
 51
170.6420637153
  0
LINE
  5
56F
330
1F
100
AcDbEntity
  8
0
  6
CONTINUOUS
 62
     7
100
AcDbLine
 10
174.6426982406
 20
28.2551488203
 30
0.0
 11
173.7108527284
 21
28.2551488203
 31
0.0
  0
LINE
  5
570
330
1F
100
AcDbEntity
  8
0
  6
CONTINUOUS
 62
     7
100
AcDbLine
 10
173.7108527284
 20
28.2551488203
 30
0.0
 11
172.7799092021
 21
35.3263712318
 31
0.0
  0
LINE
  5
571
330
1F
100
AcDbEntity
  8
0
  6
CONTINUOUS
 62
     7
100
AcDbLine
 10
243.4815266294
 20
76.5212192977
 30
0.0
 11
242.6857459484
 21
237.7105639948
 31
0.0
  0
LINE
  5
572
330
1F
100
AcDbEntity
  8
0
  6
CONTINUOUS
 62
     7
100
AcDbLine
 10
241.9571294574
 20
76.5212192977
 30
0.0
 11
243.4815266294
 21
76.5212192977
 31
0.0
  0
LINE
  5
573
330
1F
100
AcDbEntity
  8
0
  6
CONTINUOUS
 62
     7
100
AcDbLine
 10
241.9571294574
 20
76.5212192977
 30
0.0
 11
240.5643956861
 21
237.7290767394
 31
0.0
  0
LINE
  5
574
330
1F
100
AcDbEntity
  8
0
  6
CONTINUOUS
 62
     7
100
AcDbLine
 10
242.6857459484
 20
237.7105639948
 30
0.0
 11
240.5643956861
 21
237.7290767394
 31
0.0
  0
LINE
  5
575
330
1F
100
AcDbEntity
  8
0
  6
CONTINUOUS
 62
     7
100
AcDbLine
 10
249.4352230985
 20
74.545653149
 30
0.0
 11
249.4352230985
 21
237.6516622002
 31
0.0
  0
LINE
  5
576
330
1F
100
AcDbEntity
  8
0
  6
CONTINUOUS
 62
     7
100
AcDbLine
 10
249.4352230985
 20
74.545653149
 30
0.0
 11
244.888320112
 21
74.545653149
 31
0.0
  0
ELLIPSE
  5
577
330
1F
100
AcDbEntity
  8
0
  6
CONTINUOUS
 62
     7
100
AcDbEllipse
 10
244.8957252088
 20
76.5456590379
 30
0.0
 11
0.01480913616123303
 21
1.999972587500977
 31
0.0
210
0.0
220
0.0
230
1.0
 40
0.7070873962
 41
1.588249332243303
 42
3.146828354274282
  0
LINE
  5
578
330
1F
100
AcDbEntity
  8
0
  6
CONTINUOUS
 62
     7
100
AcDbLine
 10
249.4352230985
 20
237.6516622002
 30
0.0
 11
242.6857459484
 21
237.7105639948
 31
0.0
  0
LINE
  5
579
330
1F
100
AcDbEntity
  8
0
  6
CONTINUOUS
 62
     7
100
AcDbLine
 10
244.888320112
 20
74.545653149
 30
0.0
 11
243.3712375475
 21
74.545653149
 31
0.0
  0
ARC
  5
57A
330
1F
100
AcDbEntity
  8
0
  6
CONTINUOUS
 62
     7
100
AcDbCircle
 10
243.7190136374
 20
76.2884824811
 30
0.0
 40
1.777189435450649
100
AcDbArc
 50
172.4750566564
 51
258.715035108
  0
LINE
  5
57B
330
1F
100
AcDbEntity
  8
0
  6
CONTINUOUS
 62
     7
100
AcDbLine
 10
238.7166172391
 20
234.7456590118
 30
0.0
 11
238.6642517647
 21
237.7456590379
 31
0.0
  0
LINE
  5
57C
330
1F
100
AcDbEntity
  8
0
  6
CONTINUOUS
 62
     7
100
AcDbLine
 10
238.7166172391
 20
234.7456590118
 30
0.0
 11
240.6187793365
 21
234.7456590118
 31
0.0
  0
LINE
  5
57D
330
1F
100
AcDbEntity
  8
0
  6
CONTINUOUS
 62
     7
100
AcDbLine
 10
238.6642517647
 20
237.7456590379
 30
0.0
 11
240.5818440145
 21
237.7289244718
 31
0.0
  0
LINE
  5
57E
330
1F
100
AcDbEntity
  8
0
  6
CONTINUOUS
 62
     7
100
AcDbLine
 10
252.3642522408
 20
237.6261009462
 30
0.0
 11
252.3642522408
 21
155.1513090576
 31
0.0
  0
LWPOLYLINE
  5
57F
330
1F
100
AcDbEntity
  8
0
  6
CONTINUOUS
 62
     7
100
AcDbPolyline
 90
        9
 70
   128
 43
0.0
 10
252.3642522408
 20
155.1513090576
 10
252.3642522408
 20
155.1382705415
 10
252.3642522408
 20
155.1251575197
 10
252.3642522408
 20
155.1119923438
 10
252.3642522408
 20
155.0987824644
 10
252.3642522408
 20
155.0855353321
 10
252.3642522408
 20
155.0722583974
 10
252.3642522408
 20
155.0589665616
 10
252.364245023
 20
155.0456598247
  0
ELLIPSE
  5
580
330
1F
100
AcDbEntity
  8
0
  6
CONTINUOUS
 62
     7
100
AcDbEllipse
 10
242.3642522147
 20
38.5257770188
 30
0.0
 11
0.871580780049925
 21
1355.657561784689
 31
0.0
210
0.0
220
0.0
230
1.0
 40
0.0073484228
 41
4.796970023369102
 42
4.798450707876262
  0
LWPOLYLINE
  5
581
330
1F
100
AcDbEntity
  8
0
  6
CONTINUOUS
 62
     7
100
AcDbPolyline
 90
        3
 70
   128
 43
0.0
 10
252.3642522408
 20
152.8803869928
 10
252.3642412977
 20
152.9324218477
 10
252.364216152
 20
153.0456557716
  0
LINE
  5
582
330
1F
100
AcDbEntity
  8
0
  6
CONTINUOUS
 62
     7
100
AcDbLine
 10
252.3642522408
 20
152.8803869928
 30
0.0
 11
252.3642522408
 21
145.323143884
 31
0.0
  0
LWPOLYLINE
  5
583
330
1F
100
AcDbEntity
  8
0
  6
CONTINUOUS
 62
     7
100
AcDbPolyline
 90
        3
 70
   128
 43
0.0
 10
252.3638815744
 20
145.0456619109
 10
252.364091122
 20
145.2109828437
 10
252.3642522408
 20
145.323143884
  0
ELLIPSE
  5
584
330
1F
100
AcDbEntity
  8
0
  6
CONTINUOUS
 62
     7
100
AcDbEllipse
 10
242.3642522147
 20
38.5257770188
 30
0.0
 11
0.871580780049925
 21
1355.657561784689
 31
0.0
210
0.0
220
0.0
230
1.0
 40
0.0073484228
 41
4.789569321923713
 42
4.791049110375235
  0
ARC
  5
585
330
1F
100
AcDbEntity
  8
0
  6
CONTINUOUS
 62
     7
100
AcDbCircle
 10
241.1053380891
 20
142.874720703
 30
0.0
 40
11.25970278448913
100
AcDbArc
 50
359.3218681714
 51
0.8698589974
  0
LINE
  5
586
330
1F
100
AcDbEntity
  8
0
  6
CONTINUOUS
 62
     7
100
AcDbLine
 10
252.3642522408
 20
142.7414581026
 30
0.0
 11
252.3642522408
 21
135.4099079812
 31
0.0
  0
ARC
  5
587
330
1F
100
AcDbEntity
  8
0
  6
CONTINUOUS
 62
     7
100
AcDbCircle
 10
244.0865013675
 20
135.2568919953
 30
0.0
 40
8.279165018980594
100
AcDbArc
 50
358.5379910699
 51
1.0590040629
  0
ELLIPSE
  5
588
330
1F
100
AcDbEntity
  8
0
  6
CONTINUOUS
 62
     7
100
AcDbEllipse
 10
242.3642522147
 20
38.5257770188
 30
0.0
 11
0.871580780049925
 21
1355.657561784689
 31
0.0
210
0.0
220
0.0
230
1.0
 40
0.0073484228
 41
4.782172853503092
 42
4.783651828313627
  0
ARC
  5
589
330
1F
100
AcDbEntity
  8
0
  6
CONTINUOUS
 62
     7
100
AcDbCircle
 10
506.8215237938
 20
133.8717201508
 30
0.0
 40
254.4601409195159
100
AcDbArc
 50
180.1860010234
 51
180.2720953795
  0
LINE
  5
58A
330
1F
100
AcDbEntity
  8
0
  6
CONTINUOUS
 62
     7
100
AcDbLine
 10
252.3642522408
 20
132.6633035983
 30
0.0
 11
252.3642522408
 21
125.467190131
 31
0.0
  0
LWPOLYLINE
  5
58B
330
1F
100
AcDbEntity
  8
0
  6
CONTINUOUS
 62
     7
100
AcDbPolyline
 90
        4
 70
   128
 43
0.0
 10
252.3615146181
 20
125.0456586326
 10
252.3621583948
 20
125.2111062253
 10
252.3635060186
 20
125.3581285323
 10
252.3642522408
 20
125.467190131
  0
ELLIPSE
  5
58C
330
1F
100
AcDbEntity
  8
0
  6
CONTINUOUS
 62
     7
100
AcDbEllipse
 10
242.3642522147
 20
38.5257770188
 30
0.0
 11
0.871580780049925
 21
1355.657561784689
 31
0.0
210
0.0
220
0.0
230
1.0
 40
0.0073484228
 41
4.774780206862224
 42
4.776258450122379
  0
ARC
  5
58D
330
1F
100
AcDbEntity
  8
0
  6
CONTINUOUS
 62
     7
100
AcDbCircle
 10
261.9074622414
 20
122.8965157473
 30
0.0
 40
9.54746933908469
100
AcDbArc
 50
179.1049146295
 51
181.7115150353
  0
LINE
  5
58E
330
1F
100
AcDbEntity
  8
0
  6
CONTINUOUS
 62
     7
100
AcDbLine
 10
252.3642522408
 20
122.6113602365
 30
0.0
 11
252.3642522408
 21
115.5060097421
 31
0.0
  0
ARC
  5
58F
330
1F
100
AcDbEntity
  8
0
  6
CONTINUOUS
 62
     7
100
AcDbCircle
 10
261.4485421794
 20
115.1822839754
 30
0.0
 40
9.090056218760825
100
AcDbArc
 50
177.9590837831
 51
180.8611861744
  0
ELLIPSE
  5
590
330
1F
100
AcDbEntity
  8
0
  6
CONTINUOUS
 62
     7
100
AcDbEllipse
 10
242.3642522147
 20
38.5257770188
 30
0.0
 11
0.871580780049925
 21
1355.657561784689
 31
0.0
210
0.0
220
0.0
230
1.0
 40
0.0073484228
 41
4.767390972652485
 42
4.76886856609027
  0
ARC
  5
591
330
1F
100
AcDbEntity
  8
0
  6
CONTINUOUS
 62
     7
100
AcDbCircle
 10
337.260514221
 20
113.7535756067
 30
0.0
 40
84.90441868150205
100
AcDbArc
 50
180.4777282286
 51
180.7942061382
  0
LINE
  5
592
330
1F
100
AcDbEntity
  8
0
  6
CONTINUOUS
 62
     7
100
AcDbLine
 10
252.3642522408
 20
112.5767096723
 30
0.0
 11
252.3642522408
 21
105.5307254041
 31
0.0
  0
ARC
  5
593
330
1F
100
AcDbEntity
  8
0
  6
CONTINUOUS
 62
     7
100
AcDbCircle
 10
303.7815031411
 20
104.5157927079
 30
0.0
 40
51.42726687785287
100
AcDbArc
 50
178.8691770145
 51
179.4096544641
  0
ELLIPSE
  5
594
330
1F
100
AcDbEntity
  8
0
  6
CONTINUOUS
 62
     7
100
AcDbEllipse
 10
242.3642522147
 20
38.5257770188
 30
0.0
 11
0.871580780049925
 21
1355.657561784689
 31
0.0
210
0.0
220
0.0
230
1.0
 40
0.0073484228
 41
4.760004743214119
 42
4.761481768236256
  0
ARC
  5
595
330
1F
100
AcDbEntity
  8
0
  6
CONTINUOUS
 62
     7
100
AcDbCircle
 10
245.166702879
 20
102.6852406604
 30
0.0
 40
7.198716719711832
100
AcDbArc
 50
358.9681466552
 51
2.8698271468
  0
LINE
  5
596
330
1F
100
AcDbEntity
  8
0
  6
CONTINUOUS
 62
     7
100
AcDbLine
 10
252.3642522408
 20
102.5556042636
 30
0.0
 11
252.3642522408
 21
95.543415829
 31
0.0
  0
ARC
  5
597
330
1F
100
AcDbEntity
  8
0
  6
CONTINUOUS
 62
     7
100
AcDbCircle
 10
269.0847891609
 20
94.9458545318
 30
0.0
 40
16.731211384743
100
AcDbArc
 50
177.9532251074
 51
179.6582244265
  0
ELLIPSE
  5
598
330
1F
100
AcDbEntity
  8
0
  6
CONTINUOUS
 62
     7
100
AcDbEllipse
 10
242.3642522147
 20
38.5257770188
 30
0.0
 11
0.871580780049925
 21
1355.657561784689
 31
0.0
210
0.0
220
0.0
230
1.0
 40
0.0073484228
 41
4.75262111237104
 42
4.75409765010383
  0
ARC
  5
599
330
1F
100
AcDbEntity
  8
0
  6
CONTINUOUS
 62
     7
100
AcDbCircle
 10
270.1920640368
 20
93.1909480265
 30
0.0
 40
17.83946364062678
100
AcDbArc
 50
180.4666542566
 51
182.070940952
  0
LINE
  5
59A
330
1F
100
AcDbEntity
  8
0
  6
CONTINUOUS
 62
     7
100
AcDbLine
 10
252.3642522408
 20
92.5462856735
 30
0.0
 11
252.3642522408
 21
81.9498166288
 31
0.0
  0
ELLIPSE
  5
59B
330
1F
100
AcDbEntity
  8
0
  6
CONTINUOUS
 62
     7
100
AcDbEllipse
 10
242.3642522147
 20
855.1708699657
 30
0.0
 11
-1.305295898565447
 21
1362.151924467677
 31
0.0
210
0.0
220
0.0
230
1.0
 40
0.0072785157
 41
4.10211982171362
 42
4.108745976910749
  0
LINE
  5
59C
330
1F
100
AcDbEntity
  8
0
  6
CONTINUOUS
 62
     7
100
AcDbLine
 10
251.2371271275
 20
74.545653149
 30
0.0
 11
249.4352230985
 21
74.545653149
 31
0.0
  0
LINE
  5
59D
330
1F
100
AcDbEntity
  8
0
  6
CONTINUOUS
 62
     7
100
AcDbLine
 10
249.4352230985
 20
237.6516622002
 30
0.0
 11
252.3642522408
 21
237.6261009462
 31
0.0
  0
LINE
  5
59E
330
1F
100
AcDbEntity
  8
0
  6
CONTINUOUS
 62
     7
100
AcDbLine
 10
258.8642519092
 20
81.8930879081
 30
0.0
 11
258.8642519092
 21
74.545653149
 31
0.0
  0
LINE
  5
59F
330
1F
100
AcDbEntity
  8
0
  6
CONTINUOUS
 62
     7
100
AcDbLine
 10
258.8642519092
 20
81.8930879081
 30
0.0
 11
251.2674931329
 21
81.9593831743
 31
0.0
  0
LINE
  5
5A0
330
1F
100
AcDbEntity
  8
0
  6
CONTINUOUS
 62
     7
100
AcDbLine
 10
258.8642519092
 20
74.545653149
 30
0.0
 11
251.2371271275
 21
74.545653149
 31
0.0
  0
LINE
  5
5A1
330
1F
100
AcDbEntity
  8
0
  6
CONTINUOUS
 62
     7
100
AcDbLine
 10
252.6642521968
 20
130.936080202
 30
0.0
 11
252.3642522408
 21
130.9623285974
 31
0.0
  0
LINE
  5
5A2
330
1F
100
AcDbEntity
  8
0
  6
CONTINUOUS
 62
     7
100
AcDbLine
 10
252.6642521968
 20
130.6296005691
 30
0.0
 11
252.6642521968
 21
130.936080202
 31
0.0
  0
LINE
  5
5A3
330
1F
100
AcDbEntity
  8
0
  6
CONTINUOUS
 62
     7
100
AcDbLine
 10
252.6642521968
 20
130.6296005691
 30
0.0
 11
252.3642522408
 21
130.6033521737
 31
0.0
  0
LINE
  5
5A4
330
1F
100
AcDbEntity
  8
0
  6
CONTINUOUS
 62
     7
100
AcDbLine
 10
252.6642521968
 20
100.911082312
 30
0.0
 11
252.3642522408
 21
100.9373232568
 31
0.0
  0
LINE
  5
5A5
330
1F
100
AcDbEntity
  8
0
  6
CONTINUOUS
 62
     7
100
AcDbLine
 10
252.6642521968
 20
100.6045952285
 30
0.0
 11
252.6642521968
 21
100.911082312
 31
0.0
  0
LINE
  5
5A6
330
1F
100
AcDbEntity
  8
0
  6
CONTINUOUS
 62
     7
100
AcDbLine
 10
252.6642521968
 20
100.6045952285
 30
0.0
 11
252.3642522408
 21
100.5783542837
 31
0.0
  0
LINE
  5
5A7
330
1F
100
AcDbEntity
  8
0
  6
CONTINUOUS
 62
     7
100
AcDbLine
 10
252.6642521968
 20
120.9277450884
 30
0.0
 11
252.3642522408
 21
120.9539934839
 31
0.0
  0
LINE
  5
5A8
330
1F
100
AcDbEntity
  8
0
  6
CONTINUOUS
 62
     7
100
AcDbLine
 10
252.6642521968
 20
120.6212654556
 30
0.0
 11
252.6642521968
 21
120.9277450884
 31
0.0
  0
LINE
  5
5A9
330
1F
100
AcDbEntity
  8
0
  6
CONTINUOUS
 62
     7
100
AcDbLine
 10
252.6642521968
 20
120.6212654556
 30
0.0
 11
252.3642522408
 21
120.5950170601
 31
0.0
  0
LINE
  5
5AA
330
1F
100
AcDbEntity
  8
0
  6
CONTINUOUS
 62
     7
100
AcDbLine
 10
252.6642521968
 20
140.9444153155
 30
0.0
 11
252.3642522408
 21
140.9706562603
 31
0.0
  0
LINE
  5
5AB
330
1F
100
AcDbEntity
  8
0
  6
CONTINUOUS
 62
     7
100
AcDbLine
 10
252.6642521968
 20
140.637928232
 30
0.0
 11
252.6642521968
 21
140.9444153155
 31
0.0
  0
LINE
  5
5AC
330
1F
100
AcDbEntity
  8
0
  6
CONTINUOUS
 62
     7
100
AcDbLine
 10
252.6642521968
 20
140.637928232
 30
0.0
 11
252.3642522408
 21
140.6116872872
 31
0.0
  0
LINE
  5
5AD
330
1F
100
AcDbEntity
  8
0
  6
CONTINUOUS
 62
     7
100
AcDbLine
 10
252.6642521968
 20
110.9194174255
 30
0.0
 11
252.3642522408
 21
110.9456583703
 31
0.0
  0
LINE
  5
5AE
330
1F
100
AcDbEntity
  8
0
  6
CONTINUOUS
 62
     7
100
AcDbLine
 10
252.6642521968
 20
110.6129303421
 30
0.0
 11
252.6642521968
 21
110.9194174255
 31
0.0
  0
LINE
  5
5AF
330
1F
100
AcDbEntity
  8
0
  6
CONTINUOUS
 62
     7
100
AcDbLine
 10
252.6642521968
 20
110.6129303421
 30
0.0
 11
252.3642522408
 21
110.5866893972
 31
0.0
  0
LINE
  5
5B0
330
1F
100
AcDbEntity
  8
0
  6
CONTINUOUS
 62
     7
100
AcDbLine
 10
252.6642521968
 20
127.4885698999
 30
0.0
 11
252.3642522408
 21
127.462328955
 31
0.0
  0
LINE
  5
5B1
330
1F
100
AcDbEntity
  8
0
  6
CONTINUOUS
 62
     7
100
AcDbLine
 10
252.6642521968
 20
127.4885698999
 30
0.0
 11
252.6642521968
 21
130.6296005691
 31
0.0
  0
LINE
  5
5B2
330
1F
100
AcDbEntity
  8
0
  6
CONTINUOUS
 62
     7
100
AcDbLine
 10
252.6642521968
 20
97.4635794605
 30
0.0
 11
252.3642522408
 21
97.4373236145
 31
0.0
  0
LINE
  5
5B3
330
1F
100
AcDbEntity
  8
0
  6
CONTINUOUS
 62
     7
100
AcDbLine
 10
252.6642521968
 20
97.4635794605
 30
0.0
 11
252.6642521968
 21
100.6045952285
 31
0.0
  0
LINE
  5
5B4
330
1F
100
AcDbEntity
  8
0
  6
CONTINUOUS
 62
     7
100
AcDbLine
 10
252.6642521968
 20
137.4969050134
 30
0.0
 11
252.3642522408
 21
137.470656618
 31
0.0
  0
LINE
  5
5B5
330
1F
100
AcDbEntity
  8
0
  6
CONTINUOUS
 62
     7
100
AcDbLine
 10
252.6642521968
 20
137.4969050134
 30
0.0
 11
252.6642521968
 21
140.637928232
 31
0.0
  0
LINE
  5
5B6
330
1F
100
AcDbEntity
  8
0
  6
CONTINUOUS
 62
     7
100
AcDbLine
 10
252.6642521968
 20
117.4802422369
 30
0.0
 11
252.3642522408
 21
117.4539938415
 31
0.0
  0
LINE
  5
5B7
330
1F
100
AcDbEntity
  8
0
  6
CONTINUOUS
 62
     7
100
AcDbLine
 10
252.6642521968
 20
117.4802422369
 30
0.0
 11
252.6642521968
 21
120.6212654556
 31
0.0
  0
LINE
  5
5B8
330
1F
100
AcDbEntity
  8
0
  6
CONTINUOUS
 62
     7
100
AcDbLine
 10
252.6642521968
 20
107.4718996728
 30
0.0
 11
252.3642522408
 21
107.445658728
 31
0.0
  0
LINE
  5
5B9
330
1F
100
AcDbEntity
  8
0
  6
CONTINUOUS
 62
     7
100
AcDbLine
 10
252.6642521968
 20
107.4718996728
 30
0.0
 11
252.6642521968
 21
110.6129303421
 31
0.0
  0
LWPOLYLINE
  5
5BA
330
1F
100
AcDbEntity
  8
0
  6
CONTINUOUS
 62
     7
100
AcDbPolyline
 90
        3
 70
   128
 43
0.0
 10
252.6642521968
 20
208.4450531597
 10
252.5142552456
 20
208.4581773574
 10
252.3642522408
 20
208.4712996925
  0
LINE
  5
5BB
330
1F
100
AcDbEntity
  8
0
  6
CONTINUOUS
 62
     7
100
AcDbLine
 10
252.6642521968
 20
207.4655048395
 30
0.0
 11
252.6642521968
 21
208.4450531597
 31
0.0
  0
LWPOLYLINE
  5
5BC
330
1F
100
AcDbEntity
  8
0
  6
CONTINUOUS
 62
     7
100
AcDbPolyline
 90
        4
 70
   128
 43
0.0
 10
252.6642521968
 20
207.4655048395
 10
252.5742463892
 20
207.4576277132
 10
252.4842403488
 20
207.4497505868
 10
252.3642522408
 20
207.4392489935
  0
LINE
  5
5BD
330
1F
100
AcDbEntity
  8
0
  6
CONTINUOUS
 62
     7
100
AcDbLine
 10
252.6642521968
 20
158.4780827011
 30
0.0
 11
252.3642522408
 21
158.4780081953
 31
0.0
  0
LINE
  5
5BE
330
1F
100
AcDbEntity
  8
0
  6
CONTINUOUS
 62
     7
100
AcDbLine
 10
252.6642521968
 20
157.4238404478
 30
0.0
 11
252.6642521968
 21
158.4780827011
 31
0.0
  0
LWPOLYLINE
  5
5BF
330
1F
100
AcDbEntity
  8
0
  6
CONTINUOUS
 62
     7
100
AcDbPolyline
 90
        4
 70
   128
 43
0.0
 10
252.6642521968
 20
157.4238404478
 10
252.5742496489
 20
157.4159577335
 10
252.4842471009
 20
157.4080824698
 10
252.3642522408
 20
157.3975846017
  0
LWPOLYLINE
  5
5C0
330
1F
100
AcDbEntity
  8
0
  6
CONTINUOUS
 62
     7
100
AcDbPolyline
 90
        3
 70
   128
 43
0.0
 10
252.6642521968
 20
159.4364955867
 10
252.5142522188
 20
159.4368234123
 10
252.3642522408
 20
159.4371437872
  0
LINE
  5
5C1
330
1F
100
AcDbEntity
  8
0
  6
CONTINUOUS
 62
     7
100
AcDbLine
 10
252.6642521968
 20
158.4780827011
 30
0.0
 11
252.6642521968
 21
159.4364955867
 31
0.0
  0
LWPOLYLINE
  5
5C2
330
1F
100
AcDbEntity
  8
0
  6
CONTINUOUS
 62
     7
100
AcDbPolyline
 90
        4
 70
   128
 43
0.0
 10
252.6642521968
 20
149.9965876187
 10
252.5742473206
 20
149.9966323222
 10
252.4842424443
 20
149.9966695751
 10
252.3642522408
 20
149.9967217291
  0
LINE
  5
5C3
330
1F
100
AcDbEntity
  8
0
  6
CONTINUOUS
 62
     7
100
AcDbLine
 10
252.6642521968
 20
148.9860132183
 30
0.0
 11
252.6642521968
 21
149.9965876187
 31
0.0
  0
LWPOLYLINE
  5
5C4
330
1F
100
AcDbEntity
  8
0
  6
CONTINUOUS
 62
     7
100
AcDbPolyline
 90
        4
 70
   128
 43
0.0
 10
252.6642521968
 20
148.9860132183
 10
252.5742519772
 20
148.9781379546
 10
252.4842519904
 20
148.9702626909
 10
252.3642522408
 20
148.9597648228
  0
LWPOLYLINE
  5
5C5
330
1F
100
AcDbEntity
  8
0
  6
CONTINUOUS
 62
     7
100
AcDbPolyline
 90
        4
 70
   128
 43
0.0
 10
252.6642521968
 20
151.0424703206
 10
252.5742456907
 20
151.0503530348
 10
252.4842389518
 20
151.0582282985
 10
252.3642522408
 20
151.0687336172
  0
LINE
  5
5C6
330
1F
100
AcDbEntity
  8
0
  6
CONTINUOUS
 62
     7
100
AcDbLine
 10
252.6642521968
 20
149.9965876187
 30
0.0
 11
252.6642521968
 21
151.0424703206
 31
0.0
  0
LWPOLYLINE
  5
5C7
330
1F
100
AcDbEntity
  8
0
  6
CONTINUOUS
 62
     7
100
AcDbPolyline
 90
        3
 70
   128
 43
0.0
 10
252.6642521968
 20
188.3835136736
 10
252.5142554784
 20
188.3966378714
 10
252.3642522408
 20
188.4097620691
  0
LINE
  5
5C8
330
1F
100
AcDbEntity
  8
0
  6
CONTINUOUS
 62
     7
100
AcDbLine
 10
252.6642521968
 20
187.4488308872
 30
0.0
 11
252.6642521968
 21
188.3835136736
 31
0.0
  0
LWPOLYLINE
  5
5C9
330
1F
100
AcDbEntity
  8
0
  6
CONTINUOUS
 62
     7
100
AcDbPolyline
 90
        4
 70
   128
 43
0.0
 10
252.6642521968
 20
187.4488308872
 10
252.5742496489
 20
187.4409556235
 10
252.4842471009
 20
187.4330803598
 10
252.3642522408
 20
187.4225824917
  0
LINE
  5
5CA
330
1F
100
AcDbEntity
  8
0
  6
CONTINUOUS
 62
     7
100
AcDbLine
 10
252.6642521968
 20
201.0841570641
 30
0.0
 11
252.3642522408
 21
201.1104017342
 31
0.0
  0
LINE
  5
5CB
330
1F
100
AcDbEntity
  8
0
  6
CONTINUOUS
 62
     7
100
AcDbLine
 10
252.6642521968
 20
198.3545996095
 30
0.0
 11
252.6642521968
 21
201.0841570641
 31
0.0
  0
LINE
  5
5CC
330
1F
100
AcDbEntity
  8
0
  6
CONTINUOUS
 62
     7
100
AcDbLine
 10
252.6642521968
 20
198.3545996095
 30
0.0
 11
252.3642522408
 21
198.328351214
 31
0.0
  0
LWPOLYLINE
  5
5CD
330
1F
100
AcDbEntity
  8
0
  6
CONTINUOUS
 62
     7
100
AcDbPolyline
 90
        4
 70
   128
 43
0.0
 10
252.6642521968
 20
218.9677912588
 10
252.5742473206
 20
218.9732078309
 10
252.4842422115
 20
218.9786225403
 10
252.3642522408
 20
218.9858440156
  0
LINE
  5
5CE
330
1F
100
AcDbEntity
  8
0
  6
CONTINUOUS
 62
     7
100
AcDbLine
 10
252.6642521968
 20
217.5635728831
 30
0.0
 11
252.6642521968
 21
218.9677912588
 31
0.0
  0
LINE
  5
5CF
330
1F
100
AcDbEntity
  8
0
  6
CONTINUOUS
 62
     7
100
AcDbLine
 10
252.6642521968
 20
217.5635728831
 30
0.0
 11
252.3642522408
 21
217.5373263503
 31
0.0
  0
LWPOLYLINE
  5
5D0
330
1F
100
AcDbEntity
  8
0
  6
CONTINUOUS
 62
     7
100
AcDbPolyline
 90
        4
 70
   128
 43
0.0
 10
252.6642521968
 20
221.1008161152
 10
252.5742501145
 20
221.1086913789
 10
252.4842480322
 20
221.1165685053
 10
252.3642522408
 20
221.1270700986
  0
LINE
  5
5D1
330
1F
100
AcDbEntity
  8
0
  6
CONTINUOUS
 62
     7
100
AcDbLine
 10
252.6642521968
 20
219.9866488422
 30
0.0
 11
252.6642521968
 21
221.1008161152
 31
0.0
  0
LWPOLYLINE
  5
5D2
330
1F
100
AcDbEntity
  8
0
  6
CONTINUOUS
 62
     7
100
AcDbPolyline
 90
        3
 70
   128
 43
0.0
 10
252.6642521968
 20
219.9866488422
 10
252.5142531501
 20
219.9735265071
 10
252.3642522408
 20
219.9604023094
  0
LINE
  5
5D3
330
1F
100
AcDbEntity
  8
0
  6
CONTINUOUS
 62
     7
100
AcDbLine
 10
252.6642521968
 20
179.4822752322
 30
0.0
 11
252.3642522408
 21
179.4965803469
 31
0.0
  0
LINE
  5
5D4
330
1F
100
AcDbEntity
  8
0
  6
CONTINUOUS
 62
     7
100
AcDbLine
 10
252.6642521968
 20
178.4800417567
 30
0.0
 11
252.6642521968
 21
179.4822752322
 31
0.0
  0
LWPOLYLINE
  5
5D5
330
1F
100
AcDbEntity
  8
0
  6
CONTINUOUS
 62
     7
100
AcDbPolyline
 90
        4
 70
   128
 43
0.0
 10
252.6642521968
 20
178.4800417567
 10
252.5742519772
 20
178.4800156797
 10
252.4842517575
 20
178.4799896027
 10
252.3642522408
 20
178.4799523498
  0
LINE
  5
5D6
330
1F
100
AcDbEntity
  8
0
  6
CONTINUOUS
 62
     7
100
AcDbLine
 10
252.6642521968
 20
177.4405106748
 30
0.0
 11
252.6642521968
 21
178.4800417567
 31
0.0
  0
LWPOLYLINE
  5
5D7
330
1F
100
AcDbEntity
  8
0
  6
CONTINUOUS
 62
     7
100
AcDbPolyline
 90
        4
 70
   128
 43
0.0
 10
252.6642521968
 20
177.4405106748
 10
252.5742468549
 20
177.4326316858
 10
252.4842417458
 20
177.4247526968
 10
252.3642522408
 20
177.4142473782
  0
LWPOLYLINE
  5
5D8
330
1F
100
AcDbEntity
  8
0
  6
CONTINUOUS
 62
     7
100
AcDbPolyline
 90
        4
 70
   128
 43
0.0
 10
252.6642521968
 20
160.1788267339
 10
252.5742496489
 20
160.1788565362
 10
252.4842471009
 20
160.1788937891
 10
252.3642522408
 20
160.178931042
  0
LINE
  5
5D9
330
1F
100
AcDbEntity
  8
0
  6
CONTINUOUS
 62
     7
100
AcDbLine
 10
252.6642521968
 20
159.4364955867
 30
0.0
 11
252.6642521968
 21
160.1788267339
 31
0.0
  0
LWPOLYLINE
  5
5DA
330
1F
100
AcDbEntity
  8
0
  6
CONTINUOUS
 62
     7
100
AcDbPolyline
 90
        4
 70
   128
 43
0.0
 10
252.6642521968
 20
161.0508128847
 10
252.5742470877
 20
161.0586881484
 10
252.4842422115
 20
161.066563412
 10
252.3642522408
 20
161.0770687307
  0
LINE
  5
5DB
330
1F
100
AcDbEntity
  8
0
  6
CONTINUOUS
 62
     7
100
AcDbLine
 10
252.6642521968
 20
160.1788267339
 30
0.0
 11
252.6642521968
 21
161.0508128847
 31
0.0
  0
LWPOLYLINE
  5
5DC
330
1F
100
AcDbEntity
  8
0
  6
CONTINUOUS
 62
     7
100
AcDbPolyline
 90
        4
 70
   128
 43
0.0
 10
252.6642521968
 20
211.0924828644
 10
252.5742459236
 20
211.100358128
 10
252.4842398832
 20
211.1082352544
 10
252.3642522408
 20
211.1187368477
  0
LWPOLYLINE
  5
5DD
330
1F
100
AcDbEntity
  8
0
  6
CONTINUOUS
 62
     7
100
AcDbPolyline
 90
        3
 70
   128
 43
0.0
 10
252.6642521968
 20
210.2475460465
 10
252.5142571082
 20
210.2344237114
 10
252.3642522408
 20
210.2212995137
  0
LINE
  5
5DE
330
1F
100
AcDbEntity
  8
0
  6
CONTINUOUS
 62
     7
100
AcDbLine
 10
252.6642521968
 20
210.2475460465
 30
0.0
 11
252.6642521968
 21
211.0924828644
 31
0.0
  0
LINE
  5
5DF
330
1F
100
AcDbEntity
  8
0
  6
CONTINUOUS
 62
     7
100
AcDbLine
 10
252.6642521968
 20
170.9694132055
 30
0.0
 11
252.3642522408
 21
170.9956616009
 31
0.0
  0
LINE
  5
5E0
330
1F
100
AcDbEntity
  8
0
  6
CONTINUOUS
 62
     7
100
AcDbLine
 10
252.6642521968
 20
170.6629335726
 30
0.0
 11
252.6642521968
 21
170.9694132055
 31
0.0
  0
LINE
  5
5E1
330
1F
100
AcDbEntity
  8
0
  6
CONTINUOUS
 62
     7
100
AcDbLine
 10
252.6642521968
 20
170.6629335726
 30
0.0
 11
252.3642522408
 21
170.6366851772
 31
0.0
  0
LINE
  5
5E2
330
1F
100
AcDbEntity
  8
0
  6
CONTINUOUS
 62
     7
100
AcDbLine
 10
252.6642521968
 20
167.5659581865
 30
0.0
 11
252.3642522408
 21
167.5552517022
 31
0.0
  0
LINE
  5
5E3
330
1F
100
AcDbEntity
  8
0
  6
CONTINUOUS
 62
     7
100
AcDbLine
 10
252.6642521968
 20
167.4419432724
 30
0.0
 11
252.3642522408
 21
167.4059122647
 31
0.0
  0
LINE
  5
5E4
330
1F
100
AcDbEntity
  8
0
  6
CONTINUOUS
 62
     7
100
AcDbLine
 10
252.6642521968
 20
167.4419432724
 30
0.0
 11
252.6642521968
 21
167.5659581865
 31
0.0
  0
LINE
  5
5E5
330
1F
100
AcDbEntity
  8
0
  6
CONTINUOUS
 62
     7
100
AcDbLine
 10
252.6642521968
 20
167.5659581865
 30
0.0
 11
252.6642521968
 21
170.6629335726
 31
0.0
  0
LINE
  5
5E6
330
1F
100
AcDbEntity
  8
0
  6
CONTINUOUS
 62
     7
100
AcDbLine
 10
252.6642521968
 20
190.9860797072
 30
0.0
 11
252.3642522408
 21
191.0123243774
 31
0.0
  0
LWPOLYLINE
  5
5E7
330
1F
100
AcDbEntity
  8
0
  6
CONTINUOUS
 62
     7
100
AcDbPolyline
 90
        3
 70
   128
 43
0.0
 10
252.6642521968
 20
189.3039434994
 10
252.5142475622
 20
189.2831638301
 10
252.3642522408
 20
189.2623245562
  0
LINE
  5
5E8
330
1F
100
AcDbEntity
  8
0
  6
CONTINUOUS
 62
     7
100
AcDbLine
 10
252.6642521968
 20
189.3039434994
 30
0.0
 11
252.6642521968
 21
190.9860797072
 31
0.0
  0
LINE
  5
5E9
330
1F
100
AcDbEntity
  8
0
  6
CONTINUOUS
 62
     7
100
AcDbLine
 10
252.6642521968
 20
147.570507213
 30
0.0
 11
252.3642522408
 21
147.5638314928
 31
0.0
  0
LINE
  5
5EA
330
1F
100
AcDbEntity
  8
0
  6
CONTINUOUS
 62
     7
100
AcDbLine
 10
252.6642521968
 20
147.4259063447
 30
0.0
 11
252.3642522408
 21
147.3892494882
 31
0.0
  0
LINE
  5
5EB
330
1F
100
AcDbEntity
  8
0
  6
CONTINUOUS
 62
     7
100
AcDbLine
 10
252.6642521968
 20
147.4259063447
 30
0.0
 11
252.6642521968
 21
147.570507213
 31
0.0
  0
LINE
  5
5EC
330
1F
100
AcDbEntity
  8
0
  6
CONTINUOUS
 62
     7
100
AcDbLine
 10
252.6642521968
 20
147.570507213
 30
0.0
 11
252.6642521968
 21
148.9860132183
 31
0.0
  0
LINE
  5
5ED
330
1F
100
AcDbEntity
  8
0
  6
CONTINUOUS
 62
     7
100
AcDbLine
 10
252.6642521968
 20
231.0194122451
 30
0.0
 11
252.3642522408
 21
231.0456592436
 31
0.0
  0
LINE
  5
5EE
330
1F
100
AcDbEntity
  8
0
  6
CONTINUOUS
 62
     7
100
AcDbLine
 10
252.6642521968
 20
230.7129312153
 30
0.0
 11
252.6642521968
 21
231.0194122451
 31
0.0
  0
LINE
  5
5EF
330
1F
100
AcDbEntity
  8
0
  6
CONTINUOUS
 62
     7
100
AcDbLine
 10
252.6642521968
 20
230.7129312153
 30
0.0
 11
252.3642522408
 21
230.6866846825
 31
0.0
  0
LINE
  5
5F0
330
1F
100
AcDbEntity
  8
0
  6
CONTINUOUS
 62
     7
100
AcDbLine
 10
252.6642521968
 20
181.0554131711
 30
0.0
 11
252.3642522408
 21
181.0937352324
 31
0.0
  0
LINE
  5
5F1
330
1F
100
AcDbEntity
  8
0
  6
CONTINUOUS
 62
     7
100
AcDbLine
 10
252.6642521968
 20
179.4822752322
 30
0.0
 11
252.6642521968
 21
181.0554131711
 31
0.0
  0
LWPOLYLINE
  5
5F2
330
1F
100
AcDbEntity
  8
0
  6
CONTINUOUS
 62
     7
100
AcDbPolyline
 90
        4
 70
   128
 43
0.0
 10
252.6642521968
 20
210.2104160781
 10
252.574248019
 20
210.2105259741
 10
252.4842436085
 20
210.2106358702
 10
252.3642522408
 20
210.2107830192
  0
LWPOLYLINE
  5
5F3
330
1F
100
AcDbEntity
  8
0
  6
CONTINUOUS
 62
     7
100
AcDbPolyline
 90
        3
 70
   128
 43
0.0
 10
252.6642521968
 20
209.6121884728
 10
252.5142515203
 20
209.625068664
 10
252.3642522408
 20
209.6379674817
  0
LINE
  5
5F4
330
1F
100
AcDbEntity
  8
0
  6
CONTINUOUS
 62
     7
100
AcDbLine
 10
252.6642521968
 20
209.6121884728
 30
0.0
 11
252.6642521968
 21
210.2104160781
 31
0.0
  0
LWPOLYLINE
  5
5F5
330
1F
100
AcDbEntity
  8
0
  6
CONTINUOUS
 62
     7
100
AcDbPolyline
 90
        3
 70
   128
 43
0.0
 10
252.6642521968
 20
209.3037754143
 10
252.5142515203
 20
209.2913925494
 10
252.3642522408
 20
209.2789929206
  0
LWPOLYLINE
  5
5F6
330
1F
100
AcDbEntity
  8
0
  6
CONTINUOUS
 62
     7
100
AcDbPolyline
 90
        4
 70
   128
 43
0.0
 10
252.6642521968
 20
208.5389397884
 10
252.5742503474
 20
208.5388392056
 10
252.4842484979
 20
208.5387404854
 10
252.3642522408
 20
208.5386082376
  0
LINE
  5
5F7
330
1F
100
AcDbEntity
  8
0
  6
CONTINUOUS
 62
     7
100
AcDbLine
 10
252.6642521968
 20
208.5389397884
 30
0.0
 11
252.6642521968
 21
209.3037754143
 31
0.0
  0
LINE
  5
5F8
330
1F
100
AcDbEntity
  8
0
  6
CONTINUOUS
 62
     7
100
AcDbLine
 10
252.6642521968
 20
209.3037754143
 30
0.0
 11
252.6642521968
 21
209.6121884728
 31
0.0
  0
LWPOLYLINE
  5
5F9
330
1F
100
AcDbEntity
  8
0
  6
CONTINUOUS
 62
     7
100
AcDbPolyline
 90
        4
 70
   128
 43
0.0
 10
252.6642521968
 20
188.6691279555
 10
252.5742501145
 20
188.6691428567
 10
252.4842477994
 20
188.6691577579
 10
252.3642522408
 20
188.6691763843
  0
LINE
  5
5FA
330
1F
100
AcDbEntity
  8
0
  6
CONTINUOUS
 62
     7
100
AcDbLine
 10
252.6642521968
 20
188.5221987809
 30
0.0
 11
252.6642521968
 21
188.6691279555
 31
0.0
  0
LINE
  5
5FB
330
1F
100
AcDbEntity
  8
0
  6
CONTINUOUS
 62
     7
100
AcDbLine
 10
252.6642521968
 20
227.5719052027
 30
0.0
 11
252.3642522408
 21
227.5456586699
 31
0.0
  0
LINE
  5
5FC
330
1F
100
AcDbEntity
  8
0
  6
CONTINUOUS
 62
     7
100
AcDbLine
 10
252.6642521968
 20
227.5719052027
 30
0.0
 11
252.6642521968
 21
230.7129312153
 31
0.0
  0
LINE
  5
5FD
330
1F
100
AcDbEntity
  8
0
  6
CONTINUOUS
 62
     7
100
AcDbLine
 10
252.6642521968
 20
188.6691279555
 30
0.0
 11
252.6642521968
 21
189.3039434994
 31
0.0
  0
LWPOLYLINE
  5
5FE
330
1F
100
AcDbEntity
  8
0
  6
CONTINUOUS
 62
     7
100
AcDbPolyline
 90
        4
 70
   128
 43
0.0
 10
252.6642521968
 20
137.4071627701
 10
252.5742487175
 20
137.3992875064
 10
252.4842454711
 20
137.3914122427
 10
252.3642522408
 20
137.3809143747
  0
LWPOLYLINE
  5
5FF
330
1F
100
AcDbEntity
  8
0
  6
CONTINUOUS
 62
     7
100
AcDbPolyline
 90
        4
 70
   128
 43
0.0
 10
252.6642521968
 20
107.3821648801
 10
252.5742463892
 20
107.374297067
 10
252.4842403488
 20
107.3664143527
 10
252.3642522408
 20
107.3559090341
  0
LWPOLYLINE
  5
600
330
1F
100
AcDbEntity
  8
0
  6
CONTINUOUS
 62
     7
100
AcDbPolyline
 90
        4
 70
   128
 43
0.0
 10
252.6642521968
 20
141.0341501082
 10
252.5742491832
 20
141.0420253719
 10
252.4842464024
 20
141.0499006356
 10
252.3642522408
 20
141.0604059542
  0
LINE
  5
601
330
1F
100
AcDbEntity
  8
0
  6
CONTINUOUS
 62
     7
100
AcDbLine
 10
252.6642521968
 20
218.9677912588
 30
0.0
 11
252.6642521968
 21
220.0584035213
 31
0.0
  0
LINE
  5
602
330
1F
100
AcDbEntity
  8
0
  6
CONTINUOUS
 62
     7
100
AcDbLine
 10
252.6642521968
 20
101.0008171047
 30
0.0
 11
252.3642522408
 21
101.0270729507
 31
0.0
  0
LINE
  5
603
330
1F
100
AcDbEntity
  8
0
  6
CONTINUOUS
 62
     7
100
AcDbLine
 10
252.6642521968
 20
100.911082312
 30
0.0
 11
252.6642521968
 21
101.0008171047
 31
0.0
  0
LWPOLYLINE
  5
604
330
1F
100
AcDbEntity
  8
0
  6
CONTINUOUS
 62
     7
100
AcDbPolyline
 90
        4
 70
   128
 43
0.0
 10
252.6642521968
 20
121.0174798811
 10
252.5742501145
 20
121.0253551448
 10
252.4842480322
 20
121.0332378591
 10
252.3642522408
 20
121.0437357272
  0
LINE
  5
605
330
1F
100
AcDbEntity
  8
0
  6
CONTINUOUS
 62
     7
100
AcDbLine
 10
252.6642521968
 20
121.0120260561
 30
0.0
 11
252.6642521968
 21
121.0174798811
 31
0.0
  0
LWPOLYLINE
  5
606
330
1F
100
AcDbEntity
  8
0
  6
CONTINUOUS
 62
     7
100
AcDbPolyline
 90
        4
 70
   128
 43
0.0
 10
252.6642521968
 20
111.0091522182
 10
252.5742459236
 20
111.0170200313
 10
252.4842398832
 20
111.0249027456
 10
252.3642522408
 20
111.0354080642
  0
LINE
  5
607
330
1F
100
AcDbEntity
  8
0
  6
CONTINUOUS
 62
     7
100
AcDbLine
 10
252.6642521968
 20
197.5469045187
 30
0.0
 11
252.3642522408
 21
197.5206598485
 31
0.0
  0
LINE
  5
608
330
1F
100
AcDbEntity
  8
0
  6
CONTINUOUS
 62
     7
100
AcDbLine
 10
252.6642521968
 20
197.5469045187
 30
0.0
 11
252.6642521968
 21
198.3545996095
 31
0.0
  0
ENDSEC
  0
SECTION
  2
OBJECTS
  0
DICTIONARY
  5
C
330
0
100
AcDbDictionary
  3
ACAD_GROUP
350
D
  3
ACAD_MLINESTYLE
350
17
  0
DICTIONARY
  5
D
102
{ACAD_REACTORS
330
C
102
}
330
C
100
AcDbDictionary
  0
DICTIONARY
  5
17
102
{ACAD_REACTORS
330
C
102
}
330
C
100
AcDbDictionary
  3
STANDARD
350
18
  0
MLINESTYLE
  5
18
102
{ACAD_REACTORS
330
17
102
}
330
17
100
AcDbMlineStyle
  2
Standard
 70
     0
  3

 62
   256
 51
90.0
 52
90.0
 71
     2
 49
0.5
 62
   256
  6
BYLAYER
 49
-0.5
 62
   256
  6
BYLAYER
  0
ENDSEC
  0
EOF
