  0
SECTION
  2
HEADER
  9
$ACADVER
  1
AC1009
  9
$INSBASE
 10
-2045.803571053701
 20
884.34811978189703
 30
0.0
  9
$EXTMIN
 10
-2190.897292169273
 20
789.28146697206103
 30
-0.0015258207003583
  9
$EXTMAX
 10
-1900.7449345514699
 20
979.37927480889391
 30
0.0000000349246037
  9
$LIMMIN
 10
-12.5
 20
12.5
  9
$LIMMAX
 10
1472.5
 20
1062.5
  9
$ORTHOMODE
 70
     1
  9
$REGENMODE
 70
     1
  9
$FILLMODE
 70
     1
  9
$QTEXTMODE
 70
     0
  9
$MIRRTEXT
 70
     1
  9
$DRAGMODE
 70
     2
  9
$LTSCALE
 40
10.0
  9
$OSMODE
 70
    37
  9
$ATTMODE
 70
     1
  9
$TEXTSIZE
 40
6.25
  9
$TRACEWID
 40
1.0
  9
$TEXTSTYLE
  7
SIMPLEX
  9
$CLAYER
  8
L45
  9
$CELTYPE
  6
BYLAYER
  9
$CECOLOR
 62
   256
  9
$DIMSCALE
 40
2.5
  9
$DIMASZ
 40
2.5
  9
$DIMEXO
 40
0.0625
  9
$DIMDLI
 40
10.0
  9
$DIMRND
 40
0.0
  9
$DIMDLE
 40
0.0
  9
$DIMEXE
 40
1.0
  9
$DIMTP
 40
0.0
  9
$DIMTM
 40
0.0
  9
$DIMTXT
 40
2.5
  9
$DIMCEN
 40
0.0
  9
$DIMTSZ
 40
0.0
  9
$DIMTOL
 70
     0
  9
$DIMLIM
 70
     0
  9
$DIMTIH
 70
     0
  9
$DIMTOH
 70
     0
  9
$DIMSE1
 70
     0
  9
$DIMSE2
 70
     0
  9
$DIMTAD
 70
     1
  9
$DIMZIN
 70
     0
  9
$DIMBLK
  1

  9
$DIMASO
 70
     1
  9
$DIMSHO
 70
     1
  9
$DIMPOST
  1

  9
$DIMAPOST
  1

  9
$DIMALT
 70
     0
  9
$DIMALTD
 70
     2
  9
$DIMALTF
 40
25.399999999999999
  9
$DIMLFAC
 40
1.0
  9
$DIMTOFL
 70
     1
  9
$DIMTVP
 40
0.0
  9
$DIMTIX
 70
     0
  9
$DIMSOXD
 70
     1
  9
$DIMSAH
 70
     1
  9
$DIMBLK1
  1

  9
$DIMBLK2
  1

  9
$DIMSTYLE
  2
STANDARD
  9
$DIMCLRD
 70
     0
  9
$DIMCLRE
 70
     0
  9
$DIMCLRT
 70
     0
  9
$DIMTFAC
 40
1.0
  9
$DIMGAP
 40
0.09
  9
$LUNITS
 70
     2
  9
$LUPREC
 70
     0
  9
$SKETCHINC
 40
0.1
  9
$FILLETRAD
 40
0.0
  9
$AUNITS
 70
     0
  9
$AUPREC
 70
     0
  9
$MENU
  1
TKK-ACAD
  9
$ELEVATION
 40
0.0
  9
$PELEVATION
 40
0.0
  9
$THICKNESS
 40
0.0
  9
$LIMCHECK
 70
     0
  9
$BLIPMODE
 70
     0
  9
$CHAMFERA
 40
12.5
  9
$CHAMFERB
 40
12.5
  9
$SKPOLY
 70
     0
  9
$TDCREATE
 40
2447882.4555549771
  9
$TDUPDATE
 40
2453686.55201243
  9
$TDINDWG
 40
0.0953328935
  9
$TDUSRTIMER
 40
0.0
  9
$USRTIMER
 70
     0
  9
$ANGBASE
 50
0.0
  9
$ANGDIR
 70
     0
  9
$PDMODE
 70
     0
  9
$PDSIZE
 40
0.0
  9
$PLINEWID
 40
1.0
  9
$COORDS
 70
     2
  9
$SPLFRAME
 70
     0
  9
$SPLINETYPE
 70
     6
  9
$SPLINESEGS
 70
     8
  9
$ATTDIA
 70
     0
  9
$ATTREQ
 70
     1
  9
$HANDLING
 70
-16383
  9
$HANDSEED
  5
9C
  9
$SURFTAB1
 70
     6
  9
$SURFTAB2
 70
     6
  9
$SURFTYPE
 70
     6
  9
$SURFU
 70
     6
  9
$SURFV
 70
     6
  9
$UCSNAME
  2

  9
$UCSORG
 10
0.0
 20
0.0
 30
0.0
  9
$UCSXDIR
 10
1.0
 20
0.0
 30
0.0
  9
$UCSYDIR
 10
0.0
 20
1.0
 30
0.0
  9
$PUCSNAME
  2

  9
$PUCSORG
 10
0.0
 20
0.0
 30
0.0
  9
$PUCSXDIR
 10
1.0
 20
0.0
 30
0.0
  9
$PUCSYDIR
 10
0.0
 20
1.0
 30
0.0
  9
$USERI1
 70
     0
  9
$USERI2
 70
     0
  9
$USERI3
 70
     0
  9
$USERI4
 70
     0
  9
$USERI5
 70
     0
  9
$USERR1
 40
2.5
  9
$USERR2
 40
1.25
  9
$USERR3
 40
0.5
  9
$USERR4
 40
0.0
  9
$USERR5
 40
0.0
  9
$WORLDVIEW
 70
     1
  9
$SHADEDGE
 70
     3
  9
$SHADEDIF
 70
    70
  9
$TILEMODE
 70
     1
  9
$MAXACTVP
 70
    48
  9
$PLIMCHECK
 70
     0
  9
$PEXTMIN
 10
1.0000000000000000E+020
 20
1.0000000000000000E+020
 30
1.0000000000000000E+020
  9
$PEXTMAX
 10
-1.0000000000000000E+020
 20
-1.0000000000000000E+020
 30
-1.0000000000000000E+020
  9
$PLIMMIN
 10
0.0
 20
0.0
  9
$PLIMMAX
 10
12.0
 20
9.0
  9
$UNITMODE
 70
     0
  9
$VISRETAIN
 70
     0
  9
$PLINEGEN
 70
     0
  9
$PSLTSCALE
 70
     0
  0
ENDSEC
  0
SECTION
  2
TABLES
  0
TABLE
  2
VPORT
 70
     3
  0
VPORT
  2
*ACTIVE
 70
     0
 10
0.0
 20
0.0
 11
1.0
 21
1.0
 12
-2045.821113360372
 22
884.33037089047752
 13
0.0
 23
0.0
 14
5.0
 24
5.0
 15
25.0
 25
25.0
 16
0.0
 26
0.0
 36
1.0
 17
0.0
 27
0.0
 37
0.0
 40
191.2418267405651
 41
1.5552208835341359
 42
50.0
 43
0.0
 44
0.0
 50
0.0
 51
0.0
 71
     0
 72
 10000
 73
     1
 74
     0
 75
     0
 76
     0
 77
     0
 78
     0
  0
ENDTAB
  0
TABLE
  2
LTYPE
 70
     2
  0
LTYPE
  2
CONTINUOUS
 70
     0
  3
Solid line
 72
    65
 73
     0
 40
0.0
  0
LTYPE
  2
DASHDOT
 70
     0
  3
__ . __ . __ . __ . __ . __ . __ . __ . __ . __
 72
    65
 73
     4
 40
1.0
 49
0.5
 49
-0.25
 49
0.0
 49
-0.25
  0
ENDTAB
  0
TABLE
  2
LAYER
 70
     5
  0
LAYER
  2
0
 70
     0
 62
     6
  6
CONTINUOUS
  0
LAYER
  2
L1
 70
     0
 62
     7
  6
CONTINUOUS
  0
LAYER
  2
L6
 70
     0
 62
     1
  6
DASHDOT
  0
LAYER
  2
L22
 70
     0
 62
     3
  6
CONTINUOUS
  0
LAYER
  2
L45
 70
     0
 62
     1
  6
CONTINUOUS
  0
ENDTAB
  0
TABLE
  2
STYLE
 70
     2
  0
STYLE
  2
STANDARD
 70
     0
 40
0.0
 41
1.0
 50
0.0
 71
     0
 42
9.5
  3
KIRJAIN
  4

  0
STYLE
  2
SIMPLEX
 70
     0
 40
0.0
 41
0.8
 50
0.0
 71
     0
 42
6.25
  3
KIRJAIN
  4

  0
ENDTAB
  0
TABLE
  2
VIEW
 70
     0
  0
ENDTAB
  0
TABLE
  2
UCS
 70
     0
  0
ENDTAB
  0
TABLE
  2
APPID
 70
     1
  0
APPID
  2
ACAD
 70
     0
  0
ENDTAB
  0
TABLE
  2
DIMSTYLE
 70
     1
  0
DIMSTYLE
  2
STANDARD
 70
     0
  3

  4

  5

  6

  7

 40
1.0
 41
0.18
 42
0.0625
 43
0.38
 44
0.18
 45
0.0
 46
0.0
 47
0.0
 48
0.0
140
0.18
141
0.09
142
0.0
143
25.399999999999999
144
1.0
145
0.0
146
1.0
147
0.09
 71
     0
 72
     0
 73
     1
 74
     1
 75
     0
 76
     0
 77
     0
 78
     0
170
     0
171
     2
172
     0
173
     0
174
     0
175
     0
176
     0
177
     0
178
     0
  0
ENDTAB
  0
ENDSEC
  0
SECTION
  2
BLOCKS
  0
BLOCK
  8
0
  2
$MODEL_SPACE
 70
     0
 10
0.0
 20
0.0
 30
0.0
  3
$MODEL_SPACE
  1

  0
ENDBLK
  5
B
  8
0
  0
BLOCK
 67
     1
  8
0
  2
$PAPER_SPACE
 70
     0
 10
0.0
 20
0.0
 30
0.0
  3
$PAPER_SPACE
  1

  0
ENDBLK
  5
11
 67
     1
  8
0
  0
ENDSEC
  0
SECTION
  2
ENTITIES
  0
LINE
  5
28
  8
L1
 10
-1910.8035710536999
 20
881.34811978189714
 30
0.0
 11
-1910.8035710536999
 21
837.34811978189703
 31
0.0
  0
LINE
  5
2A
  8
L6
 10
-2045.803571053701
 20
884.34811978189703
 30
0.0
 11
-2045.803571053701
 21
789.34811978189703
 31
0.0
  0
LINE
  5
2D
  8
L1
 10
-2180.8035710537001
 20
881.34811978189714
 30
0.0
 11
-2180.8035710537001
 21
837.34811978189703
 31
0.0
  0
LINE
  5
2E
  8
L1
 10
-2157.8035710537001
 20
799.34811978189714
 30
0.0
 11
-2045.803571053701
 21
799.34811978189703
 31
0.0
  0
LINE
  5
2F
  8
L6
 10
-2175.8035710537001
 20
824.34811978189714
 30
0.0
 11
-2175.8035710537001
 21
834.34811978189703
 31
0.0
  0
LINE
  5
30
  8
L1
 10
-2180.8035710537001
 20
831.34811978189691
 30
0.0
 11
-2180.8035710537001
 21
822.34811978189714
 31
0.0
  0
LINE
  5
31
  8
L1
 10
-2180.8035710537001
 20
822.34811978189714
 30
0.0
 11
-2157.8035710537001
 21
799.34811978189714
 31
0.0
  0
LINE
  5
32
  8
L6
 10
-2185.8035710537001
 20
834.34811978189703
 30
0.0
 11
-2175.8035710537001
 21
834.34811978189703
 31
0.0
  0
LINE
  5
33
  8
L6
 10
-2175.8035710537001
 20
844.34811978189703
 30
0.0
 11
-2175.8035710537001
 21
834.34811978189703
 31
0.0
  0
ARC
  5
34
  8
L1
 10
-2175.8035710537001
 20
834.34811978189703
 30
0.0
 40
3.0
 50
270.00000000000051
 51
89.99999999999946
  0
LINE
  5
35
  8
L1
 10
-2175.8035710537001
 20
837.34811978189703
 30
0.0
 11
-2180.8035710537001
 21
837.34811978189703
 31
0.0
  0
LINE
  5
36
  8
L1
 10
-2175.8035710537001
 20
831.34811978189691
 30
0.0
 11
-2180.8035710537001
 21
831.34811978189691
 31
0.0
  0
LINE
  5
37
  8
L6
 10
-2175.8035710537001
 20
834.34811978189703
 30
0.0
 11
-2165.8035710537001
 21
834.34811978189703
 31
0.0
  0
LINE
  5
38
  8
L1
 10
-1933.8035710536999
 20
799.34811978189703
 30
0.0
 11
-1910.8035710536999
 21
822.34811978189691
 31
0.0
  0
LINE
  5
39
  8
L1
 10
-1933.8035710536999
 20
799.34811978189703
 30
0.0
 11
-2045.803571053701
 21
799.34811978189703
 31
0.0
  0
TEXT
  5
3A
  8
L22
 10
-2005.86837999875
 20
830.47724506684733
 30
0.0
 40
6.25
  1
s=1.5 mm
 41
0.8
  7
SIMPLEX
  0
LINE
  5
3C
  8
L1
 10
-1910.8035710536999
 20
831.34811978189691
 30
0.0
 11
-1910.8035710536999
 21
822.34811978189691
 31
0.0
  0
LINE
  5
3D
  8
L6
 10
-1915.8035710536999
 20
824.34811978189714
 30
0.0
 11
-1915.8035710536999
 21
834.34811978189703
 31
0.0
  0
ARC
  5
3E
  8
L1
 10
-1915.8035710536999
 20
834.34811978189703
 30
0.0
 40
3.0
 50
90.000000000000554
 51
269.99999999999937
  0
LINE
  5
3F
  8
L6
 10
-1915.8035710536999
 20
844.34811978189703
 30
0.0
 11
-1915.8035710536999
 21
834.34811978189703
 31
0.0
  0
LINE
  5
40
  8
L1
 10
-1915.8035710536999
 20
831.34811978189691
 30
0.0
 11
-1910.8035710536999
 21
831.34811978189691
 31
0.0
  0
LINE
  5
41
  8
L1
 10
-1915.8035710536999
 20
837.34811978189703
 30
0.0
 11
-1910.8035710536999
 21
837.34811978189703
 31
0.0
  0
LINE
  5
42
  8
L6
 10
-1915.8035710536999
 20
834.34811978189703
 30
0.0
 11
-1925.8035710536999
 21
834.34811978189703
 31
0.0
  0
LINE
  5
43
  8
L6
 10
-1905.8035710536999
 20
834.34811978189703
 30
0.0
 11
-1915.8035710536999
 21
834.34811978189703
 31
0.0
  0
LINE
  5
44
  8
L6
 10
-2190.8035710537001
 20
884.34811978189703
 30
0.0
 11
-2045.803571053701
 21
884.34811978189703
 31
0.0
  0
LINE
  5
45
  8
L1
 10
-2157.8035710537001
 20
969.34811978189703
 30
0.0
 11
-2045.803571053701
 21
969.34811978189703
 31
0.0
  0
LINE
  5
46
  8
L1
 10
-2180.8035710537001
 20
946.34811978189691
 30
0.0
 11
-2157.8035710537001
 21
969.34811978189703
 31
0.0
  0
LINE
  5
47
  8
L1
 10
-2180.8035710537001
 20
931.34811978189714
 30
0.0
 11
-2180.8035710537001
 21
887.34811978189703
 31
0.0
  0
LINE
  5
48
  8
L6
 10
-2175.8035710537001
 20
894.34811978189703
 30
0.0
 11
-2175.8035710537001
 21
884.34811978189703
 31
0.0
  0
ARC
  5
49
  8
L1
 10
-2175.8035710537001
 20
884.34811978189703
 30
0.0
 40
3.0
 50
270.00000000000051
 51
89.99999999999946
  0
LINE
  5
4A
  8
L6
 10
-2175.8035710537001
 20
874.34811978189714
 30
0.0
 11
-2175.8035710537001
 21
884.34811978189703
 31
0.0
  0
LINE
  5
4B
  8
L1
 10
-2175.8035710537001
 20
881.34811978189714
 30
0.0
 11
-2180.8035710537001
 21
881.34811978189714
 31
0.0
  0
LINE
  5
4C
  8
L1
 10
-2175.8035710537001
 20
887.34811978189703
 30
0.0
 11
-2180.8035710537001
 21
887.34811978189703
 31
0.0
  0
LINE
  5
4D
  8
L6
 10
-2175.8035710537001
 20
924.34811978189714
 30
0.0
 11
-2175.8035710537001
 21
934.34811978189703
 31
0.0
  0
LINE
  5
4E
  8
L6
 10
-2185.8035710537001
 20
934.34811978189703
 30
0.0
 11
-2175.8035710537001
 21
934.34811978189703
 31
0.0
  0
LINE
  5
4F
  8
L6
 10
-2175.8035710537001
 20
944.34811978189703
 30
0.0
 11
-2175.8035710537001
 21
934.34811978189703
 31
0.0
  0
ARC
  5
50
  8
L1
 10
-2175.8035710537001
 20
934.34811978189703
 30
0.0
 40
3.0
 50
270.00000000000051
 51
89.99999999999946
  0
LINE
  5
51
  8
L1
 10
-2180.8035710537001
 20
946.34811978189691
 30
0.0
 11
-2180.8035710537001
 21
937.34811978189703
 31
0.0
  0
LINE
  5
52
  8
L1
 10
-2175.8035710537001
 20
937.34811978189703
 30
0.0
 11
-2180.8035710537001
 21
937.34811978189703
 31
0.0
  0
LINE
  5
53
  8
L1
 10
-2175.8035710537001
 20
931.34811978189714
 30
0.0
 11
-2180.8035710537001
 21
931.34811978189714
 31
0.0
  0
LINE
  5
54
  8
L6
 10
-2175.8035710537001
 20
934.34811978189703
 30
0.0
 11
-2165.8035710537001
 21
934.34811978189703
 31
0.0
  0
LINE
  5
55
  8
L1
 10
-1933.8035710536999
 20
969.34811978189703
 30
0.0
 11
-1910.8035710536999
 21
946.34811978189691
 31
0.0
  0
LINE
  5
56
  8
L6
 10
-2045.803571053701
 20
884.34811978189703
 30
0.0
 11
-2045.803571053701
 21
979.34811978189691
 31
0.0
  0
LINE
  5
57
  8
L6
 10
-1900.8035710536999
 20
884.34811978189703
 30
0.0
 11
-2045.803571053701
 21
884.34811978189703
 31
0.0
  0
LINE
  5
58
  8
L1
 10
-1910.8035710536999
 20
931.34811978189714
 30
0.0
 11
-1910.8035710536999
 21
887.34811978189703
 31
0.0
  0
ARC
  5
59
  8
L1
 10
-1915.8035710536999
 20
884.34811978189703
 30
0.0
 40
3.0
 50
90.000000000000554
 51
269.99999999999937
  0
LINE
  5
5A
  8
L6
 10
-1915.8035710536999
 20
894.34811978189703
 30
0.0
 11
-1915.8035710536999
 21
884.34811978189703
 31
0.0
  0
LINE
  5
5B
  8
L6
 10
-1915.8035710536999
 20
874.34811978189714
 30
0.0
 11
-1915.8035710536999
 21
884.34811978189703
 31
0.0
  0
LINE
  5
5C
  8
L1
 10
-1915.8035710536999
 20
881.34811978189714
 30
0.0
 11
-1910.8035710536999
 21
881.34811978189714
 31
0.0
  0
LINE
  5
5D
  8
L1
 10
-1915.8035710536999
 20
887.34811978189703
 30
0.0
 11
-1910.8035710536999
 21
887.34811978189703
 31
0.0
  0
LINE
  5
5E
  8
L6
 10
-1915.8035710536999
 20
924.34811978189714
 30
0.0
 11
-1915.8035710536999
 21
934.34811978189703
 31
0.0
  0
LINE
  5
5F
  8
L1
 10
-1910.8035710536999
 20
946.34811978189691
 30
0.0
 11
-1910.8035710536999
 21
937.34811978189703
 31
0.0
  0
ARC
  5
60
  8
L1
 10
-1915.8035710536999
 20
934.34811978189703
 30
0.0
 40
3.0
 50
90.000000000000554
 51
269.99999999999937
  0
LINE
  5
61
  8
L6
 10
-1915.8035710536999
 20
944.34811978189703
 30
0.0
 11
-1915.8035710536999
 21
934.34811978189703
 31
0.0
  0
LINE
  5
62
  8
L1
 10
-1915.8035710536999
 20
931.34811978189714
 30
0.0
 11
-1910.8035710536999
 21
931.34811978189714
 31
0.0
  0
LINE
  5
63
  8
L1
 10
-1915.8035710536999
 20
937.34811978189703
 30
0.0
 11
-1910.8035710536999
 21
937.34811978189703
 31
0.0
  0
LINE
  5
64
  8
L6
 10
-1915.8035710536999
 20
934.34811978189703
 30
0.0
 11
-1925.8035710536999
 21
934.34811978189703
 31
0.0
  0
LINE
  5
65
  8
L6
 10
-1905.8035710536999
 20
934.34811978189703
 30
0.0
 11
-1915.8035710536999
 21
934.34811978189703
 31
0.0
  0
LINE
  5
66
  8
L1
 10
-1933.8035710536999
 20
969.34811978189703
 30
0.0
 11
-2045.803571053701
 21
969.34811978189703
 31
0.0
  0
ENDSEC
  0
EOF
