  0
SECTION
  2
HEADER
  9
$ACADVER
  1
AC1009
  9
$INSBASE
 10
-1531.626447635565
 20
834.34811978189668
 30
0.0
  9
$EXTMIN
 10
-1695.1117691311649
 20
689.30588091817435
 30
-0.0015258207003583
  9
$EXTMAX
 10
-1386.6053770681669
 20
979.37927480889391
 30
0.0000000349246037
  9
$LIMMIN
 10
-12.5
 20
12.5
  9
$LIMMAX
 10
1472.5
 20
1062.5
  9
$ORTHOMODE
 70
     1
  9
$REGENMODE
 70
     1
  9
$FILLMODE
 70
     1
  9
$QTEXTMODE
 70
     0
  9
$MIRRTEXT
 70
     1
  9
$DRAGMODE
 70
     2
  9
$LTSCALE
 40
10.0
  9
$OSMODE
 70
    37
  9
$ATTMODE
 70
     1
  9
$TEXTSIZE
 40
6.25
  9
$TRACEWID
 40
1.0
  9
$TEXTSTYLE
  7
SIMPLEX
  9
$CLAYER
  8
L45
  9
$CELTYPE
  6
BYLAYER
  9
$CECOLOR
 62
   256
  9
$DIMSCALE
 40
2.5
  9
$DIMASZ
 40
2.5
  9
$DIMEXO
 40
0.0625
  9
$DIMDLI
 40
10.0
  9
$DIMRND
 40
0.0
  9
$DIMDLE
 40
0.0
  9
$DIMEXE
 40
1.0
  9
$DIMTP
 40
0.0
  9
$DIMTM
 40
0.0
  9
$DIMTXT
 40
2.5
  9
$DIMCEN
 40
0.0
  9
$DIMTSZ
 40
0.0
  9
$DIMTOL
 70
     0
  9
$DIMLIM
 70
     0
  9
$DIMTIH
 70
     0
  9
$DIMTOH
 70
     0
  9
$DIMSE1
 70
     0
  9
$DIMSE2
 70
     0
  9
$DIMTAD
 70
     1
  9
$DIMZIN
 70
     0
  9
$DIMBLK
  1

  9
$DIMASO
 70
     1
  9
$DIMSHO
 70
     1
  9
$DIMPOST
  1

  9
$DIMAPOST
  1

  9
$DIMALT
 70
     0
  9
$DIMALTD
 70
     2
  9
$DIMALTF
 40
25.399999999999999
  9
$DIMLFAC
 40
1.0
  9
$DIMTOFL
 70
     1
  9
$DIMTVP
 40
0.0
  9
$DIMTIX
 70
     0
  9
$DIMSOXD
 70
     1
  9
$DIMSAH
 70
     1
  9
$DIMBLK1
  1

  9
$DIMBLK2
  1

  9
$DIMSTYLE
  2
STANDARD
  9
$DIMCLRD
 70
     0
  9
$DIMCLRE
 70
     0
  9
$DIMCLRT
 70
     0
  9
$DIMTFAC
 40
1.0
  9
$DIMGAP
 40
0.09
  9
$LUNITS
 70
     2
  9
$LUPREC
 70
     0
  9
$SKETCHINC
 40
0.1
  9
$FILLETRAD
 40
0.0
  9
$AUNITS
 70
     0
  9
$AUPREC
 70
     0
  9
$MENU
  1
TKK-ACAD
  9
$ELEVATION
 40
0.0
  9
$PELEVATION
 40
0.0
  9
$THICKNESS
 40
0.0
  9
$LIMCHECK
 70
     0
  9
$BLIPMODE
 70
     0
  9
$CHAMFERA
 40
12.5
  9
$CHAMFERB
 40
12.5
  9
$SKPOLY
 70
     0
  9
$TDCREATE
 40
2447882.4555549771
  9
$TDUPDATE
 40
2453686.5518014352
  9
$TDINDWG
 40
0.0947800116
  9
$TDUSRTIMER
 40
0.0
  9
$USRTIMER
 70
     0
  9
$ANGBASE
 50
0.0
  9
$ANGDIR
 70
     0
  9
$PDMODE
 70
     0
  9
$PDSIZE
 40
0.0
  9
$PLINEWID
 40
1.0
  9
$COORDS
 70
     2
  9
$SPLFRAME
 70
     0
  9
$SPLINETYPE
 70
     6
  9
$SPLINESEGS
 70
     8
  9
$ATTDIA
 70
     0
  9
$ATTREQ
 70
     1
  9
$HANDLING
 70
-16383
  9
$HANDSEED
  5
BB
  9
$SURFTAB1
 70
     6
  9
$SURFTAB2
 70
     6
  9
$SURFTYPE
 70
     6
  9
$SURFU
 70
     6
  9
$SURFV
 70
     6
  9
$UCSNAME
  2

  9
$UCSORG
 10
0.0
 20
0.0
 30
0.0
  9
$UCSXDIR
 10
1.0
 20
0.0
 30
0.0
  9
$UCSYDIR
 10
0.0
 20
1.0
 30
0.0
  9
$PUCSNAME
  2

  9
$PUCSORG
 10
0.0
 20
0.0
 30
0.0
  9
$PUCSXDIR
 10
1.0
 20
0.0
 30
0.0
  9
$PUCSYDIR
 10
0.0
 20
1.0
 30
0.0
  9
$USERI1
 70
     0
  9
$USERI2
 70
     0
  9
$USERI3
 70
     0
  9
$USERI4
 70
     0
  9
$USERI5
 70
     0
  9
$USERR1
 40
2.5
  9
$USERR2
 40
1.25
  9
$USERR3
 40
0.5
  9
$USERR4
 40
0.0
  9
$USERR5
 40
0.0
  9
$WORLDVIEW
 70
     1
  9
$SHADEDGE
 70
     3
  9
$SHADEDIF
 70
    70
  9
$TILEMODE
 70
     1
  9
$MAXACTVP
 70
    48
  9
$PLIMCHECK
 70
     0
  9
$PEXTMIN
 10
1.0000000000000000E+020
 20
1.0000000000000000E+020
 30
1.0000000000000000E+020
  9
$PEXTMAX
 10
-1.0000000000000000E+020
 20
-1.0000000000000000E+020
 30
-1.0000000000000000E+020
  9
$PLIMMIN
 10
0.0
 20
0.0
  9
$PLIMMAX
 10
12.0
 20
9.0
  9
$UNITMODE
 70
     0
  9
$VISRETAIN
 70
     0
  9
$PLINEGEN
 70
     0
  9
$PSLTSCALE
 70
     0
  0
ENDSEC
  0
SECTION
  2
TABLES
  0
TABLE
  2
VPORT
 70
     3
  0
VPORT
  2
*ACTIVE
 70
     0
 10
0.0
 20
0.0
 11
1.0
 21
1.0
 12
-1540.858573099666
 22
834.34257786353419
 13
0.0
 23
0.0
 14
5.0
 24
5.0
 15
25.0
 25
25.0
 16
0.0
 26
0.0
 36
1.0
 17
0.0
 27
0.0
 37
0.0
 40
291.81907128625062
 41
1.5552208835341359
 42
50.0
 43
0.0
 44
0.0
 50
0.0
 51
0.0
 71
     0
 72
 10000
 73
     1
 74
     0
 75
     0
 76
     0
 77
     0
 78
     0
  0
ENDTAB
  0
TABLE
  2
LTYPE
 70
     2
  0
LTYPE
  2
CONTINUOUS
 70
     0
  3
Solid line
 72
    65
 73
     0
 40
0.0
  0
LTYPE
  2
DASHDOT
 70
     0
  3
__ . __ . __ . __ . __ . __ . __ . __ . __ . __
 72
    65
 73
     4
 40
1.0
 49
0.5
 49
-0.25
 49
0.0
 49
-0.25
  0
ENDTAB
  0
TABLE
  2
LAYER
 70
     5
  0
LAYER
  2
0
 70
     0
 62
     6
  6
CONTINUOUS
  0
LAYER
  2
L1
 70
     0
 62
     7
  6
CONTINUOUS
  0
LAYER
  2
L6
 70
     0
 62
     1
  6
DASHDOT
  0
LAYER
  2
L22
 70
     0
 62
     3
  6
CONTINUOUS
  0
LAYER
  2
L45
 70
     0
 62
     1
  6
CONTINUOUS
  0
ENDTAB
  0
TABLE
  2
STYLE
 70
     2
  0
STYLE
  2
STANDARD
 70
     0
 40
0.0
 41
1.0
 50
0.0
 71
     0
 42
9.5
  3
KIRJAIN
  4

  0
STYLE
  2
SIMPLEX
 70
     0
 40
0.0
 41
0.8
 50
0.0
 71
     0
 42
6.25
  3
KIRJAIN
  4

  0
ENDTAB
  0
TABLE
  2
VIEW
 70
     0
  0
ENDTAB
  0
TABLE
  2
UCS
 70
     0
  0
ENDTAB
  0
TABLE
  2
APPID
 70
     1
  0
APPID
  2
ACAD
 70
     0
  0
ENDTAB
  0
TABLE
  2
DIMSTYLE
 70
     1
  0
DIMSTYLE
  2
STANDARD
 70
     0
  3

  4

  5

  6

  7

 40
1.0
 41
0.18
 42
0.0625
 43
0.38
 44
0.18
 45
0.0
 46
0.0
 47
0.0
 48
0.0
140
0.18
141
0.09
142
0.0
143
25.399999999999999
144
1.0
145
0.0
146
1.0
147
0.09
 71
     0
 72
     0
 73
     1
 74
     1
 75
     0
 76
     0
 77
     0
 78
     0
170
     0
171
     2
172
     0
173
     0
174
     0
175
     0
176
     0
177
     0
178
     0
  0
ENDTAB
  0
ENDSEC
  0
SECTION
  2
BLOCKS
  0
BLOCK
  8
0
  2
$MODEL_SPACE
 70
     0
 10
0.0
 20
0.0
 30
0.0
  3
$MODEL_SPACE
  1

  0
ENDBLK
  5
B
  8
0
  0
BLOCK
 67
     1
  8
0
  2
$PAPER_SPACE
 70
     0
 10
0.0
 20
0.0
 30
0.0
  3
$PAPER_SPACE
  1

  0
ENDBLK
  5
11
 67
     1
  8
0
  0
ENDSEC
  0
SECTION
  2
ENTITIES
  0
LINE
  5
28
  8
L6
 10
-1386.626447635565
 20
834.34811978189646
 30
0.0
 11
-1695.0670250634439
 21
834.34811978189646
 31
0.0
  0
LINE
  5
2B
  8
L1
 10
-1531.626447635565
 20
969.34811978189657
 30
0.0
 11
-1419.626447635565
 21
969.3481197818968
 31
0.0
  0
LINE
  5
2D
  8
L1
 10
-1419.626447635565
 20
699.34811978189657
 30
0.0
 11
-1531.626447635565
 21
699.34811978189657
 31
0.0
  0
LINE
  5
2E
  8
L6
 10
-1531.626447635565
 20
834.34811978189646
 30
0.0
 11
-1531.626447635565
 21
979.34811978189657
 31
0.0
  0
LINE
  5
2F
  8
L1
 10
-1666.626447635565
 20
881.34811978189646
 30
0.0
 11
-1666.626447635565
 21
837.34811978189657
 31
0.0
  0
LINE
  5
30
  8
L6
 10
-1531.626447635565
 20
834.34811978189668
 30
0.0
 11
-1531.626447635565
 21
689.34811978189657
 31
0.0
  0
LINE
  5
31
  8
L1
 10
-1666.626447635565
 20
722.34811978189668
 30
0.0
 11
-1643.626447635565
 21
699.34811978189657
 31
0.0
  0
LINE
  5
32
  8
L1
 10
-1643.626447635565
 20
699.34811978189657
 30
0.0
 11
-1531.626447635565
 21
699.34811978189657
 31
0.0
  0
LINE
  5
33
  8
L6
 10
-1661.626447635565
 20
774.34811978189657
 30
0.0
 11
-1661.626447635565
 21
784.34811978189668
 31
0.0
  0
ARC
  5
34
  8
L1
 10
-1661.626447635565
 20
784.34811978189668
 30
0.0
 40
3.0
 50
270.00000000000051
 51
89.99999999999946
  0
LINE
  5
35
  8
L6
 10
-1661.626447635565
 20
744.34811978189657
 30
0.0
 11
-1661.626447635565
 21
734.34811978189668
 31
0.0
  0
LINE
  5
36
  8
L1
 10
-1666.626447635565
 20
781.34811978189657
 30
0.0
 11
-1666.626447635565
 21
737.34811978189668
 31
0.0
  0
LINE
  5
37
  8
L6
 10
-1661.626447635565
 20
734.34811978189668
 30
0.0
 11
-1651.6264476355659
 21
734.34811978189668
 31
0.0
  0
LINE
  5
38
  8
L6
 10
-1661.626447635565
 20
724.34811978189657
 30
0.0
 11
-1661.626447635565
 21
734.34811978189668
 31
0.0
  0
ARC
  5
39
  8
L1
 10
-1661.626447635565
 20
734.34811978189668
 30
0.0
 40
3.0
 50
270.00000000000051
 51
89.99999999999946
  0
LINE
  5
3A
  8
L1
 10
-1666.626447635565
 20
731.34811978189657
 30
0.0
 11
-1666.626447635565
 21
722.34811978189668
 31
0.0
  0
LINE
  5
3B
  8
L6
 10
-1671.626447635565
 20
734.34811978189668
 30
0.0
 11
-1661.626447635565
 21
734.34811978189668
 31
0.0
  0
LINE
  5
3C
  8
L1
 10
-1661.626447635565
 20
737.34811978189668
 30
0.0
 11
-1666.626447635565
 21
737.34811978189668
 31
0.0
  0
LINE
  5
3D
  8
L1
 10
-1661.626447635565
 20
731.34811978189657
 30
0.0
 11
-1666.626447635565
 21
731.34811978189657
 31
0.0
  0
LINE
  5
3E
  8
L1
 10
-1661.626447635565
 20
781.34811978189657
 30
0.0
 11
-1666.626447635565
 21
781.34811978189657
 31
0.0
  0
LINE
  5
3F
  8
L6
 10
-1661.626447635565
 20
824.34811978189646
 30
0.0
 11
-1661.626447635565
 21
834.34811978189646
 31
0.0
  0
LINE
  5
40
  8
L1
 10
-1666.626447635565
 20
831.34811978189646
 30
0.0
 11
-1666.626447635565
 21
787.34811978189668
 31
0.0
  0
LINE
  5
41
  8
L6
 10
-1661.626447635565
 20
784.34811978189668
 30
0.0
 11
-1651.6264476355659
 21
784.34811978189668
 31
0.0
  0
LINE
  5
42
  8
L6
 10
-1661.626447635565
 20
794.34811978189657
 30
0.0
 11
-1661.626447635565
 21
784.34811978189668
 31
0.0
  0
LINE
  5
43
  8
L6
 10
-1671.626447635565
 20
784.34811978189668
 30
0.0
 11
-1661.626447635565
 21
784.34811978189668
 31
0.0
  0
LINE
  5
44
  8
L1
 10
-1661.626447635565
 20
787.34811978189668
 30
0.0
 11
-1666.626447635565
 21
787.34811978189668
 31
0.0
  0
LINE
  5
45
  8
L6
 10
-1661.626447635565
 20
844.34811978189657
 30
0.0
 11
-1661.626447635565
 21
834.34811978189668
 31
0.0
  0
ARC
  5
46
  8
L1
 10
-1661.626447635565
 20
834.34811978189646
 30
0.0
 40
3.0
 50
270.00000000000051
 51
89.99999999999946
  0
LINE
  5
47
  8
L1
 10
-1661.626447635565
 20
831.34811978189646
 30
0.0
 11
-1666.626447635565
 21
831.34811978189646
 31
0.0
  0
LINE
  5
48
  8
L1
 10
-1661.626447635565
 20
837.34811978189657
 30
0.0
 11
-1666.626447635565
 21
837.34811978189657
 31
0.0
  0
LINE
  5
49
  8
L1
 10
-1666.626447635565
 20
946.3481197818968
 30
0.0
 11
-1643.626447635565
 21
969.3481197818968
 31
0.0
  0
LINE
  5
4A
  8
L1
 10
-1666.626447635565
 20
931.34811978189646
 30
0.0
 11
-1666.626447635565
 21
887.34811978189657
 31
0.0
  0
LINE
  5
4B
  8
L6
 10
-1661.626447635565
 20
894.34811978189657
 30
0.0
 11
-1661.626447635565
 21
884.34811978189668
 31
0.0
  0
ARC
  5
4C
  8
L1
 10
-1661.626447635565
 20
884.34811978189646
 30
0.0
 40
3.0
 50
270.00000000000051
 51
89.99999999999946
  0
LINE
  5
4D
  8
L6
 10
-1661.626447635565
 20
884.34811978189646
 30
0.0
 11
-1651.6264476355659
 21
884.34811978189646
 31
0.0
  0
LINE
  5
4E
  8
L6
 10
-1661.626447635565
 20
874.34811978189646
 30
0.0
 11
-1661.626447635565
 21
884.34811978189646
 31
0.0
  0
LINE
  5
4F
  8
L6
 10
-1671.626447635565
 20
884.34811978189646
 30
0.0
 11
-1661.626447635565
 21
884.34811978189646
 31
0.0
  0
LINE
  5
50
  8
L1
 10
-1661.626447635565
 20
881.34811978189646
 30
0.0
 11
-1666.626447635565
 21
881.34811978189646
 31
0.0
  0
LINE
  5
51
  8
L1
 10
-1661.626447635565
 20
887.34811978189657
 30
0.0
 11
-1666.626447635565
 21
887.34811978189657
 31
0.0
  0
LINE
  5
52
  8
L6
 10
-1661.626447635565
 20
924.34811978189646
 30
0.0
 11
-1661.626447635565
 21
934.34811978189646
 31
0.0
  0
LINE
  5
53
  8
L6
 10
-1661.626447635565
 20
934.34811978189646
 30
0.0
 11
-1651.6264476355659
 21
934.34811978189646
 31
0.0
  0
LINE
  5
54
  8
L6
 10
-1661.626447635565
 20
944.34811978189657
 30
0.0
 11
-1661.626447635565
 21
934.34811978189668
 31
0.0
  0
ARC
  5
55
  8
L1
 10
-1661.626447635565
 20
934.34811978189646
 30
0.0
 40
3.0
 50
270.00000000000051
 51
89.99999999999946
  0
LINE
  5
56
  8
L1
 10
-1666.626447635565
 20
946.3481197818968
 30
0.0
 11
-1666.626447635565
 21
937.34811978189657
 31
0.0
  0
LINE
  5
57
  8
L6
 10
-1671.626447635565
 20
934.34811978189646
 30
0.0
 11
-1661.626447635565
 21
934.34811978189646
 31
0.0
  0
LINE
  5
58
  8
L1
 10
-1661.626447635565
 20
937.34811978189657
 30
0.0
 11
-1666.626447635565
 21
937.34811978189657
 31
0.0
  0
LINE
  5
59
  8
L1
 10
-1661.626447635565
 20
931.34811978189646
 30
0.0
 11
-1666.626447635565
 21
931.34811978189646
 31
0.0
  0
LINE
  5
5A
  8
L1
 10
-1531.626447635565
 20
969.34811978189657
 30
0.0
 11
-1643.626447635565
 21
969.3481197818968
 31
0.0
  0
LINE
  5
5B
  8
L1
 10
-1396.626447635565
 20
881.34811978189646
 30
0.0
 11
-1396.626447635565
 21
837.34811978189657
 31
0.0
  0
LINE
  5
5C
  8
L1
 10
-1396.626447635565
 20
722.34811978189668
 30
0.0
 11
-1419.626447635565
 21
699.34811978189657
 31
0.0
  0
ARC
  5
5D
  8
L1
 10
-1401.626447635565
 20
784.34811978189668
 30
0.0
 40
3.0
 50
90.000000000000554
 51
269.99999999999937
  0
LINE
  5
5E
  8
L6
 10
-1401.626447635565
 20
774.34811978189657
 30
0.0
 11
-1401.626447635565
 21
784.34811978189668
 31
0.0
  0
LINE
  5
5F
  8
L1
 10
-1396.626447635565
 20
781.34811978189657
 30
0.0
 11
-1396.626447635565
 21
737.34811978189668
 31
0.0
  0
LINE
  5
60
  8
L6
 10
-1401.626447635565
 20
744.34811978189657
 30
0.0
 11
-1401.626447635565
 21
734.34811978189668
 31
0.0
  0
LINE
  5
61
  8
L6
 10
-1391.626447635565
 20
734.34811978189668
 30
0.0
 11
-1401.626447635565
 21
734.34811978189668
 31
0.0
  0
LINE
  5
62
  8
L1
 10
-1401.626447635565
 20
731.34811978189657
 30
0.0
 11
-1396.626447635565
 21
731.34811978189657
 31
0.0
  0
LINE
  5
63
  8
L1
 10
-1401.626447635565
 20
737.34811978189668
 30
0.0
 11
-1396.626447635565
 21
737.34811978189668
 31
0.0
  0
LINE
  5
64
  8
L6
 10
-1401.626447635565
 20
724.34811978189657
 30
0.0
 11
-1401.626447635565
 21
734.34811978189668
 31
0.0
  0
LINE
  5
65
  8
L6
 10
-1401.626447635565
 20
734.34811978189668
 30
0.0
 11
-1411.626447635565
 21
734.34811978189668
 31
0.0
  0
ARC
  5
66
  8
L1
 10
-1401.626447635565
 20
734.34811978189668
 30
0.0
 40
3.0
 50
90.000000000000554
 51
269.99999999999937
  0
LINE
  5
67
  8
L1
 10
-1396.626447635565
 20
731.34811978189657
 30
0.0
 11
-1396.626447635565
 21
722.34811978189668
 31
0.0
  0
TEXT
  5
68
  8
L22
 10
-1493.6772034828889
 20
746.7184390948546
 30
0.0
 40
6.25
  1
s=1.5 mm
 41
0.8
  7
SIMPLEX
  0
LINE
  5
6A
  8
L1
 10
-1401.626447635565
 20
781.34811978189657
 30
0.0
 11
-1396.626447635565
 21
781.34811978189657
 31
0.0
  0
LINE
  5
6B
  8
L1
 10
-1396.626447635565
 20
831.34811978189646
 30
0.0
 11
-1396.626447635565
 21
787.34811978189668
 31
0.0
  0
LINE
  5
6C
  8
L6
 10
-1401.626447635565
 20
824.34811978189646
 30
0.0
 11
-1401.626447635565
 21
834.34811978189646
 31
0.0
  0
LINE
  5
6D
  8
L6
 10
-1391.626447635565
 20
784.34811978189668
 30
0.0
 11
-1401.626447635565
 21
784.34811978189668
 31
0.0
  0
LINE
  5
6E
  8
L1
 10
-1401.626447635565
 20
787.34811978189668
 30
0.0
 11
-1396.626447635565
 21
787.34811978189668
 31
0.0
  0
LINE
  5
6F
  8
L6
 10
-1401.626447635565
 20
794.34811978189657
 30
0.0
 11
-1401.626447635565
 21
784.34811978189668
 31
0.0
  0
LINE
  5
70
  8
L6
 10
-1401.626447635565
 20
784.34811978189668
 30
0.0
 11
-1411.626447635565
 21
784.34811978189668
 31
0.0
  0
LINE
  5
71
  8
L1
 10
-1401.626447635565
 20
837.34811978189657
 30
0.0
 11
-1396.626447635565
 21
837.34811978189657
 31
0.0
  0
LINE
  5
72
  8
L1
 10
-1401.626447635565
 20
831.34811978189646
 30
0.0
 11
-1396.626447635565
 21
831.34811978189646
 31
0.0
  0
LINE
  5
73
  8
L6
 10
-1401.626447635565
 20
844.34811978189657
 30
0.0
 11
-1401.626447635565
 21
834.34811978189668
 31
0.0
  0
ARC
  5
74
  8
L1
 10
-1401.626447635565
 20
834.34811978189646
 30
0.0
 40
3.0
 50
90.000000000000554
 51
269.99999999999937
  0
LINE
  5
75
  8
L1
 10
-1396.626447635565
 20
946.3481197818968
 30
0.0
 11
-1419.626447635565
 21
969.3481197818968
 31
0.0
  0
LINE
  5
76
  8
L1
 10
-1396.626447635565
 20
931.34811978189646
 30
0.0
 11
-1396.626447635565
 21
887.34811978189657
 31
0.0
  0
ARC
  5
77
  8
L1
 10
-1401.626447635565
 20
884.34811978189646
 30
0.0
 40
3.0
 50
90.000000000000554
 51
269.99999999999937
  0
LINE
  5
78
  8
L6
 10
-1401.626447635565
 20
894.34811978189657
 30
0.0
 11
-1401.626447635565
 21
884.34811978189668
 31
0.0
  0
LINE
  5
79
  8
L6
 10
-1391.626447635565
 20
884.34811978189646
 30
0.0
 11
-1401.626447635565
 21
884.34811978189646
 31
0.0
  0
LINE
  5
7A
  8
L1
 10
-1401.626447635565
 20
881.34811978189646
 30
0.0
 11
-1396.626447635565
 21
881.34811978189646
 31
0.0
  0
LINE
  5
7B
  8
L6
 10
-1401.626447635565
 20
874.34811978189646
 30
0.0
 11
-1401.626447635565
 21
884.34811978189646
 31
0.0
  0
LINE
  5
7C
  8
L6
 10
-1401.626447635565
 20
884.34811978189646
 30
0.0
 11
-1411.626447635565
 21
884.34811978189646
 31
0.0
  0
LINE
  5
7D
  8
L1
 10
-1401.626447635565
 20
887.34811978189657
 30
0.0
 11
-1396.626447635565
 21
887.34811978189657
 31
0.0
  0
LINE
  5
7E
  8
L6
 10
-1401.626447635565
 20
924.34811978189646
 30
0.0
 11
-1401.626447635565
 21
934.34811978189646
 31
0.0
  0
LINE
  5
7F
  8
L6
 10
-1391.626447635565
 20
934.34811978189646
 30
0.0
 11
-1401.626447635565
 21
934.34811978189646
 31
0.0
  0
LINE
  5
80
  8
L1
 10
-1401.626447635565
 20
931.34811978189646
 30
0.0
 11
-1396.626447635565
 21
931.34811978189646
 31
0.0
  0
LINE
  5
81
  8
L1
 10
-1401.626447635565
 20
937.34811978189657
 30
0.0
 11
-1396.626447635565
 21
937.34811978189657
 31
0.0
  0
LINE
  5
82
  8
L6
 10
-1401.626447635565
 20
944.34811978189657
 30
0.0
 11
-1401.626447635565
 21
934.34811978189668
 31
0.0
  0
LINE
  5
83
  8
L6
 10
-1401.626447635565
 20
934.34811978189646
 30
0.0
 11
-1411.626447635565
 21
934.34811978189646
 31
0.0
  0
ARC
  5
84
  8
L1
 10
-1401.626447635565
 20
934.34811978189646
 30
0.0
 40
3.0
 50
90.000000000000554
 51
269.99999999999937
  0
LINE
  5
85
  8
L1
 10
-1396.626447635565
 20
946.3481197818968
 30
0.0
 11
-1396.626447635565
 21
937.34811978189657
 31
0.0
  0
ENDSEC
  0
EOF
