  0
SECTION
  2
HEADER
  9
$ACADVER
  1
AC1014
  9
$ACADMAINTVER
 70
     9
  9
$DWGCODEPAGE
  3
ANSI_1252
  9
$INSBASE
 10
0.0
 20
0.0
 30
0.0
  9
$EXTMIN
 10
0.0
 20
0.0
 30
0.0
  9
$EXTMAX
 10
630.0
 20
445.5
 30
0.0
  9
$LIMMIN
 10
0.0
 20
0.0
  9
$LIMMAX
 10
630.0
 20
445.5
  9
$ORTHOMODE
 70
     0
  9
$REGENMODE
 70
     1
  9
$FILLMODE
 70
     1
  9
$QTEXTMODE
 70
     0
  9
$MIRRTEXT
 70
     1
  9
$DRAGMODE
 70
     2
  9
$LTSCALE
 40
1.5
  9
$OSMODE
 70
    37
  9
$ATTMODE
 70
     1
  9
$TEXTSIZE
 40
5.25
  9
$TRACEWID
 40
1.0
  9
$TEXTSTYLE
  7
STANDARD
  9
$CLAYER
  8
0
  9
$CELTYPE
  6
BYLAYER
  9
$CECOLOR
 62
   256
  9
$CELTSCALE
 40
1.0
  9
$DELOBJ
 70
     1
  9
$DISPSILH
 70
     0
  9
$DIMSCALE
 40
1.0
  9
$DIMASZ
 40
9.0
  9
$DIMEXO
 40
1.5
  9
$DIMDLI
 40
3.75
  9
$DIMRND
 40
0.0
  9
$DIMDLE
 40
0.0
  9
$DIMEXE
 40
1.5
  9
$DIMTP
 40
0.0
  9
$DIMTM
 40
0.0
  9
$DIMTXT
 40
5.25
  9
$DIMCEN
 40
2.5
  9
$DIMTSZ
 40
0.0
  9
$DIMTOL
 70
     0
  9
$DIMLIM
 70
     0
  9
$DIMTIH
 70
     1
  9
$DIMTOH
 70
     1
  9
$DIMSE1
 70
     0
  9
$DIMSE2
 70
     0
  9
$DIMTAD
 70
     1
  9
$DIMZIN
 70
     0
  9
$DIMBLK
  1

  9
$DIMASO
 70
     1
  9
$DIMSHO
 70
     1
  9
$DIMPOST
  1

  9
$DIMAPOST
  1

  9
$DIMALT
 70
     0
  9
$DIMALTD
 70
     3
  9
$DIMALTF
 40
0.0393700787
  9
$DIMLFAC
 40
1.0
  9
$DIMTOFL
 70
     1
  9
$DIMTVP
 40
0.0
  9
$DIMTIX
 70
     0
  9
$DIMSOXD
 70
     0
  9
$DIMSAH
 70
     0
  9
$DIMBLK1
  1

  9
$DIMBLK2
  1

  9
$DIMSTYLE
  2
ISO-25
  9
$DIMCLRD
 70
     0
  9
$DIMCLRE
 70
     0
  9
$DIMCLRT
 70
     0
  9
$DIMTFAC
 40
1.0
  9
$DIMGAP
 40
2.286
  9
$DIMJUST
 70
     0
  9
$DIMSD1
 70
     0
  9
$DIMSD2
 70
     0
  9
$DIMTOLJ
 70
     0
  9
$DIMTZIN
 70
     0
  9
$DIMALTZ
 70
     0
  9
$DIMALTTZ
 70
     0
  9
$DIMFIT
 70
     3
  9
$DIMUPT
 70
     0
  9
$DIMUNIT
 70
     2
  9
$DIMDEC
 70
     2
  9
$DIMTDEC
 70
     2
  9
$DIMALTU
 70
     2
  9
$DIMALTTD
 70
     3
  9
$DIMTXSTY
  7
STANDARD
  9
$DIMAUNIT
 70
     0
  9
$LUNITS
 70
     2
  9
$LUPREC
 70
     2
  9
$SKETCHINC
 40
1.0
  9
$FILLETRAD
 40
10.0
  9
$AUNITS
 70
     0
  9
$AUPREC
 70
     2
  9
$MENU
  1
.
  9
$ELEVATION
 40
0.0
  9
$PELEVATION
 40
0.0
  9
$THICKNESS
 40
0.0
  9
$LIMCHECK
 70
     0
  9
$CHAMFERA
 40
10.0
  9
$CHAMFERB
 40
10.0
  9
$CHAMFERC
 40
20.0
  9
$CHAMFERD
 40
0.0
  9
$SKPOLY
 70
     0
  9
$TDCREATE
 40
2455623.343999445
  9
$TDUPDATE
 40
2455623.343999456
  9
$TDINDWG
 40
0.0000000116
  9
$TDUSRTIMER
 40
0.0000000116
  9
$USRTIMER
 70
     1
  9
$ANGBASE
 50
0.0
  9
$ANGDIR
 70
     0
  9
$PDMODE
 70
     0
  9
$PDSIZE
 40
-1.0
  9
$PLINEWID
 40
0.0
  9
$COORDS
 70
     1
  9
$SPLFRAME
 70
     0
  9
$SPLINETYPE
 70
     6
  9
$SPLINESEGS
 70
     8
  9
$ATTDIA
 70
     0
  9
$ATTREQ
 70
     1
  9
$HANDLING
 70
     1
  9
$HANDSEED
  5
349
  9
$SURFTAB1
 70
     6
  9
$SURFTAB2
 70
     6
  9
$SURFTYPE
 70
     6
  9
$SURFU
 70
     6
  9
$SURFV
 70
     6
  9
$UCSNAME
  2

  9
$UCSORG
 10
0.0
 20
0.0
 30
0.0
  9
$UCSXDIR
 10
1.0
 20
0.0
 30
0.0
  9
$UCSYDIR
 10
0.0
 20
1.0
 30
0.0
  9
$PUCSNAME
  2

  9
$PUCSORG
 10
0.0
 20
0.0
 30
0.0
  9
$PUCSXDIR
 10
1.0
 20
0.0
 30
0.0
  9
$PUCSYDIR
 10
0.0
 20
1.0
 30
0.0
  9
$USERI1
 70
     0
  9
$USERI2
 70
     0
  9
$USERI3
 70
     0
  9
$USERI4
 70
     0
  9
$USERI5
 70
     0
  9
$USERR1
 40
0.0
  9
$USERR2
 40
0.0
  9
$USERR3
 40
0.0
  9
$USERR4
 40
0.0
  9
$USERR5
 40
0.0
  9
$WORLDVIEW
 70
     1
  9
$SHADEDGE
 70
     3
  9
$SHADEDIF
 70
    70
  9
$TILEMODE
 70
     1
  9
$MAXACTVP
 70
    64
  9
$PINSBASE
 10
0.0
 20
0.0
 30
0.0
  9
$PLIMCHECK
 70
     0
  9
$PEXTMIN
 10
1.0000000000E+20
 20
1.0000000000E+20
 30
1.0000000000E+20
  9
$PEXTMAX
 10
-1.0000000000E+20
 20
-1.0000000000E+20
 30
-1.0000000000E+20
  9
$PLIMMIN
 10
0.0
 20
0.0
  9
$PLIMMAX
 10
420.0
 20
297.0
  9
$UNITMODE
 70
     0
  9
$VISRETAIN
 70
     1
  9
$PLINEGEN
 70
     0
  9
$PSLTSCALE
 70
     1
  9
$TREEDEPTH
 70
  3020
  9
$PICKSTYLE
 70
     1
  9
$CMLSTYLE
  2
STANDARD
  9
$CMLJUST
 70
     0
  9
$CMLSCALE
 40
20.0
  9
$PROXYGRAPHICS
 70
     1
  9
$MEASUREMENT
 70
     1
  0
ENDSEC
  0
SECTION
  2
CLASSES
  0
CLASS
  1
ACDBDICTIONARYWDFLT
  2
AcDbDictionaryWithDefault
  3
ObjectDBX Classes
 90
        0
280
     0
281
     0
  0
CLASS
  1
VISUALSTYLE
  2
AcDbVisualStyle
  3
ObjectDBX Classes
 90
     4095
280
     0
281
     0
  0
CLASS
  1
MATERIAL
  2
AcDbMaterial
  3
ObjectDBX Classes
 90
     1153
280
     0
281
     0
  0
CLASS
  1
XRECORD
  2
AcDbXrecord
  3
AutoCAD 2000
 90
        0
280
     0
281
     0
  0
CLASS
  1
LWPOLYLINE
  2
AcDbPolyline
  3
AutoCAD 2000
 90
        0
280
     0
281
     1
  0
CLASS
  1
HATCH
  2
AcDbHatch
  3
AutoCAD 2000
 90
        0
280
     0
281
     1
  0
ENDSEC
  0
SECTION
  2
TABLES
  0
TABLE
  2
VPORT
  5
8
330
0
100
AcDbSymbolTable
 70
     1
  0
VPORT
  5
29
330
8
100
AcDbSymbolTableRecord
100
AcDbViewportTableRecord
  2
*ACTIVE
 70
     0
 10
0.0
 20
0.0
 11
1.0
 21
1.0
 12
315.0
 22
222.75
 13
0.0
 23
0.0
 14
10.0
 24
10.0
 15
10.0
 25
10.0
 16
0.0
 26
0.0
 36
1.0
 17
0.0
 27
0.0
 37
0.0
 40
445.5
 41
1.4141414141
 42
50.0
 43
0.0
 44
0.0
 50
0.0
 51
0.0
 71
     0
 72
  2000
 73
     1
 74
     3
 75
     0
 76
     0
 77
     0
 78
     0
  0
ENDTAB
  0
TABLE
  2
LTYPE
  5
5
330
0
100
AcDbSymbolTable
 70
     6
  0
LTYPE
  5
14
330
5
100
AcDbSymbolTableRecord
100
AcDbLinetypeTableRecord
  2
BYBLOCK
 70
     0
  3

 72
    65
 73
     0
 40
0.0
  0
LTYPE
  5
15
330
5
100
AcDbSymbolTableRecord
100
AcDbLinetypeTableRecord
  2
BYLAYER
 70
     0
  3

 72
    65
 73
     0
 40
0.0
  0
LTYPE
  5
16
330
5
100
AcDbSymbolTableRecord
100
AcDbLinetypeTableRecord
  2
CONTINUOUS
 70
     0
  3
Solid line
 72
    65
 73
     0
 40
0.0
  0
LTYPE
  5
3F
330
5
100
AcDbSymbolTableRecord
100
AcDbLinetypeTableRecord
  2
HIDDEN
 70
     0
  3
Hidden __ __ __ __ __ __ __ __ __ __ __ __ __ __
 72
    65
 73
     2
 40
1.905
 49
1.27
 74
     0
 49
-0.635
 74
     0
  0
LTYPE
  5
40
330
5
100
AcDbSymbolTableRecord
100
AcDbLinetypeTableRecord
  2
PHANTOM
 70
     0
  3
Phantom ______  __  __  ______  __  __  ______
 72
    65
 73
     6
 40
12.7
 49
6.35
 74
     0
 49
-1.27
 74
     0
 49
1.27
 74
     0
 49
-1.27
 74
     0
 49
1.27
 74
     0
 49
-1.27
 74
     0
  0
LTYPE
  5
41
330
5
100
AcDbSymbolTableRecord
100
AcDbLinetypeTableRecord
  2
CENTER
 70
     0
  3
Center ____ _ ____ _ ____ _ ____ _ ____ _ ____
 72
    65
 73
     4
 40
10.16
 49
6.35
 74
     0
 49
-1.27
 74
     0
 49
1.27
 74
     0
 49
-1.27
 74
     0
  0
LTYPE
  5
42
330
5
100
AcDbSymbolTableRecord
100
AcDbLinetypeTableRecord
  2
CENTERX2
 70
     0
  3
Center (2x) ________  __  ________  __  _____
 72
    65
 73
     4
 40
20.32
 49
12.7
 74
     0
 49
-2.54
 74
     0
 49
2.54
 74
     0
 49
-2.54
 74
     0
  0
LTYPE
  5
43
330
5
100
AcDbSymbolTableRecord
100
AcDbLinetypeTableRecord
  2
DOT2
 70
     0
  3
Dot (.5x) ........................................
 72
    65
 73
     2
 40
0.635
 49
0.0
 74
     0
 49
-0.635
 74
     0
  0
ENDTAB
  0
TABLE
  2
LAYER
  5
2
330
0
100
AcDbSymbolTable
 70
     1
  0
LAYER
  5
10
330
2
100
AcDbSymbolTableRecord
100
AcDbLayerTableRecord
  2
0
 70
     0
 62
     7
  6
CONTINUOUS
  0
ENDTAB
  0
TABLE
  2
STYLE
  5
3
330
0
100
AcDbSymbolTable
 70
     1
  0
STYLE
  5
11
330
3
100
AcDbSymbolTableRecord
100
AcDbTextStyleTableRecord
  2
STANDARD
 70
     0
 40
0.0
 41
1.0
 50
0.0
 71
     0
 42
2.5
  3
txt
  4

  0
ENDTAB
  0
TABLE
  2
VIEW
  5
6
330
0
100
AcDbSymbolTable
 70
     0
  0
ENDTAB
  0
TABLE
  2
UCS
  5
7
330
0
100
AcDbSymbolTable
 70
     0
  0
ENDTAB
  0
TABLE
  2
APPID
  5
9
330
0
100
AcDbSymbolTable
 70
     1
  0
APPID
  5
12
330
9
100
AcDbSymbolTableRecord
100
AcDbRegAppTableRecord
  2
ACAD
 70
     0
  0
ENDTAB
  0
TABLE
  2
DIMSTYLE
  5
A
330
0
100
AcDbSymbolTable
 70
     1
  0
DIMSTYLE
105
27
330
A
100
AcDbSymbolTableRecord
100
AcDbDimStyleTableRecord
  2
ISO-25
 70
     0
  3

  4

  5

  6

  7

 40
1.0
 41
2.5
 42
0.625
 43
3.75
 44
1.25
 45
0.0
 46
0.0
 47
0.0
 48
0.0
140
2.5
141
2.5
142
0.0
143
0.0393700787
144
1.0
145
0.0
146
1.0
147
0.625
 71
     0
 72
     0
 73
     0
 74
     0
 75
     0
 76
     0
 77
     1
 78
     8
170
     0
171
     3
172
     1
173
     0
174
     0
175
     0
176
     0
177
     0
178
     0
270
     2
271
     2
272
     2
273
     2
274
     3
340
11
275
     0
280
     0
281
     0
282
     0
283
     0
284
     8
285
     0
286
     0
287
     3
288
     0
  0
ENDTAB
  0
TABLE
  2
BLOCK_RECORD
  5
1
330
0
100
AcDbSymbolTable
 70
     1
  0
BLOCK_RECORD
  5
1F
330
1
100
AcDbSymbolTableRecord
100
AcDbBlockTableRecord
  2
*MODEL_SPACE
  0
BLOCK_RECORD
  5
1B
330
1
100
AcDbSymbolTableRecord
100
AcDbBlockTableRecord
  2
*PAPER_SPACE
  0
BLOCK_RECORD
  5
23
330
1
100
AcDbSymbolTableRecord
100
AcDbBlockTableRecord
  2
*PAPER_SPACE0
  0
ENDTAB
  0
ENDSEC
  0
SECTION
  2
BLOCKS
  0
BLOCK
  5
20
330
1F
100
AcDbEntity
  8
0
100
AcDbBlockBegin
  2
*MODEL_SPACE
 70
     0
 10
0.0
 20
0.0
 30
0.0
  3
*MODEL_SPACE
  1

  0
ENDBLK
  5
21
330
1F
100
AcDbEntity
  8
0
100
AcDbBlockEnd
  0
BLOCK
  5
1C
330
1B
100
AcDbEntity
 67
     1
  8
0
100
AcDbBlockBegin
  2
*PAPER_SPACE
 70
     0
 10
0.0
 20
0.0
 30
0.0
  3
*PAPER_SPACE
  1

  0
ENDBLK
  5
1D
330
1B
100
AcDbEntity
 67
     1
  8
0
100
AcDbBlockEnd
  0
BLOCK
  5
24
330
23
100
AcDbEntity
  8
0
100
AcDbBlockBegin
  2
*PAPER_SPACE0
 70
     0
 10
0.0
 20
0.0
 30
0.0
  3
*PAPER_SPACE0
  1

  0
ENDBLK
  5
25
330
23
100
AcDbEntity
  8
0
100
AcDbBlockEnd
  0
ENDSEC
  0
SECTION
  2
ENTITIES
  0
LINE
  5
44
330
1F
100
AcDbEntity
  8
0
  6
CONTINUOUS
 62
     7
100
AcDbLine
 10
71.3320282693
 20
223.4729738306
 30
0.0
 11
76.1624333854
 21
223.4729738306
 31
0.0
  0
LINE
  5
45
330
1F
100
AcDbEntity
  8
0
  6
CONTINUOUS
 62
     7
100
AcDbLine
 10
76.1624333854
 20
223.4729738306
 30
0.0
 11
76.1624333854
 21
221.9750308763
 31
0.0
  0
LINE
  5
46
330
1F
100
AcDbEntity
  8
0
  6
CONTINUOUS
 62
     7
100
AcDbLine
 10
71.3320282693
 20
221.9750308763
 30
0.0
 11
76.1624333854
 21
221.9750308763
 31
0.0
  0
LINE
  5
47
330
1F
100
AcDbEntity
  8
0
  6
CONTINUOUS
 62
     7
100
AcDbLine
 10
71.3320282693
 20
221.9750308763
 30
0.0
 11
71.3320282693
 21
223.4729738306
 31
0.0
  0
LINE
  5
48
330
1F
100
AcDbEntity
  8
0
  6
CONTINUOUS
 62
     7
100
AcDbLine
 10
89.295512199
 20
277.1703047078
 30
0.0
 11
89.295512199
 21
272.3398958664
 31
0.0
  0
LINE
  5
49
330
1F
100
AcDbEntity
  8
0
  6
CONTINUOUS
 62
     7
100
AcDbLine
 10
89.295512199
 20
272.3398958664
 30
0.0
 11
87.7975655194
 21
272.3398958664
 31
0.0
  0
LINE
  5
4A
330
1F
100
AcDbEntity
  8
0
  6
CONTINUOUS
 62
     7
100
AcDbLine
 10
87.7975655194
 20
277.1703047078
 30
0.0
 11
87.7975655194
 21
272.3398958664
 31
0.0
  0
LINE
  5
4B
330
1F
100
AcDbEntity
  8
0
  6
CONTINUOUS
 62
     7
100
AcDbLine
 10
87.7975655194
 20
277.1703047078
 30
0.0
 11
89.295512199
 21
277.1703047078
 31
0.0
  0
LINE
  5
4C
330
1F
100
AcDbEntity
  8
0
  6
CONTINUOUS
 62
     7
100
AcDbLine
 10
273.992842197
 20
259.2068189155
 30
0.0
 11
269.1624370809
 21
259.2068189155
 31
0.0
  0
LINE
  5
4D
330
1F
100
AcDbEntity
  8
0
  6
CONTINUOUS
 62
     7
100
AcDbLine
 10
269.1624370809
 20
259.2068189155
 30
0.0
 11
269.1624370809
 21
260.7047618698
 31
0.0
  0
LINE
  5
4E
330
1F
100
AcDbEntity
  8
0
  6
CONTINUOUS
 62
     7
100
AcDbLine
 10
273.992842197
 20
260.7047618698
 30
0.0
 11
269.1624370809
 21
260.7047618698
 31
0.0
  0
LINE
  5
4F
330
1F
100
AcDbEntity
  8
0
  6
CONTINUOUS
 62
     7
100
AcDbLine
 10
273.992842197
 20
260.7047618698
 30
0.0
 11
273.992842197
 21
259.2068189155
 31
0.0
  0
LINE
  5
50
330
1F
100
AcDbEntity
  8
0
  6
CONTINUOUS
 62
     7
100
AcDbLine
 10
256.0293582674
 20
205.5094880383
 30
0.0
 11
256.0293582674
 21
210.3398968797
 31
0.0
  0
LINE
  5
51
330
1F
100
AcDbEntity
  8
0
  6
CONTINUOUS
 62
     7
100
AcDbLine
 10
256.0293582674
 20
210.3398968797
 30
0.0
 11
257.5273049469
 21
210.3398968797
 31
0.0
  0
LINE
  5
52
330
1F
100
AcDbEntity
  8
0
  6
CONTINUOUS
 62
     7
100
AcDbLine
 10
257.5273049469
 20
205.5094880383
 30
0.0
 11
257.5273049469
 21
210.3398968797
 31
0.0
  0
LINE
  5
53
330
1F
100
AcDbEntity
  8
0
  6
CONTINUOUS
 62
     7
100
AcDbLine
 10
257.5273049469
 20
205.5094880383
 30
0.0
 11
256.0293582674
 21
205.5094880383
 31
0.0
  0
CIRCLE
  5
54
330
1F
100
AcDbEntity
  8
0
  6
CONTINUOUS
 62
     7
100
AcDbCircle
 10
145.6624352332
 20
241.3398963731
 30
0.0
 40
20.39999999999998
  0
CIRCLE
  5
55
330
1F
100
AcDbEntity
  8
0
  6
CONTINUOUS
 62
     7
100
AcDbCircle
 10
246.6624352332
 20
241.3398963731
 30
0.0
 40
16.39999999999998
  0
CIRCLE
  5
56
330
1F
100
AcDbEntity
  8
0
  6
CONTINUOUS
 62
     7
100
AcDbCircle
 10
199.6624352332
 20
241.3398963731
 30
0.0
 40
20.40000000000001
  0
CIRCLE
  5
57
330
1F
100
AcDbEntity
  8
0
  6
CONTINUOUS
 62
     7
100
AcDbCircle
 10
98.6624352332
 20
241.3398963731
 30
0.0
 40
16.40000000000001
  0
LINE
  5
58
330
1F
100
AcDbEntity
  8
0
  6
CONTINUOUS
 62
     7
100
AcDbLine
 10
273.992842197
 20
259.2068189155
 30
0.0
 11
273.992842197
 21
223.4729738306
 31
0.0
  0
LINE
  5
59
330
1F
100
AcDbEntity
  8
0
  6
CONTINUOUS
 62
     7
100
AcDbLine
 10
269.1624370809
 20
223.4729738306
 30
0.0
 11
273.992842197
 21
223.4729738306
 31
0.0
  0
ARC
  5
5A
330
1F
100
AcDbEntity
  8
0
  6
CONTINUOUS
 62
     7
100
AcDbCircle
 10
269.1624297384
 20
210.3399023595
 30
0.0
 40
13.13307147109791
100
AcDbArc
 50
89.999967967
 51
180.0000239068
  0
LINE
  5
5B
330
1F
100
AcDbEntity
  8
0
  6
CONTINUOUS
 62
     7
100
AcDbLine
 10
256.0293582674
 20
205.5094880383
 30
0.0
 11
89.295512199
 21
205.5094880383
 31
0.0
  0
LINE
  5
5C
330
1F
100
AcDbEntity
  8
0
  6
CONTINUOUS
 62
     7
100
AcDbLine
 10
89.295512199
 20
210.3398968797
 30
0.0
 11
89.295512199
 21
205.5094880383
 31
0.0
  0
ARC
  5
5D
330
1F
100
AcDbEntity
  8
0
  6
CONTINUOUS
 62
     7
100
AcDbCircle
 10
76.162438907
 20
210.3399005386
 30
0.0
 40
13.13307329199452
100
AcDbArc
 50
359.9999840372
 51
90.000024089
  0
LINE
  5
5E
330
1F
100
AcDbEntity
  8
0
  6
CONTINUOUS
 62
     7
100
AcDbLine
 10
71.3320282693
 20
223.4729738306
 30
0.0
 11
71.3320282693
 21
259.2068189155
 31
0.0
  0
LINE
  5
5F
330
1F
100
AcDbEntity
  8
0
  6
CONTINUOUS
 62
     7
100
AcDbLine
 10
76.1624333854
 20
259.2068189155
 30
0.0
 11
71.3320282693
 21
259.2068189155
 31
0.0
  0
ARC
  5
60
330
1F
100
AcDbEntity
  8
0
  6
CONTINUOUS
 62
     7
100
AcDbCircle
 10
76.1624407279
 20
272.3398903866
 30
0.0
 40
13.13307147109794
100
AcDbArc
 50
269.999967967
 51
0.0000239068
  0
LINE
  5
61
330
1F
100
AcDbEntity
  8
0
  6
CONTINUOUS
 62
     7
100
AcDbLine
 10
89.295512199
 20
277.1703047078
 30
0.0
 11
256.0293582674
 21
277.1703047078
 31
0.0
  0
LINE
  5
62
330
1F
100
AcDbEntity
  8
0
  6
CONTINUOUS
 62
     7
100
AcDbLine
 10
256.0293582674
 20
272.3398958664
 30
0.0
 11
256.0293582674
 21
277.1703047078
 31
0.0
  0
ARC
  5
63
330
1F
100
AcDbEntity
  8
0
  6
CONTINUOUS
 62
     7
100
AcDbCircle
 10
269.1624315593
 20
272.3398922075
 30
0.0
 40
13.13307329199438
100
AcDbArc
 50
179.9999840372
 51
270.000024089
  0
LWPOLYLINE
  5
64
330
1F
100
AcDbEntity
  8
0
  6
CONTINUOUS
 62
     7
100
AcDbPolyline
 90
        3
 70
   128
 43
0.0
 10
67.6854831572
 20
259.2624877911
 10
66.8070224519
 20
259.4162118953
 10
66.3092119093
 20
259.8651149642
  0
LWPOLYLINE
  5
65
330
1F
100
AcDbEntity
  8
0
  6
CONTINUOUS
 62
     7
100
AcDbPolyline
 90
        3
 70
   128
 43
0.0
 10
71.3320282693
 20
259.2068189155
 10
69.4120807047
 20
259.2207366001
 10
67.6854831572
 20
259.2624877911
  0
LWPOLYLINE
  5
66
330
1F
100
AcDbEntity
  8
0
  6
CONTINUOUS
 62
     7
100
AcDbPolyline
 90
        3
 70
   128
 43
0.0
 10
67.6854831572
 20
223.417304955
 10
69.4120807047
 20
223.459056146
 10
71.3320282693
 20
223.4729738306
  0
LWPOLYLINE
  5
67
330
1F
100
AcDbEntity
  8
0
  6
CONTINUOUS
 62
     7
100
AcDbPolyline
 90
        3
 70
   128
 43
0.0
 10
66.3092119093
 20
222.814677782
 10
66.8069926496
 20
223.2635678123
 10
67.6854831572
 20
223.417304955
  0
LINE
  5
68
330
1F
100
AcDbEntity
  8
0
  6
CONTINUOUS
 62
     7
100
AcDbLine
 10
66.3092119093
 20
222.814677782
 30
0.0
 11
66.3092119093
 21
259.8651149642
 31
0.0
  0
LWPOLYLINE
  5
69
330
1F
100
AcDbEntity
  8
0
  6
CONTINUOUS
 62
     7
100
AcDbPolyline
 90
        3
 70
   128
 43
0.0
 10
88.6372161503
 20
282.1931173425
 10
89.0861061807
 20
281.6953366022
 10
89.2398414607
 20
280.8168460946
  0
LINE
  5
6A
330
1F
100
AcDbEntity
  8
0
  6
CONTINUOUS
 62
     7
100
AcDbLine
 10
88.6372161503
 20
282.1931173425
 30
0.0
 11
256.687654316
 21
282.1931173425
 31
0.0
  0
LWPOLYLINE
  5
6B
330
1F
100
AcDbEntity
  8
0
  6
CONTINUOUS
 62
     7
100
AcDbPolyline
 90
        3
 70
   128
 43
0.0
 10
256.0850290056
 20
280.8168460946
 10
256.2387493844
 20
281.6953067999
 10
256.687654316
 20
282.1931173425
  0
LWPOLYLINE
  5
6C
330
1F
100
AcDbEntity
  8
0
  6
CONTINUOUS
 62
     7
100
AcDbPolyline
 90
        3
 70
   128
 43
0.0
 10
256.0293582674
 20
277.1703047078
 10
256.0432759519
 20
279.0902634483
 10
256.0850290056
 20
280.8168460946
  0
LWPOLYLINE
  5
6D
330
1F
100
AcDbEntity
  8
0
  6
CONTINUOUS
 62
     7
100
AcDbPolyline
 90
        3
 70
   128
 43
0.0
 10
89.2398414607
 20
280.8168460946
 10
89.2815945144
 20
279.0902634483
 10
89.295512199
 20
277.1703047078
  0
LWPOLYLINE
  5
6E
330
1F
100
AcDbEntity
  8
0
  6
CONTINUOUS
 62
     7
100
AcDbPolyline
 90
        3
 70
   128
 43
0.0
 10
277.6393873091
 20
223.417304955
 10
278.5178480144
 20
223.2635808509
 10
279.015658557
 20
222.814677782
  0
LWPOLYLINE
  5
6F
330
1F
100
AcDbEntity
  8
0
  6
CONTINUOUS
 62
     7
100
AcDbPolyline
 90
        3
 70
   128
 43
0.0
 10
273.992842197
 20
223.4729738306
 10
275.9128046627
 20
223.459056146
 10
277.6393873091
 20
223.417304955
  0
LWPOLYLINE
  5
70
330
1F
100
AcDbEntity
  8
0
  6
CONTINUOUS
 62
     7
100
AcDbPolyline
 90
        3
 70
   128
 43
0.0
 10
277.6393873091
 20
259.2624877911
 10
275.9128046627
 20
259.2207366001
 10
273.992842197
 20
259.2068189155
  0
LWPOLYLINE
  5
71
330
1F
100
AcDbEntity
  8
0
  6
CONTINUOUS
 62
     7
100
AcDbPolyline
 90
        3
 70
   128
 43
0.0
 10
279.015658557
 20
259.8651149642
 10
278.5178778167
 20
259.4162249338
 10
277.6393873091
 20
259.2624877911
  0
LINE
  5
72
330
1F
100
AcDbEntity
  8
0
  6
CONTINUOUS
 62
     7
100
AcDbLine
 10
279.015658557
 20
259.8651149642
 30
0.0
 11
279.015658557
 21
222.814677782
 31
0.0
  0
LWPOLYLINE
  5
73
330
1F
100
AcDbEntity
  8
0
  6
CONTINUOUS
 62
     7
100
AcDbPolyline
 90
        3
 70
   128
 43
0.0
 10
89.2398414607
 20
201.8629466515
 10
89.0861210819
 20
200.9844859462
 10
88.6372161503
 20
200.4866754036
  0
LWPOLYLINE
  5
74
330
1F
100
AcDbEntity
  8
0
  6
CONTINUOUS
 62
     7
100
AcDbPolyline
 90
        3
 70
   128
 43
0.0
 10
89.295512199
 20
205.5094880383
 10
89.2815945144
 20
203.5895404737
 10
89.2398414607
 20
201.8629466515
  0
LWPOLYLINE
  5
75
330
1F
100
AcDbEntity
  8
0
  6
CONTINUOUS
 62
     7
100
AcDbPolyline
 90
        3
 70
   128
 43
0.0
 10
256.0850290056
 20
201.8629466515
 10
256.0432759519
 20
203.5895404737
 10
256.0293582674
 20
205.5094880383
  0
LWPOLYLINE
  5
76
330
1F
100
AcDbEntity
  8
0
  6
CONTINUOUS
 62
     7
100
AcDbPolyline
 90
        3
 70
   128
 43
0.0
 10
256.687654316
 20
200.4866754036
 10
256.2387642856
 20
200.9844561439
 10
256.0850290056
 20
201.8629466515
  0
LINE
  5
77
330
1F
100
AcDbEntity
  8
0
  6
CONTINUOUS
 62
     7
100
AcDbLine
 10
256.687654316
 20
200.4866754036
 30
0.0
 11
88.6372161503
 21
200.4866754036
 31
0.0
  0
LINE
  5
78
330
1F
100
AcDbEntity
  8
0
  6
CONTINUOUS
 62
     7
100
AcDbLine
 10
257.5273049469
 20
272.3398958664
 30
0.0
 11
257.5273049469
 21
277.1703047078
 31
0.0
  0
LINE
  5
79
330
1F
100
AcDbEntity
  8
0
  6
CONTINUOUS
 62
     7
100
AcDbLine
 10
257.5273049469
 20
272.3398958664
 30
0.0
 11
256.0293582674
 21
272.3398958664
 31
0.0
  0
LINE
  5
7A
330
1F
100
AcDbEntity
  8
0
  6
CONTINUOUS
 62
     7
100
AcDbLine
 10
256.0293582674
 20
277.1703047078
 30
0.0
 11
257.5273049469
 21
277.1703047078
 31
0.0
  0
LINE
  5
7B
330
1F
100
AcDbEntity
  8
0
  6
CONTINUOUS
 62
     7
100
AcDbLine
 10
269.1624370809
 20
221.9750308763
 30
0.0
 11
273.992842197
 21
221.9750308763
 31
0.0
  0
LINE
  5
7C
330
1F
100
AcDbEntity
  8
0
  6
CONTINUOUS
 62
     7
100
AcDbLine
 10
269.1624370809
 20
223.4729738306
 30
0.0
 11
269.1624370809
 21
221.9750308763
 31
0.0
  0
LINE
  5
7D
330
1F
100
AcDbEntity
  8
0
  6
CONTINUOUS
 62
     7
100
AcDbLine
 10
273.992842197
 20
223.4729738306
 30
0.0
 11
273.992842197
 21
221.9750308763
 31
0.0
  0
LINE
  5
7E
330
1F
100
AcDbEntity
  8
0
  6
CONTINUOUS
 62
     7
100
AcDbLine
 10
76.1624333854
 20
260.7047618698
 30
0.0
 11
71.3320282693
 21
260.7047618698
 31
0.0
  0
LINE
  5
7F
330
1F
100
AcDbEntity
  8
0
  6
CONTINUOUS
 62
     7
100
AcDbLine
 10
76.1624333854
 20
259.2068189155
 30
0.0
 11
76.1624333854
 21
260.7047618698
 31
0.0
  0
LINE
  5
80
330
1F
100
AcDbEntity
  8
0
  6
CONTINUOUS
 62
     7
100
AcDbLine
 10
71.3320282693
 20
259.2068189155
 30
0.0
 11
71.3320282693
 21
260.7047618698
 31
0.0
  0
LINE
  5
81
330
1F
100
AcDbEntity
  8
0
  6
CONTINUOUS
 62
     7
100
AcDbLine
 10
87.7975655194
 20
210.3398968797
 30
0.0
 11
87.7975655194
 21
205.5094880383
 31
0.0
  0
LINE
  5
82
330
1F
100
AcDbEntity
  8
0
  6
CONTINUOUS
 62
     7
100
AcDbLine
 10
89.295512199
 20
210.3398968797
 30
0.0
 11
87.7975655194
 21
210.3398968797
 31
0.0
  0
LINE
  5
83
330
1F
100
AcDbEntity
  8
0
  6
CONTINUOUS
 62
     7
100
AcDbLine
 10
89.295512199
 20
205.5094880383
 30
0.0
 11
87.7975655194
 21
205.5094880383
 31
0.0
  0
LWPOLYLINE
  5
84
330
1F
100
AcDbEntity
  8
0
  6
CONTINUOUS
 62
     7
100
AcDbPolyline
 90
        3
 70
   128
 43
0.0
 10
68.737371027
 20
221.9193601381
 10
69.9301940794
 20
221.9605730247
 10
71.3320282693
 20
221.9750308763
  0
ARC
  5
85
330
1F
100
AcDbEntity
  8
0
  6
CONTINUOUS
 62
     7
100
AcDbCircle
 10
69.1061974857
 20
223.2966588458
 30
0.0
 40
1.425827719922747
100
AcDbArc
 50
175.1461259947
 51
255.0085244602
  0
LWPOLYLINE
  5
86
330
1F
100
AcDbEntity
  8
0
  6
CONTINUOUS
 62
     7
100
AcDbPolyline
 90
        3
 70
   128
 43
0.0
 10
87.7419022317
 20
279.7649582248
 10
87.783111393
 20
278.572142623
 10
87.7975655194
 20
277.1703047078
  0
ARC
  5
87
330
1F
100
AcDbEntity
  8
0
  6
CONTINUOUS
 62
     7
100
AcDbCircle
 10
89.0869112244
 20
279.442113242
 30
0.0
 40
1.383212952998896
100
AcDbArc
 50
83.6523096871
 51
166.5025418114
  0
LWPOLYLINE
  5
88
330
1F
100
AcDbEntity
  8
0
  6
CONTINUOUS
 62
     7
100
AcDbPolyline
 90
        3
 70
   128
 43
0.0
 10
276.5874994393
 20
260.760432608
 10
275.3946763869
 20
260.7192197215
 10
273.992842197
 20
260.7047618698
  0
ARC
  5
89
330
1F
100
AcDbEntity
  8
0
  6
CONTINUOUS
 62
     7
100
AcDbCircle
 10
276.2186729806
 20
259.3831339003
 30
0.0
 40
1.425827719922842
100
AcDbArc
 50
355.1461259947
 51
75.0085244602
  0
LWPOLYLINE
  5
8A
330
1F
100
AcDbEntity
  8
0
  6
CONTINUOUS
 62
     7
100
AcDbPolyline
 90
        3
 70
   128
 43
0.0
 10
257.5829682346
 20
202.9148345213
 10
257.5417590733
 20
204.1076501231
 10
257.5273049469
 20
205.5094880383
  0
ARC
  5
8B
330
1F
100
AcDbEntity
  8
0
  6
CONTINUOUS
 62
     7
100
AcDbCircle
 10
256.2056777267
 20
203.2836499439
 30
0.0
 40
1.425816944406548
100
AcDbArc
 50
265.1459838871
 51
345.0088676113
  0
LWPOLYLINE
  5
8C
330
1F
100
AcDbEntity
  8
0
  6
CONTINUOUS
 62
     7
100
AcDbPolyline
 90
        3
 70
   128
 43
0.0
 10
257.5273049469
 20
277.1703047078
 10
257.5417590733
 20
278.572142623
 10
257.5829682346
 20
279.7649582248
  0
ARC
  5
8D
330
1F
100
AcDbEntity
  8
0
  6
CONTINUOUS
 62
     7
100
AcDbCircle
 10
256.2379592419
 20
279.442113242
 30
0.0
 40
1.383212952998963
100
AcDbArc
 50
13.4974581886
 51
96.3476903129
  0
LWPOLYLINE
  5
8E
330
1F
100
AcDbEntity
  8
0
  6
CONTINUOUS
 62
     7
100
AcDbPolyline
 90
        3
 70
   128
 43
0.0
 10
273.992842197
 20
221.9750308763
 10
275.3946763869
 20
221.9605730247
 10
276.5874994393
 20
221.9193601381
  0
ARC
  5
8F
330
1F
100
AcDbEntity
  8
0
  6
CONTINUOUS
 62
     7
100
AcDbCircle
 10
276.2646363305
 20
223.2643824297
 30
0.0
 40
1.383230115349201
100
AcDbArc
 50
283.4980596879
 51
6.3472898572
  0
LWPOLYLINE
  5
90
330
1F
100
AcDbEntity
  8
0
  6
CONTINUOUS
 62
     7
100
AcDbPolyline
 90
        3
 70
   128
 43
0.0
 10
87.7975655194
 20
205.5094880383
 10
87.783111393
 20
204.1076501231
 10
87.7419022317
 20
202.9148345213
  0
ARC
  5
91
330
1F
100
AcDbEntity
  8
0
  6
CONTINUOUS
 62
     7
100
AcDbCircle
 10
89.0869112244
 20
203.2376795041
 30
0.0
 40
1.383212952998875
100
AcDbArc
 50
193.4974581886
 51
276.3476903129
  0
LWPOLYLINE
  5
92
330
1F
100
AcDbEntity
  8
0
  6
CONTINUOUS
 62
     7
100
AcDbPolyline
 90
        3
 70
   128
 43
0.0
 10
71.3320282693
 20
260.7047618698
 10
69.9301940794
 20
260.7192197215
 10
68.737371027
 20
260.760432608
  0
ARC
  5
93
330
1F
100
AcDbEntity
  8
0
  6
CONTINUOUS
 62
     7
100
AcDbCircle
 10
69.0602341358
 20
259.4154103164
 30
0.0
 40
1.383230115349042
100
AcDbArc
 50
103.4980596879
 51
186.3472898572
  0
ARC
  5
94
330
1F
100
AcDbEntity
  8
0
  6
CONTINUOUS
 62
     7
100
AcDbCircle
 10
269.1624352332
 20
272.3398963731
 30
0.0
 40
11.6351336650726
100
AcDbArc
 50
180.0
 51
270.0
  0
ARC
  5
95
330
1F
100
AcDbEntity
  8
0
  6
CONTINUOUS
 62
     7
100
AcDbCircle
 10
76.1624352332
 20
210.3398963731
 30
0.0
 40
11.63513366507263
100
AcDbArc
 50
0.0
 51
90.0
  0
ARC
  5
96
330
1F
100
AcDbEntity
  8
0
  6
CONTINUOUS
 62
     7
100
AcDbCircle
 10
76.1624352332
 20
272.3398963731
 30
0.0
 40
11.63513366507263
100
AcDbArc
 50
270.0
 51
0.0
  0
ARC
  5
97
330
1F
100
AcDbEntity
  8
0
  6
CONTINUOUS
 62
     7
100
AcDbCircle
 10
269.1624352332
 20
210.3398963731
 30
0.0
 40
11.63513366507263
100
AcDbArc
 50
90.0
 51
180.0
  0
CIRCLE
  5
98
330
1F
100
AcDbEntity
  8
0
  6
CONTINUOUS
 62
     7
100
AcDbCircle
 10
246.6624352332
 20
241.3398963731
 30
0.0
 40
10.42499999999995
  0
CIRCLE
  5
99
330
1F
100
AcDbEntity
  8
0
  6
CONTINUOUS
 62
     7
100
AcDbCircle
 10
246.6624352332
 20
241.3398963731
 30
0.0
 40
14.11627380659556
  0
CIRCLE
  5
9A
330
1F
100
AcDbEntity
  8
0
  6
CONTINUOUS
 62
     7
100
AcDbCircle
 10
145.6624352332
 20
241.3398963731
 30
0.0
 40
18.11627380659556
  0
CIRCLE
  5
9B
330
1F
100
AcDbEntity
  8
0
  6
CONTINUOUS
 62
     7
100
AcDbCircle
 10
145.6624352332
 20
241.3398963731
 30
0.0
 40
20.21627380659555
  0
CIRCLE
  5
9C
330
1F
100
AcDbEntity
  8
0
  6
CONTINUOUS
 62
     7
100
AcDbCircle
 10
246.6624352332
 20
241.3398963731
 30
0.0
 40
16.21627380659555
  0
CIRCLE
  5
9D
330
1F
100
AcDbEntity
  8
0
  6
CONTINUOUS
 62
     7
100
AcDbCircle
 10
145.6624352332
 20
241.3398963731
 30
0.0
 40
12.92499999999998
  0
CIRCLE
  5
9E
330
1F
100
AcDbEntity
  8
0
  6
CONTINUOUS
 62
     7
100
AcDbCircle
 10
98.6624352332
 20
241.3398963731
 30
0.0
 40
7.815027207537767
  0
CIRCLE
  5
9F
330
1F
100
AcDbEntity
  8
0
  6
CONTINUOUS
 62
     7
100
AcDbCircle
 10
246.6624352332
 20
241.3398963731
 30
0.0
 40
7.81502720753781
  0
CIRCLE
  5
A0
330
1F
100
AcDbEntity
  8
0
  6
CONTINUOUS
 62
     7
100
AcDbCircle
 10
246.6624352332
 20
241.3398963731
 30
0.0
 40
10.21502720753779
  0
CIRCLE
  5
A1
330
1F
100
AcDbEntity
  8
0
  6
CONTINUOUS
 62
     7
100
AcDbCircle
 10
98.6624352332
 20
241.3398963731
 30
0.0
 40
10.21502720753779
  0
CIRCLE
  5
A2
330
1F
100
AcDbEntity
  8
0
  6
CONTINUOUS
 62
     7
100
AcDbCircle
 10
98.6624352332
 20
241.3398963731
 30
0.0
 40
16.21627380659557
  0
CIRCLE
  5
A3
330
1F
100
AcDbEntity
  8
0
  6
CONTINUOUS
 62
     7
100
AcDbCircle
 10
145.6624352332
 20
241.3398963731
 30
0.0
 40
12.71502720753779
  0
CIRCLE
  5
A4
330
1F
100
AcDbEntity
  8
0
  6
CONTINUOUS
 62
     7
100
AcDbCircle
 10
145.6624352332
 20
241.3398963731
 30
0.0
 40
10.31502720753778
  0
CIRCLE
  5
A5
330
1F
100
AcDbEntity
  8
0
  6
CONTINUOUS
 62
     7
100
AcDbCircle
 10
199.6624352332
 20
241.3398963731
 30
0.0
 40
20.21627380659555
  0
CIRCLE
  5
A6
330
1F
100
AcDbEntity
  8
0
  6
CONTINUOUS
 62
     7
100
AcDbCircle
 10
199.6624352332
 20
241.3398963731
 30
0.0
 40
12.92500000000001
  0
CIRCLE
  5
A7
330
1F
100
AcDbEntity
  8
0
  6
CONTINUOUS
 62
     7
100
AcDbCircle
 10
199.6624352332
 20
241.3398963731
 30
0.0
 40
18.11627380659556
  0
CIRCLE
  5
A8
330
1F
100
AcDbEntity
  8
0
  6
CONTINUOUS
 62
     7
100
AcDbCircle
 10
199.6624352332
 20
241.3398963731
 30
0.0
 40
12.71502720753779
  0
CIRCLE
  5
A9
330
1F
100
AcDbEntity
  8
0
  6
CONTINUOUS
 62
     7
100
AcDbCircle
 10
98.6624352332
 20
241.3398963731
 30
0.0
 40
10.425
  0
CIRCLE
  5
AA
330
1F
100
AcDbEntity
  8
0
  6
CONTINUOUS
 62
     7
100
AcDbCircle
 10
98.6624352332
 20
241.3398963731
 30
0.0
 40
14.11627380659556
  0
CIRCLE
  5
AB
330
1F
100
AcDbEntity
  8
0
  6
CONTINUOUS
 62
     7
100
AcDbCircle
 10
199.6624352332
 20
241.3398963731
 30
0.0
 40
10.31502720753778
  0
LINE
  5
AC
330
1F
100
AcDbEntity
  8
0
  6
CONTINUOUS
 62
     7
100
AcDbLine
 10
76.1624333854
 20
221.9193601381
 30
0.0
 11
76.1624333854
 21
221.9750308763
 31
0.0
  0
LINE
  5
AD
330
1F
100
AcDbEntity
  8
0
  6
CONTINUOUS
 62
     7
100
AcDbLine
 10
76.1624333854
 20
221.9193601381
 30
0.0
 11
68.737371027
 21
221.9193601381
 31
0.0
  0
LINE
  5
AE
330
1F
100
AcDbEntity
  8
0
  6
CONTINUOUS
 62
     7
100
AcDbLine
 10
87.7419022317
 20
272.3398958664
 30
0.0
 11
87.7975655194
 21
272.3398958664
 31
0.0
  0
LINE
  5
AF
330
1F
100
AcDbEntity
  8
0
  6
CONTINUOUS
 62
     7
100
AcDbLine
 10
87.7419022317
 20
272.3398958664
 30
0.0
 11
87.7419022317
 21
279.7649582248
 31
0.0
  0
LINE
  5
B0
330
1F
100
AcDbEntity
  8
0
  6
CONTINUOUS
 62
     7
100
AcDbLine
 10
269.1624370809
 20
260.760432608
 30
0.0
 11
269.1624370809
 21
260.7047618698
 31
0.0
  0
LINE
  5
B1
330
1F
100
AcDbEntity
  8
0
  6
CONTINUOUS
 62
     7
100
AcDbLine
 10
269.1624370809
 20
260.760432608
 30
0.0
 11
276.5874994393
 21
260.760432608
 31
0.0
  0
LINE
  5
B2
330
1F
100
AcDbEntity
  8
0
  6
CONTINUOUS
 62
     7
100
AcDbLine
 10
257.5829682346
 20
210.3398968797
 30
0.0
 11
257.5273049469
 21
210.3398968797
 31
0.0
  0
LINE
  5
B3
330
1F
100
AcDbEntity
  8
0
  6
CONTINUOUS
 62
     7
100
AcDbLine
 10
257.5829682346
 20
210.3398968797
 30
0.0
 11
257.5829682346
 21
202.9148345213
 31
0.0
  0
LINE
  5
B4
330
1F
100
AcDbEntity
  8
0
  6
CONTINUOUS
 62
     7
100
AcDbLine
 10
257.5273049469
 20
272.3398958664
 30
0.0
 11
257.5829682346
 21
272.3398958664
 31
0.0
  0
LINE
  5
B5
330
1F
100
AcDbEntity
  8
0
  6
CONTINUOUS
 62
     7
100
AcDbLine
 10
257.5829682346
 20
279.7649582248
 30
0.0
 11
257.5829682346
 21
272.3398958664
 31
0.0
  0
LINE
  5
B6
330
1F
100
AcDbEntity
  8
0
  6
CONTINUOUS
 62
     7
100
AcDbLine
 10
269.1624370809
 20
221.9750308763
 30
0.0
 11
269.1624370809
 21
221.9193601381
 31
0.0
  0
LINE
  5
B7
330
1F
100
AcDbEntity
  8
0
  6
CONTINUOUS
 62
     7
100
AcDbLine
 10
276.5874994393
 20
221.9193601381
 30
0.0
 11
269.1624370809
 21
221.9193601381
 31
0.0
  0
LINE
  5
B8
330
1F
100
AcDbEntity
  8
0
  6
CONTINUOUS
 62
     7
100
AcDbLine
 10
76.1624333854
 20
260.7047618698
 30
0.0
 11
76.1624333854
 21
260.760432608
 31
0.0
  0
LINE
  5
B9
330
1F
100
AcDbEntity
  8
0
  6
CONTINUOUS
 62
     7
100
AcDbLine
 10
68.737371027
 20
260.760432608
 30
0.0
 11
76.1624333854
 21
260.760432608
 31
0.0
  0
LINE
  5
BA
330
1F
100
AcDbEntity
  8
0
  6
CONTINUOUS
 62
     7
100
AcDbLine
 10
87.7975655194
 20
210.3398968797
 30
0.0
 11
87.7419022317
 21
210.3398968797
 31
0.0
  0
LINE
  5
BB
330
1F
100
AcDbEntity
  8
0
  6
CONTINUOUS
 62
     7
100
AcDbLine
 10
87.7419022317
 20
202.9148345213
 30
0.0
 11
87.7419022317
 21
210.3398968797
 31
0.0
  0
ARC
  5
BC
330
1F
100
AcDbEntity
  8
0
  6
CONTINUOUS
 62
     7
100
AcDbCircle
 10
269.1624352332
 20
210.3398963731
 30
0.0
 40
11.57946394886352
100
AcDbArc
 50
90.0
 51
180.0
  0
ARC
  5
BD
330
1F
100
AcDbEntity
  8
0
  6
CONTINUOUS
 62
     7
100
AcDbCircle
 10
76.1624352332
 20
272.3398963731
 30
0.0
 40
11.57946394886352
100
AcDbArc
 50
270.0
 51
0.0
  0
ARC
  5
BE
330
1F
100
AcDbEntity
  8
0
  6
CONTINUOUS
 62
     7
100
AcDbCircle
 10
269.1624352332
 20
272.3398963731
 30
0.0
 40
11.57946394886346
100
AcDbArc
 50
180.0
 51
270.0
  0
ARC
  5
BF
330
1F
100
AcDbEntity
  8
0
  6
CONTINUOUS
 62
     7
100
AcDbCircle
 10
76.1624352332
 20
210.3398963731
 30
0.0
 40
11.57946394886352
100
AcDbArc
 50
0.0
 51
90.0
  0
ARC
  5
C0
330
1F
100
AcDbEntity
  8
0
  6
CONTINUOUS
 62
     7
100
AcDbCircle
 10
86.6830280663
 20
202.7121257129
 30
0.0
 40
1.078102666354692
100
AcDbArc
 50
313.9203909455
 51
10.8374696275
  0
ARC
  5
C1
330
1F
100
AcDbEntity
  8
0
  6
CONTINUOUS
 62
     7
100
AcDbCircle
 10
89.0747046646
 20
202.0782178565
 30
0.0
 40
1.650576741470142
100
AcDbArc
 50
184.9580783862
 51
254.6299628122
  0
ARC
  5
C2
330
1F
100
AcDbEntity
  8
0
  6
CONTINUOUS
 62
     7
100
AcDbCircle
 10
258.6418424
 20
279.9676670332
 30
0.0
 40
1.078102666354723
100
AcDbArc
 50
133.9203909455
 51
190.8374696275
  0
ARC
  5
C3
330
1F
100
AcDbEntity
  8
0
  6
CONTINUOUS
 62
     7
100
AcDbCircle
 10
256.2501658017
 20
280.6015748896
 30
0.0
 40
1.650576741470288
100
AcDbArc
 50
4.9580783862
 51
74.6299628122
  0
ARC
  5
C4
330
1F
100
AcDbEntity
  8
0
  6
CONTINUOUS
 62
     7
100
AcDbCircle
 10
68.5346506986
 20
261.8192791161
 30
0.0
 40
1.078077668466294
100
AcDbArc
 50
223.9201794265
 51
280.8383473298
  0
ARC
  5
C5
330
1F
100
AcDbEntity
  8
0
  6
CONTINUOUS
 62
     7
100
AcDbCircle
 10
67.900761672
 20
259.4276197721
 30
0.0
 40
1.65058555975114
100
AcDbArc
 50
94.9581767238
 51
164.6298065545
  0
ARC
  5
C6
330
1F
100
AcDbEntity
  8
0
  6
CONTINUOUS
 62
     7
100
AcDbCircle
 10
276.7902197678
 20
220.86051363
 30
0.0
 40
1.078077668466653
100
AcDbArc
 50
43.9201794266
 51
100.8383473298
  0
ARC
  5
C7
330
1F
100
AcDbEntity
  8
0
  6
CONTINUOUS
 62
     7
100
AcDbCircle
 10
277.4241087943
 20
223.252172974
 30
0.0
 40
1.650585559750954
100
AcDbArc
 50
274.9581767238
 51
344.6298065545
  0
ARC
  5
C8
330
1F
100
AcDbEntity
  8
0
  6
CONTINUOUS
 62
     7
100
AcDbCircle
 10
276.7902197678
 20
261.8192791161
 30
0.0
 40
1.078077668466314
100
AcDbArc
 50
259.1616526702
 51
316.0798205735
  0
ARC
  5
C9
330
1F
100
AcDbEntity
  8
0
  6
CONTINUOUS
 62
     7
100
AcDbCircle
 10
277.4241087943
 20
259.4276197721
 30
0.0
 40
1.650585559750966
100
AcDbArc
 50
15.3701934455
 51
85.0418232762
  0
ARC
  5
CA
330
1F
100
AcDbEntity
  8
0
  6
CONTINUOUS
 62
     7
100
AcDbCircle
 10
68.5346506986
 20
220.86051363
 30
0.0
 40
1.078077668466433
100
AcDbArc
 50
79.1616526702
 51
136.0798205735
  0
ARC
  5
CB
330
1F
100
AcDbEntity
  8
0
  6
CONTINUOUS
 62
     7
100
AcDbCircle
 10
67.900761672
 20
223.252172974
 30
0.0
 40
1.650585559751131
100
AcDbArc
 50
195.3701934455
 51
265.0418232762
  0
ARC
  5
CC
330
1F
100
AcDbEntity
  8
0
  6
CONTINUOUS
 62
     7
100
AcDbCircle
 10
86.6830280663
 20
279.9676670332
 30
0.0
 40
1.078102666354692
100
AcDbArc
 50
349.1625303725
 51
46.0796090545
  0
ARC
  5
CD
330
1F
100
AcDbEntity
  8
0
  6
CONTINUOUS
 62
     7
100
AcDbCircle
 10
89.0747046646
 20
280.6015748896
 30
0.0
 40
1.650576741470172
100
AcDbArc
 50
105.3700371878
 51
175.0419216138
  0
ARC
  5
CE
330
1F
100
AcDbEntity
  8
0
  6
CONTINUOUS
 62
     7
100
AcDbCircle
 10
258.6418424
 20
202.7121257129
 30
0.0
 40
1.078102666354678
100
AcDbArc
 50
169.1625303725
 51
226.0796090545
  0
ARC
  5
CF
330
1F
100
AcDbEntity
  8
0
  6
CONTINUOUS
 62
     7
100
AcDbCircle
 10
256.2501658017
 20
202.0782178565
 30
0.0
 40
1.650576741470227
100
AcDbArc
 50
285.3700371878
 51
355.0419216138
  0
LINE
  5
D0
330
1F
100
AcDbEntity
  8
0
  6
CONTINUOUS
 62
     7
100
AcDbLine
 10
269.1624370809
 20
220.3215533267
 30
0.0
 11
269.1624370809
 21
221.9193601381
 31
0.0
  0
ARC
  5
D1
330
1F
100
AcDbEntity
  8
0
  6
CONTINUOUS
 62
     7
100
AcDbCircle
 10
275.5838233238
 20
220.4015202888
 30
0.0
 40
2.321303292558711
100
AcDbArc
 50
358.0258175841
 51
31.3244554765
  0
LINE
  5
D2
330
1F
100
AcDbEntity
  8
0
  6
CONTINUOUS
 62
     7
100
AcDbLine
 10
277.9037488099
 20
220.3215533267
 30
0.0
 11
269.1624370809
 21
220.3215533267
 31
0.0
  0
LINE
  5
D3
330
1F
100
AcDbEntity
  8
0
  6
CONTINUOUS
 62
     7
100
AcDbLine
 10
76.1624333854
 20
262.3582394194
 30
0.0
 11
76.1624333854
 21
260.760432608
 31
0.0
  0
ARC
  5
D4
330
1F
100
AcDbEntity
  8
0
  6
CONTINUOUS
 62
     7
100
AcDbCircle
 10
69.7410668266
 20
262.2782776122
 30
0.0
 40
2.321322787365763
100
AcDbArc
 50
178.0259614807
 51
211.3243115799
  0
LINE
  5
D5
330
1F
100
AcDbEntity
  8
0
  6
CONTINUOUS
 62
     7
100
AcDbLine
 10
67.4211216565
 20
262.3582394194
 30
0.0
 11
76.1624333854
 21
262.3582394194
 31
0.0
  0
LINE
  5
D6
330
1F
100
AcDbEntity
  8
0
  6
CONTINUOUS
 62
     7
100
AcDbLine
 10
86.1440954204
 20
210.3398968797
 30
0.0
 11
87.7419022317
 21
210.3398968797
 31
0.0
  0
ARC
  5
D7
330
1F
100
AcDbEntity
  8
0
  6
CONTINUOUS
 62
     7
100
AcDbCircle
 10
86.224037049
 20
203.9185769654
 30
0.0
 40
2.321372432312767
100
AcDbArc
 50
268.0265020553
 51
301.3239336123
  0
LINE
  5
D8
330
1F
100
AcDbEntity
  8
0
  6
CONTINUOUS
 62
     7
100
AcDbLine
 10
86.1440954204
 20
201.5985814255
 30
0.0
 11
86.1440954204
 21
210.3398968797
 31
0.0
  0
LINE
  5
D9
330
1F
100
AcDbEntity
  8
0
  6
CONTINUOUS
 62
     7
100
AcDbLine
 10
259.1807750459
 20
272.3398958664
 30
0.0
 11
257.5829682346
 21
272.3398958664
 31
0.0
  0
ARC
  5
DA
330
1F
100
AcDbEntity
  8
0
  6
CONTINUOUS
 62
     7
100
AcDbCircle
 10
259.1008363635
 20
278.761204531
 30
0.0
 40
2.321383573863024
100
AcDbArc
 50
88.0265842888
 51
121.3238513788
  0
LINE
  5
DB
330
1F
100
AcDbEntity
  8
0
  6
CONTINUOUS
 62
     7
100
AcDbLine
 10
259.1807750459
 20
281.0812113207
 30
0.0
 11
259.1807750459
 21
272.3398958664
 31
0.0
  0
LINE
  5
DC
330
1F
100
AcDbEntity
  8
0
  6
CONTINUOUS
 62
     7
100
AcDbLine
 10
259.1807750459
 20
210.3398968797
 30
0.0
 11
259.1807750459
 21
201.5985814255
 31
0.0
  0
ARC
  5
DD
330
1F
100
AcDbEntity
  8
0
  6
CONTINUOUS
 62
     7
100
AcDbCircle
 10
259.1013752046
 20
203.9206457809
 30
0.0
 40
2.323421443823624
100
AcDbArc
 50
238.6911758755
 51
271.9583884569
  0
LINE
  5
DE
330
1F
100
AcDbEntity
  8
0
  6
CONTINUOUS
 62
     7
100
AcDbLine
 10
259.1807750459
 20
210.3398968797
 30
0.0
 11
257.5829682346
 21
210.3398968797
 31
0.0
  0
LINE
  5
DF
330
1F
100
AcDbEntity
  8
0
  6
CONTINUOUS
 62
     7
100
AcDbLine
 10
86.1440954204
 20
272.3398958664
 30
0.0
 11
86.1440954204
 21
281.0812113207
 31
0.0
  0
ARC
  5
E0
330
1F
100
AcDbEntity
  8
0
  6
CONTINUOUS
 62
     7
100
AcDbCircle
 10
86.2234872366
 20
278.7591163215
 30
0.0
 40
2.323451795453946
100
AcDbArc
 50
58.6913994804
 51
91.958164852
  0
LINE
  5
E1
330
1F
100
AcDbEntity
  8
0
  6
CONTINUOUS
 62
     7
100
AcDbLine
 10
86.1440954204
 20
272.3398958664
 30
0.0
 11
87.7419022317
 21
272.3398958664
 31
0.0
  0
LINE
  5
E2
330
1F
100
AcDbEntity
  8
0
  6
CONTINUOUS
 62
     7
100
AcDbLine
 10
76.1624333854
 20
220.3215533267
 30
0.0
 11
67.4211216565
 21
220.3215533267
 31
0.0
  0
ARC
  5
E3
330
1F
100
AcDbEntity
  8
0
  6
CONTINUOUS
 62
     7
100
AcDbCircle
 10
69.7432240083
 20
220.4009502083
 30
0.0
 40
2.323459316883587
100
AcDbArc
 50
148.6914434457
 51
181.9582834937
  0
LINE
  5
E4
330
1F
100
AcDbEntity
  8
0
  6
CONTINUOUS
 62
     7
100
AcDbLine
 10
76.1624333854
 20
220.3215533267
 30
0.0
 11
76.1624333854
 21
221.9193601381
 31
0.0
  0
LINE
  5
E5
330
1F
100
AcDbEntity
  8
0
  6
CONTINUOUS
 62
     7
100
AcDbLine
 10
269.1624370809
 20
262.3582394194
 30
0.0
 11
277.9037488099
 21
262.3582394194
 31
0.0
  0
ARC
  5
E6
330
1F
100
AcDbEntity
  8
0
  6
CONTINUOUS
 62
     7
100
AcDbCircle
 10
275.5817133539
 20
262.278825019
 30
0.0
 40
2.323393058815918
100
AcDbArc
 50
328.6909553056
 51
1.9587716338
  0
LINE
  5
E7
330
1F
100
AcDbEntity
  8
0
  6
CONTINUOUS
 62
     7
100
AcDbLine
 10
269.1624370809
 20
262.3582394194
 30
0.0
 11
269.1624370809
 21
260.760432608
 31
0.0
  0
ARC
  5
E8
330
1F
100
AcDbEntity
  8
0
  6
CONTINUOUS
 62
     7
100
AcDbCircle
 10
76.1624310998
 20
210.3398890061
 30
0.0
 40
9.981664320611067
100
AcDbArc
 50
0.000045195
 51
89.9999868803
  0
ARC
  5
E9
330
1F
100
AcDbEntity
  8
0
  6
CONTINUOUS
 62
     7
100
AcDbCircle
 10
269.1624393665
 20
272.33990374
 30
0.0
 40
9.981664320610982
100
AcDbArc
 50
180.000045195
 51
269.9999868803
  0
ARC
  5
EA
330
1F
100
AcDbEntity
  8
0
  6
CONTINUOUS
 62
     7
100
AcDbCircle
 10
76.1624310998
 20
272.33990374
 30
0.0
 40
9.981664320611037
100
AcDbArc
 50
270.0000131197
 51
359.999954805
  0
ARC
  5
EB
330
1F
100
AcDbEntity
  8
0
  6
CONTINUOUS
 62
     7
100
AcDbCircle
 10
269.1624393665
 20
210.3398890061
 30
0.0
 40
9.981664320611067
100
AcDbArc
 50
90.0000131197
 51
179.999954805
  0
ARC
  5
EC
330
1F
100
AcDbEntity
  8
0
  6
CONTINUOUS
 62
     7
100
AcDbCircle
 10
258.9801757033
 20
208.0565937484
 30
0.0
 40
7.909444864131712
100
AcDbArc
 50
253.1512602426
 51
271.4532914029
  0
LINE
  5
ED
330
1F
100
AcDbEntity
  8
0
  6
CONTINUOUS
 62
     7
100
AcDbLine
 10
259.1807750459
 20
201.5985814255
 30
0.0
 11
259.1807750459
 21
200.1496930938
 31
0.0
  0
ARC
  5
EE
330
1F
100
AcDbEntity
  8
0
  6
CONTINUOUS
 62
     7
100
AcDbCircle
 10
271.4455495774
 20
262.1576624183
 30
0.0
 40
7.909634871012322
100
AcDbArc
 50
343.1514797794
 51
1.4530945946
  0
LINE
  5
EF
330
1F
100
AcDbEntity
  8
0
  6
CONTINUOUS
 62
     7
100
AcDbLine
 10
277.9037488099
 20
262.3582394194
 30
0.0
 11
279.3526408668
 21
262.3582394194
 31
0.0
  0
ARC
  5
F0
330
1F
100
AcDbEntity
  8
0
  6
CONTINUOUS
 62
     7
100
AcDbCircle
 10
73.879320889
 20
220.5221303278
 30
0.0
 40
7.909634871015059
100
AcDbArc
 50
163.1514797794
 51
181.4530945946
  0
LINE
  5
F1
330
1F
100
AcDbEntity
  8
0
  6
CONTINUOUS
 62
     7
100
AcDbLine
 10
67.4211216565
 20
220.3215533267
 30
0.0
 11
65.9722295995
 21
220.3215533267
 31
0.0
  0
ARC
  5
F2
330
1F
100
AcDbEntity
  8
0
  6
CONTINUOUS
 62
     7
100
AcDbCircle
 10
258.9801757033
 20
274.6231989977
 30
0.0
 40
7.909444864131825
100
AcDbArc
 50
88.5467085971
 51
106.8487397574
  0
LINE
  5
F3
330
1F
100
AcDbEntity
  8
0
  6
CONTINUOUS
 62
     7
100
AcDbLine
 10
259.1807750459
 20
282.5300996523
 30
0.0
 11
259.1807750459
 21
281.0812113207
 31
0.0
  0
ARC
  5
F4
330
1F
100
AcDbEntity
  8
0
  6
CONTINUOUS
 62
     7
100
AcDbCircle
 10
86.344694763
 20
208.0565937484
 30
0.0
 40
7.909444864129394
100
AcDbArc
 50
268.5467085971
 51
286.8487397574
  0
LINE
  5
F5
330
1F
100
AcDbEntity
  8
0
  6
CONTINUOUS
 62
     7
100
AcDbLine
 10
86.1440954204
 20
200.1496930938
 30
0.0
 11
86.1440954204
 21
201.5985814255
 31
0.0
  0
ARC
  5
F6
330
1F
100
AcDbEntity
  8
0
  6
CONTINUOUS
 62
     7
100
AcDbCircle
 10
86.344694763
 20
274.6231989977
 30
0.0
 40
7.909444864130809
100
AcDbArc
 50
73.1512602426
 51
91.4532914029
  0
LINE
  5
F7
330
1F
100
AcDbEntity
  8
0
  6
CONTINUOUS
 62
     7
100
AcDbLine
 10
86.1440954204
 20
282.5300996523
 30
0.0
 11
86.1440954204
 21
281.0812113207
 31
0.0
  0
ARC
  5
F8
330
1F
100
AcDbEntity
  8
0
  6
CONTINUOUS
 62
     7
100
AcDbCircle
 10
73.879320889
 20
262.1576624183
 30
0.0
 40
7.909634871015056
100
AcDbArc
 50
178.5469054054
 51
196.8485202206
  0
LINE
  5
F9
330
1F
100
AcDbEntity
  8
0
  6
CONTINUOUS
 62
     7
100
AcDbLine
 10
65.9722295995
 20
262.3582394194
 30
0.0
 11
67.4211216565
 21
262.3582394194
 31
0.0
  0
ARC
  5
FA
330
1F
100
AcDbEntity
  8
0
  6
CONTINUOUS
 62
     7
100
AcDbCircle
 10
271.4455495774
 20
220.5221303278
 30
0.0
 40
7.90963487101233
100
AcDbArc
 50
358.5469054054
 51
16.8485202206
  0
LINE
  5
FB
330
1F
100
AcDbEntity
  8
0
  6
CONTINUOUS
 62
     7
100
AcDbLine
 10
279.3526408668
 20
220.3215533267
 30
0.0
 11
277.9037488099
 21
220.3215533267
 31
0.0
  0
LINE
  5
FC
330
1F
100
AcDbEntity
  8
0
  6
CONTINUOUS
 62
     7
100
AcDbLine
 10
76.1624333854
 20
282.5300996523
 30
0.0
 11
86.1440954204
 21
282.5300996523
 31
0.0
  0
LINE
  5
FD
330
1F
100
AcDbEntity
  8
0
  6
CONTINUOUS
 62
     7
100
AcDbLine
 10
76.1624333854
 20
282.5300996523
 30
0.0
 11
76.1624333854
 21
283.8398968201
 31
0.0
  0
LINE
  5
FE
330
1F
100
AcDbEntity
  8
0
  6
CONTINUOUS
 62
     7
100
AcDbLine
 10
269.1624370809
 20
283.8398968201
 30
0.0
 11
76.1624333854
 21
283.8398968201
 31
0.0
  0
LINE
  5
FF
330
1F
100
AcDbEntity
  8
0
  6
CONTINUOUS
 62
     7
100
AcDbLine
 10
269.1624370809
 20
282.5300996523
 30
0.0
 11
269.1624370809
 21
283.8398968201
 31
0.0
  0
LINE
  5
100
330
1F
100
AcDbEntity
  8
0
  6
CONTINUOUS
 62
     7
100
AcDbLine
 10
259.1807750459
 20
282.5300996523
 30
0.0
 11
269.1624370809
 21
282.5300996523
 31
0.0
  0
LINE
  5
101
330
1F
100
AcDbEntity
  8
0
  6
CONTINUOUS
 62
     7
100
AcDbLine
 10
64.6624324317
 20
272.3398958664
 30
0.0
 11
64.6624324317
 21
210.3398968797
 31
0.0
  0
LINE
  5
102
330
1F
100
AcDbEntity
  8
0
  6
CONTINUOUS
 62
     7
100
AcDbLine
 10
64.6624324317
 20
272.3398958664
 30
0.0
 11
65.9722295995
 21
272.3398958664
 31
0.0
  0
LINE
  5
103
330
1F
100
AcDbEntity
  8
0
  6
CONTINUOUS
 62
     7
100
AcDbLine
 10
65.9722295995
 20
262.3582394194
 30
0.0
 11
65.9722295995
 21
272.3398958664
 31
0.0
  0
LINE
  5
104
330
1F
100
AcDbEntity
  8
0
  6
CONTINUOUS
 62
     7
100
AcDbLine
 10
65.9722295995
 20
210.3398968797
 30
0.0
 11
65.9722295995
 21
220.3215533267
 31
0.0
  0
LINE
  5
105
330
1F
100
AcDbEntity
  8
0
  6
CONTINUOUS
 62
     7
100
AcDbLine
 10
65.9722295995
 20
210.3398968797
 30
0.0
 11
64.6624324317
 21
210.3398968797
 31
0.0
  0
LINE
  5
106
330
1F
100
AcDbEntity
  8
0
  6
CONTINUOUS
 62
     7
100
AcDbLine
 10
76.1624333854
 20
198.839895926
 30
0.0
 11
269.1624370809
 21
198.839895926
 31
0.0
  0
LINE
  5
107
330
1F
100
AcDbEntity
  8
0
  6
CONTINUOUS
 62
     7
100
AcDbLine
 10
76.1624333854
 20
200.1496930938
 30
0.0
 11
76.1624333854
 21
198.839895926
 31
0.0
  0
LINE
  5
108
330
1F
100
AcDbEntity
  8
0
  6
CONTINUOUS
 62
     7
100
AcDbLine
 10
86.1440954204
 20
200.1496930938
 30
0.0
 11
76.1624333854
 21
200.1496930938
 31
0.0
  0
LINE
  5
109
330
1F
100
AcDbEntity
  8
0
  6
CONTINUOUS
 62
     7
100
AcDbLine
 10
269.1624370809
 20
200.1496930938
 30
0.0
 11
259.1807750459
 21
200.1496930938
 31
0.0
  0
LINE
  5
10A
330
1F
100
AcDbEntity
  8
0
  6
CONTINUOUS
 62
     7
100
AcDbLine
 10
269.1624370809
 20
200.1496930938
 30
0.0
 11
269.1624370809
 21
198.839895926
 31
0.0
  0
LINE
  5
10B
330
1F
100
AcDbEntity
  8
0
  6
CONTINUOUS
 62
     7
100
AcDbLine
 10
280.6624380346
 20
210.3398968797
 30
0.0
 11
280.6624380346
 21
272.3398958664
 31
0.0
  0
LINE
  5
10C
330
1F
100
AcDbEntity
  8
0
  6
CONTINUOUS
 62
     7
100
AcDbLine
 10
279.3526408668
 20
210.3398968797
 30
0.0
 11
280.6624380346
 21
210.3398968797
 31
0.0
  0
LINE
  5
10D
330
1F
100
AcDbEntity
  8
0
  6
CONTINUOUS
 62
     7
100
AcDbLine
 10
279.3526408668
 20
220.3215533267
 30
0.0
 11
279.3526408668
 21
210.3398968797
 31
0.0
  0
LINE
  5
10E
330
1F
100
AcDbEntity
  8
0
  6
CONTINUOUS
 62
     7
100
AcDbLine
 10
279.3526408668
 20
272.3398958664
 30
0.0
 11
279.3526408668
 21
262.3582394194
 31
0.0
  0
LINE
  5
10F
330
1F
100
AcDbEntity
  8
0
  6
CONTINUOUS
 62
     7
100
AcDbLine
 10
279.3526408668
 20
272.3398958664
 30
0.0
 11
280.6624380346
 21
272.3398958664
 31
0.0
  0
LINE
  5
110
330
1F
100
AcDbEntity
  8
0
  6
CONTINUOUS
 62
     7
100
AcDbLine
 10
277.9037488099
 20
272.3398958664
 30
0.0
 11
277.9037488099
 21
262.3582394194
 31
0.0
  0
LINE
  5
111
330
1F
100
AcDbEntity
  8
0
  6
CONTINUOUS
 62
     7
100
AcDbLine
 10
277.9037488099
 20
272.3398958664
 30
0.0
 11
279.3526408668
 21
272.3398958664
 31
0.0
  0
LINE
  5
112
330
1F
100
AcDbEntity
  8
0
  6
CONTINUOUS
 62
     7
100
AcDbLine
 10
259.1807750459
 20
281.0812113207
 30
0.0
 11
269.1624370809
 21
281.0812113207
 31
0.0
  0
ARC
  5
113
330
1F
100
AcDbEntity
  8
0
  6
CONTINUOUS
 62
     7
100
AcDbCircle
 10
269.1624361175
 20
272.3398986283
 30
0.0
 40
8.741312692317248
100
AcDbArc
 50
359.9999818967
 51
89.9999936855
  0
CIRCLE
  5
114
330
1F
100
AcDbEntity
  8
0
  6
CONTINUOUS
 62
     7
100
AcDbCircle
 10
269.1624352332
 20
272.3398963731
 30
0.0
 40
5.000000000000909
  0
LINE
  5
115
330
1F
100
AcDbEntity
  8
0
  6
CONTINUOUS
 62
     7
100
AcDbLine
 10
67.4211216565
 20
210.3398968797
 30
0.0
 11
67.4211216565
 21
220.3215533267
 31
0.0
  0
LINE
  5
116
330
1F
100
AcDbEntity
  8
0
  6
CONTINUOUS
 62
     7
100
AcDbLine
 10
67.4211216565
 20
210.3398968797
 30
0.0
 11
65.9722295995
 21
210.3398968797
 31
0.0
  0
CIRCLE
  5
117
330
1F
100
AcDbEntity
  8
0
  6
CONTINUOUS
 62
     7
100
AcDbCircle
 10
76.1624352332
 20
210.3398963731
 30
0.0
 40
4.999999999999474
  0
LINE
  5
118
330
1F
100
AcDbEntity
  8
0
  6
CONTINUOUS
 62
     7
100
AcDbLine
 10
86.1440954204
 20
201.5985814255
 30
0.0
 11
76.1624333854
 21
201.5985814255
 31
0.0
  0
ARC
  5
119
330
1F
100
AcDbEntity
  8
0
  6
CONTINUOUS
 62
     7
100
AcDbCircle
 10
76.1624343488
 20
210.3398941178
 30
0.0
 40
8.741312692317361
100
AcDbArc
 50
179.9999818967
 51
269.9999936855
  0
LINE
  5
11A
330
1F
100
AcDbEntity
  8
0
  6
CONTINUOUS
 62
     7
100
AcDbLine
 10
269.1624370809
 20
201.5985814255
 30
0.0
 11
259.1807750459
 21
201.5985814255
 31
0.0
  0
LINE
  5
11B
330
1F
100
AcDbEntity
  8
0
  6
CONTINUOUS
 62
     7
100
AcDbLine
 10
269.1624370809
 20
201.5985814255
 30
0.0
 11
269.1624370809
 21
200.1496930938
 31
0.0
  0
CIRCLE
  5
11C
330
1F
100
AcDbEntity
  8
0
  6
CONTINUOUS
 62
     7
100
AcDbCircle
 10
269.1624352332
 20
210.3398963731
 30
0.0
 40
5.000000000000909
  0
LINE
  5
11D
330
1F
100
AcDbEntity
  8
0
  6
CONTINUOUS
 62
     7
100
AcDbLine
 10
277.9037488099
 20
220.3215533267
 30
0.0
 11
277.9037488099
 21
210.3398968797
 31
0.0
  0
ARC
  5
11E
330
1F
100
AcDbEntity
  8
0
  6
CONTINUOUS
 62
     7
100
AcDbCircle
 10
269.1624361175
 20
210.3398941178
 30
0.0
 40
8.74131269231729
100
AcDbArc
 50
270.0000063145
 51
0.0000181033
  0
LINE
  5
11F
330
1F
100
AcDbEntity
  8
0
  6
CONTINUOUS
 62
     7
100
AcDbLine
 10
76.1624333854
 20
201.5985814255
 30
0.0
 11
76.1624333854
 21
200.1496930938
 31
0.0
  0
LINE
  5
120
330
1F
100
AcDbEntity
  8
0
  6
CONTINUOUS
 62
     7
100
AcDbLine
 10
67.4211216565
 20
262.3582394194
 30
0.0
 11
67.4211216565
 21
272.3398958664
 31
0.0
  0
ARC
  5
121
330
1F
100
AcDbEntity
  8
0
  6
CONTINUOUS
 62
     7
100
AcDbCircle
 10
76.1624343488
 20
272.3398986283
 30
0.0
 40
8.741312692317361
100
AcDbArc
 50
90.0000063145
 51
180.0000181033
  0
LINE
  5
122
330
1F
100
AcDbEntity
  8
0
  6
CONTINUOUS
 62
     7
100
AcDbLine
 10
76.1624333854
 20
281.0812113207
 30
0.0
 11
86.1440954204
 21
281.0812113207
 31
0.0
  0
CIRCLE
  5
123
330
1F
100
AcDbEntity
  8
0
  6
CONTINUOUS
 62
     7
100
AcDbCircle
 10
76.1624352332
 20
272.3398963731
 30
0.0
 40
4.999999999999474
  0
LINE
  5
124
330
1F
100
AcDbEntity
  8
0
  6
CONTINUOUS
 62
     7
100
AcDbLine
 10
76.1624333854
 20
281.0812113207
 30
0.0
 11
76.1624333854
 21
282.5300996523
 31
0.0
  0
LINE
  5
125
330
1F
100
AcDbEntity
  8
0
  6
CONTINUOUS
 62
     7
100
AcDbLine
 10
65.9722295995
 20
272.3398958664
 30
0.0
 11
67.4211216565
 21
272.3398958664
 31
0.0
  0
LINE
  5
126
330
1F
100
AcDbEntity
  8
0
  6
CONTINUOUS
 62
     7
100
AcDbLine
 10
269.1624370809
 20
281.0812113207
 30
0.0
 11
269.1624370809
 21
282.5300996523
 31
0.0
  0
LINE
  5
127
330
1F
100
AcDbEntity
  8
0
  6
CONTINUOUS
 62
     7
100
AcDbLine
 10
277.9037488099
 20
210.3398968797
 30
0.0
 11
279.3526408668
 21
210.3398968797
 31
0.0
  0
ARC
  5
128
330
1F
100
AcDbEntity
  8
0
  6
CONTINUOUS
 62
     7
100
AcDbCircle
 10
269.1624352332
 20
272.3398963731
 30
0.0
 40
10.19020310287846
100
AcDbArc
 50
0.0
 51
90.0
  0
ARC
  5
129
330
1F
100
AcDbEntity
  8
0
  6
CONTINUOUS
 62
     7
100
AcDbCircle
 10
269.1624352332
 20
210.3398963731
 30
0.0
 40
10.19020310287846
100
AcDbArc
 50
270.0
 51
0.0
  0
ARC
  5
12A
330
1F
100
AcDbEntity
  8
0
  6
CONTINUOUS
 62
     7
100
AcDbCircle
 10
76.1624352332
 20
272.3398963731
 30
0.0
 40
10.19020310287843
100
AcDbArc
 50
90.0
 51
180.0
  0
ARC
  5
12B
330
1F
100
AcDbEntity
  8
0
  6
CONTINUOUS
 62
     7
100
AcDbCircle
 10
76.1624352332
 20
210.3398963731
 30
0.0
 40
10.19020310287846
100
AcDbArc
 50
180.0
 51
270.0
  0
CIRCLE
  5
12C
330
1F
100
AcDbEntity
  8
0
  6
CONTINUOUS
 62
     7
100
AcDbCircle
 10
76.1624352332
 20
210.3398963731
 30
0.0
 40
4.790475383050989
  0
CIRCLE
  5
12D
330
1F
100
AcDbEntity
  8
0
  6
CONTINUOUS
 62
     7
100
AcDbCircle
 10
269.1624352332
 20
210.3398963731
 30
0.0
 40
4.79047538305241
  0
CIRCLE
  5
12E
330
1F
100
AcDbEntity
  8
0
  6
CONTINUOUS
 62
     7
100
AcDbCircle
 10
269.1624352332
 20
272.3398963731
 30
0.0
 40
4.79047538305241
  0
CIRCLE
  5
12F
330
1F
100
AcDbEntity
  8
0
  6
CONTINUOUS
 62
     7
100
AcDbCircle
 10
76.1624352332
 20
272.3398963731
 30
0.0
 40
4.790475383050989
  0
ARC
  5
130
330
1F
100
AcDbEntity
  8
0
  6
CONTINUOUS
 62
     7
100
AcDbCircle
 10
269.1624352332
 20
210.3398963731
 30
0.0
 40
11.50000000000006
100
AcDbArc
 50
270.0
 51
0.0
  0
ARC
  5
131
330
1F
100
AcDbEntity
  8
0
  6
CONTINUOUS
 62
     7
100
AcDbCircle
 10
269.1624352332
 20
272.3398963731
 30
0.0
 40
11.5
100
AcDbArc
 50
0.0
 51
90.0
  0
ARC
  5
132
330
1F
100
AcDbEntity
  8
0
  6
CONTINUOUS
 62
     7
100
AcDbCircle
 10
76.1624352332
 20
210.3398963731
 30
0.0
 40
11.50000000000003
100
AcDbArc
 50
180.0
 51
270.0
  0
ARC
  5
133
330
1F
100
AcDbEntity
  8
0
  6
CONTINUOUS
 62
     7
100
AcDbCircle
 10
76.1624352332
 20
272.3398963731
 30
0.0
 40
11.5
100
AcDbArc
 50
90.0
 51
180.0
  0
LINE
  5
134
330
1F
100
AcDbEntity
  8
0
  6
CONTINUOUS
 62
     7
100
AcDbLine
 10
29.8297209783
 20
200.1496930938
 30
0.0
 11
34.7179495629
 21
198.839895926
 31
0.0
  0
LINE
  5
135
330
1F
100
AcDbEntity
  8
0
  6
CONTINUOUS
 62
     7
100
AcDbLine
 10
29.8297209783
 20
210.3398968797
 30
0.0
 11
29.8297209783
 21
200.1496930938
 31
0.0
  0
LINE
  5
136
330
1F
100
AcDbEntity
  8
0
  6
CONTINUOUS
 62
     7
100
AcDbLine
 10
29.8297209783
 20
210.3398968797
 30
0.0
 11
34.7179495629
 21
210.3398968797
 31
0.0
  0
LINE
  5
137
330
1F
100
AcDbEntity
  8
0
  6
CONTINUOUS
 62
     7
100
AcDbLine
 10
34.7179495629
 20
198.839895926
 30
0.0
 11
34.7179495629
 21
210.3398968797
 31
0.0
  0
LINE
  5
138
330
1F
100
AcDbEntity
  8
0
  6
CONTINUOUS
 62
     7
100
AcDbLine
 10
34.7179495629
 20
210.3398968797
 30
0.0
 11
34.7179495629
 21
272.3398958664
 31
0.0
  0
LINE
  5
139
330
1F
100
AcDbEntity
  8
0
  6
CONTINUOUS
 62
     7
100
AcDbLine
 10
29.8297209783
 20
220.3215533267
 30
0.0
 11
29.8297209783
 21
210.3398968797
 31
0.0
  0
ARC
  5
13A
330
1F
100
AcDbEntity
  8
0
  6
CONTINUOUS
 62
     7
100
AcDbCircle
 10
26.7297234003
 20
220.3215535777
 30
0.0
 40
3.099997577937122
100
AcDbArc
 50
359.9999953626
 51
53.5363665905
  0
LINE
  5
13B
330
1F
100
AcDbEntity
  8
0
  6
CONTINUOUS
 62
     7
100
AcDbLine
 10
28.5720905421
 20
259.8651149642
 30
0.0
 11
28.5720905421
 21
222.814677782
 31
0.0
  0
ARC
  5
13C
330
1F
100
AcDbEntity
  8
0
  6
CONTINUOUS
 62
     7
100
AcDbCircle
 10
26.7297234003
 20
262.3582391685
 30
0.0
 40
3.099997577937077
100
AcDbArc
 50
306.4636334095
 51
0.0000046374
  0
LINE
  5
13D
330
1F
100
AcDbEntity
  8
0
  6
CONTINUOUS
 62
     7
100
AcDbLine
 10
29.8297209783
 20
272.3398958664
 30
0.0
 11
29.8297209783
 21
262.3582394194
 31
0.0
  0
LINE
  5
13E
330
1F
100
AcDbEntity
  8
0
  6
CONTINUOUS
 62
     7
100
AcDbLine
 10
29.8297209783
 20
272.3398958664
 30
0.0
 11
34.7179495629
 21
272.3398958664
 31
0.0
  0
LINE
  5
13F
330
1F
100
AcDbEntity
  8
0
  6
CONTINUOUS
 62
     7
100
AcDbLine
 10
29.8297209783
 20
282.5300996523
 30
0.0
 11
29.8297209783
 21
272.3398958664
 31
0.0
  0
LINE
  5
140
330
1F
100
AcDbEntity
  8
0
  6
CONTINUOUS
 62
     7
100
AcDbLine
 10
29.8297209783
 20
282.5300996523
 30
0.0
 11
34.7179495629
 21
283.8398968201
 31
0.0
  0
LINE
  5
141
330
1F
100
AcDbEntity
  8
0
  6
CONTINUOUS
 62
     7
100
AcDbLine
 10
34.7179495629
 20
272.3398958664
 30
0.0
 11
34.7179495629
 21
283.8398968201
 31
0.0
  0
ARC
  5
142
330
1F
100
AcDbEntity
  8
0
  6
CONTINUOUS
 62
     7
100
AcDbCircle
 10
29.7634917331
 20
261.0708443897
 30
0.0
 40
1.69505759356583
100
AcDbArc
 50
179.9599606535
 51
225.3424667765
  0
ARC
  5
143
330
1F
100
AcDbEntity
  8
0
  6
CONTINUOUS
 62
     7
100
AcDbCircle
 10
27.1179490684
 20
262.3582391878
 30
0.0
 40
1.600000442374656
100
AcDbArc
 50
306.4636636478
 51
0.0000082923
  0
LINE
  5
144
330
1F
100
AcDbEntity
  8
0
  6
CONTINUOUS
 62
     7
100
AcDbLine
 10
28.7179495107
 20
262.3582394194
 30
0.0
 11
29.8297209783
 21
262.3582394194
 31
0.0
  0
ARC
  5
145
330
1F
100
AcDbEntity
  8
0
  6
CONTINUOUS
 62
     7
100
AcDbCircle
 10
27.1179463881
 20
220.3215522063
 30
0.0
 40
1.600003122611503
100
AcDbArc
 50
0.0000401231
 51
53.5362879368
  0
ARC
  5
146
330
1F
100
AcDbEntity
  8
0
  6
CONTINUOUS
 62
     7
100
AcDbCircle
 10
29.7634917331
 20
221.6089483564
 30
0.0
 40
1.69505759356567
100
AcDbArc
 50
134.6575332235
 51
180.0400393465
  0
LINE
  5
147
330
1F
100
AcDbEntity
  8
0
  6
CONTINUOUS
 62
     7
100
AcDbLine
 10
29.8297209783
 20
220.3215533267
 30
0.0
 11
28.7179495107
 21
220.3215533267
 31
0.0
  0
LINE
  5
148
330
1F
100
AcDbEntity
  8
0
  6
CONTINUOUS
 62
     7
100
AcDbLine
 10
28.7179495107
 20
220.3215533267
 30
0.0
 11
28.7179495107
 21
210.3398968797
 31
0.0
  0
LINE
  5
149
330
1F
100
AcDbEntity
  8
0
  6
CONTINUOUS
 62
     7
100
AcDbLine
 10
28.7179495107
 20
210.3398968797
 30
0.0
 11
29.8297209783
 21
210.3398968797
 31
0.0
  0
LINE
  5
14A
330
1F
100
AcDbEntity
  8
0
  6
CONTINUOUS
 62
     7
100
AcDbLine
 10
28.7179495107
 20
272.3398958664
 30
0.0
 11
28.7179495107
 21
262.3582394194
 31
0.0
  0
LINE
  5
14B
330
1F
100
AcDbEntity
  8
0
  6
CONTINUOUS
 62
     7
100
AcDbLine
 10
28.7179495107
 20
272.3398958664
 30
0.0
 11
29.8297209783
 21
272.3398958664
 31
0.0
  0
LINE
  5
14C
330
1F
100
AcDbEntity
  8
0
  6
CONTINUOUS
 62
     7
100
AcDbLine
 10
28.7179495107
 20
281.0812113207
 30
0.0
 11
28.7179495107
 21
272.3398958664
 31
0.0
  0
ARC
  5
14D
330
1F
100
AcDbEntity
  8
0
  6
CONTINUOUS
 62
     7
100
AcDbCircle
 10
30.2179495469
 20
281.0812107365
 30
0.0
 40
1.499999999999993
100
AcDbArc
 50
105.0
 51
180.0
  0
LINE
  5
14E
330
1F
100
AcDbEntity
  8
0
  6
CONTINUOUS
 62
     7
100
AcDbLine
 10
28.7179495107
 20
210.3398968797
 30
0.0
 11
28.7179495107
 21
201.5985814255
 31
0.0
  0
ARC
  5
14F
330
1F
100
AcDbEntity
  8
0
  6
CONTINUOUS
 62
     7
100
AcDbCircle
 10
30.2179495469
 20
201.5985820096
 30
0.0
 40
1.500000000000011
100
AcDbArc
 50
180.0
 51
255.0
  0
LWPOLYLINE
  5
150
330
1F
100
AcDbEntity
  8
0
  6
CONTINUOUS
 62
     7
100
AcDbPolyline
 90
        3
 70
   128
 43
0.0
 10
26.2108293727
 20
223.417304955
 10
27.355852294
 20
223.2635808509
 10
28.5720905421
 20
222.814677782
  0
LWPOLYLINE
  5
151
330
1F
100
AcDbEntity
  8
0
  6
CONTINUOUS
 62
     7
100
AcDbPolyline
 90
        3
 70
   128
 43
0.0
 10
24.7179493207
 20
223.4729738306
 10
25.0853770312
 20
223.459056146
 10
26.2108293727
 20
223.417304955
  0
LINE
  5
152
330
1F
100
AcDbEntity
  8
0
  6
CONTINUOUS
 62
     7
100
AcDbLine
 10
24.7179493207
 20
259.2068189155
 30
0.0
 11
24.7179493207
 21
223.4729738306
 31
0.0
  0
LWPOLYLINE
  5
153
330
1F
100
AcDbEntity
  8
0
  6
CONTINUOUS
 62
     7
100
AcDbPolyline
 90
        3
 70
   128
 43
0.0
 10
26.2108293727
 20
259.2624877911
 10
25.0853770312
 20
259.2207366001
 10
24.7179493207
 20
259.2068189155
  0
LWPOLYLINE
  5
154
330
1F
100
AcDbEntity
  8
0
  6
CONTINUOUS
 62
     7
100
AcDbPolyline
 90
        3
 70
   128
 43
0.0
 10
28.5720905421
 20
259.8651149642
 10
27.3559046809
 20
259.4162249338
 10
26.2108293727
 20
259.2624877911
  0
ARC
  5
155
330
1F
100
AcDbEntity
  8
0
  6
CONTINUOUS
 62
     7
100
AcDbCircle
 10
27.5414079428
 20
259.4590269667
 30
0.0
 40
1.345015605363553
100
AcDbArc
 50
104.6301006134
 51
188.4023779197
  0
ARC
  5
156
330
1F
100
AcDbEntity
  8
0
  6
CONTINUOUS
 62
     7
100
AcDbCircle
 10
27.11794691
 20
262.3582508513
 30
0.0
 40
1.600011105291684
100
AcDbArc
 50
273.0000700873
 51
306.4634775837
  0
ARC
  5
157
330
1F
100
AcDbEntity
  8
0
  6
CONTINUOUS
 62
     7
100
AcDbCircle
 10
27.11794691
 20
220.3215418948
 30
0.0
 40
1.600011105292131
100
AcDbArc
 50
53.5365224163
 51
86.9999299127
  0
ARC
  5
158
330
1F
100
AcDbEntity
  8
0
  6
CONTINUOUS
 62
     7
100
AcDbCircle
 10
27.4974194541
 20
223.1916683601
 30
0.0
 40
1.306225826752521
100
AcDbArc
 50
170.0528712263
 51
256.9146502406
  0
ARC
  5
159
330
1F
100
AcDbEntity
  8
0
  6
CONTINUOUS
 62
     7
100
AcDbCircle
 10
26.2179487411
 20
259.2068181069
 30
0.0
 40
1.499999420352423
100
AcDbArc
 50
92.9999710924
 51
179.9999691143
  0
LWPOLYLINE
  5
15A
330
1F
100
AcDbEntity
  8
0
  6
CONTINUOUS
 62
     7
100
AcDbPolyline
 90
        3
 70
   128
 43
0.0
 10
27.2016869757
 20
260.760432608
 10
26.4152882054
 20
260.7192197215
 10
26.1394455928
 20
260.7047618698
  0
LWPOLYLINE
  5
15B
330
1F
100
AcDbEntity
  8
0
  6
CONTINUOUS
 62
     7
100
AcDbPolyline
 90
        3
 70
   128
 43
0.0
 10
26.1394455928
 20
221.9750308763
 10
26.4152882054
 20
221.9605730247
 10
27.2016869757
 20
221.9193601381
  0
ARC
  5
15C
330
1F
100
AcDbEntity
  8
0
  6
CONTINUOUS
 62
     7
100
AcDbCircle
 10
26.2179487411
 20
223.4729746392
 30
0.0
 40
1.499999420352336
100
AcDbArc
 50
180.0000308857
 51
267.0000289076
  0
LINE
  5
15D
330
1F
100
AcDbEntity
  8
0
  6
CONTINUOUS
 62
     7
100
AcDbLine
 10
27.2016869757
 20
272.3398958664
 30
0.0
 11
27.2016869757
 21
260.760432608
 31
0.0
  0
LINE
  5
15E
330
1F
100
AcDbEntity
  8
0
  6
CONTINUOUS
 62
     7
100
AcDbLine
 10
28.7179495107
 20
272.3398958664
 30
0.0
 11
27.2016869757
 21
272.3398958664
 31
0.0
  0
LINE
  5
15F
330
1F
100
AcDbEntity
  8
0
  6
CONTINUOUS
 62
     7
100
AcDbLine
 10
28.7179495107
 20
210.3398968797
 30
0.0
 11
27.2016869757
 21
210.3398968797
 31
0.0
  0
LINE
  5
160
330
1F
100
AcDbEntity
  8
0
  6
CONTINUOUS
 62
     7
100
AcDbLine
 10
27.2016869757
 20
221.9193601381
 30
0.0
 11
27.2016869757
 21
210.3398968797
 31
0.0
  0
LINE
  5
161
330
1F
100
AcDbEntity
  8
0
  6
CONTINUOUS
 62
     7
100
AcDbLine
 10
26.1394455928
 20
210.3398968797
 30
0.0
 11
26.1394455928
 21
221.9750308763
 31
0.0
  0
LINE
  5
162
330
1F
100
AcDbEntity
  8
0
  6
CONTINUOUS
 62
     7
100
AcDbLine
 10
24.7179493207
 20
210.3398968797
 30
0.0
 11
26.1394455928
 21
210.3398968797
 31
0.0
  0
LINE
  5
163
330
1F
100
AcDbEntity
  8
0
  6
CONTINUOUS
 62
     7
100
AcDbLine
 10
24.7179493207
 20
210.3398968797
 30
0.0
 11
24.7179493207
 21
223.4729738306
 31
0.0
  0
LINE
  5
164
330
1F
100
AcDbEntity
  8
0
  6
CONTINUOUS
 62
     7
100
AcDbLine
 10
26.1394455928
 20
260.7047618698
 30
0.0
 11
26.1394455928
 21
272.3398958664
 31
0.0
  0
LINE
  5
165
330
1F
100
AcDbEntity
  8
0
  6
CONTINUOUS
 62
     7
100
AcDbLine
 10
26.1394455928
 20
272.3398958664
 30
0.0
 11
24.7179493207
 21
272.3398958664
 31
0.0
  0
LINE
  5
166
330
1F
100
AcDbEntity
  8
0
  6
CONTINUOUS
 62
     7
100
AcDbLine
 10
24.7179493207
 20
259.2068189155
 30
0.0
 11
24.7179493207
 21
272.3398958664
 31
0.0
  0
LINE
  5
167
330
1F
100
AcDbEntity
  8
0
  6
CONTINUOUS
 62
     7
100
AcDbLine
 10
27.2016869757
 20
210.3398968797
 30
0.0
 11
26.1394455928
 21
210.3398968797
 31
0.0
  0
LINE
  5
168
330
1F
100
AcDbEntity
  8
0
  6
CONTINUOUS
 62
     7
100
AcDbLine
 10
26.1394455928
 20
272.3398958664
 30
0.0
 11
27.2016869757
 21
272.3398958664
 31
0.0
  0
LWPOLYLINE
  5
169
330
1F
100
AcDbEntity
  8
0
  6
CONTINUOUS
 62
     7
100
AcDbPolyline
 90
        5
 70
   128
 43
0.0
 10
28.0688499233
 20
201.9355637353
 10
28.3502995634
 20
201.7896701913
 10
28.5488248236
 20
201.6864163201
 10
28.6758289339
 20
201.6205420118
 10
28.7179495107
 20
201.5985814255
  0
ARC
  5
16A
330
1F
100
AcDbEntity
  8
0
  6
CONTINUOUS
 62
     7
100
AcDbCircle
 10
29.1132617986
 20
203.7339904119
 30
0.0
 40
2.079695813409725
100
AcDbArc
 50
203.1962997855
 51
239.8547041075
  0
LINE
  5
16B
330
1F
100
AcDbEntity
  8
0
  6
CONTINUOUS
 62
     7
100
AcDbLine
 10
27.2016869757
 20
210.3398968797
 30
0.0
 11
27.2016869757
 21
202.9148345213
 31
0.0
  0
LINE
  5
16C
330
1F
100
AcDbEntity
  8
0
  6
CONTINUOUS
 62
     7
100
AcDbLine
 10
27.2016869757
 20
279.7649582248
 30
0.0
 11
27.2016869757
 21
272.3398958664
 31
0.0
  0
ARC
  5
16D
330
1F
100
AcDbEntity
  8
0
  6
CONTINUOUS
 62
     7
100
AcDbCircle
 10
29.1132617986
 20
278.9458023343
 30
0.0
 40
2.079695813409861
100
AcDbArc
 50
120.1452958925
 51
156.8037002145
  0
LWPOLYLINE
  5
16E
330
1F
100
AcDbEntity
  8
0
  6
CONTINUOUS
 62
     7
100
AcDbPolyline
 90
        5
 70
   128
 43
0.0
 10
28.7179495107
 20
281.0812113207
 10
28.6752920264
 20
281.0589527111
 10
28.5464873204
 20
280.992195509
 10
28.3488030445
 20
280.8893923979
 10
28.0688499233
 20
280.7442290108
  0
LWPOLYLINE
  5
16F
330
1F
100
AcDbEntity
  8
0
  6
CONTINUOUS
 62
     7
100
AcDbPolyline
 90
        5
 70
   128
 43
0.0
 10
28.5720905421
 20
282.1931173425
 10
28.3045056175
 20
282.0243281644
 10
28.1176185135
 20
281.6984285932
 10
28.0363318643
 20
281.2528093677
 10
28.0684345534
 20
280.7442290108
  0
LWPOLYLINE
  5
170
330
1F
100
AcDbEntity
  8
0
  6
CONTINUOUS
 62
     7
100
AcDbPolyline
 90
        5
 70
   128
 43
0.0
 10
28.5720905421
 20
282.1931173425
 10
29.0926849602
 20
282.3326108377
 10
29.4975130136
 20
282.4410838406
 10
29.7478280926
 20
282.5081576925
 10
29.8297209783
 20
282.5300996523
  0
LWPOLYLINE
  5
171
330
1F
100
AcDbEntity
  8
0
  6
CONTINUOUS
 62
     7
100
AcDbPolyline
 90
        5
 70
   128
 43
0.0
 10
28.0684345534
 20
201.9355637353
 10
28.0363318643
 20
201.4269833784
 10
28.1176185135
 20
200.9813641529
 10
28.3045056175
 20
200.6554645818
 10
28.5720905421
 20
200.4866754036
  0
LWPOLYLINE
  5
172
330
1F
100
AcDbEntity
  8
0
  6
CONTINUOUS
 62
     7
100
AcDbPolyline
 90
        5
 70
   128
 43
0.0
 10
29.8297209783
 20
200.1496930938
 10
29.7478280926
 20
200.1716350537
 10
29.4975130136
 20
200.2387089055
 10
29.0926849602
 20
200.3471819084
 10
28.5720905421
 20
200.4866754036
  0
LWPOLYLINE
  5
173
330
1F
100
AcDbEntity
  8
0
  6
CONTINUOUS
 62
     7
100
AcDbPolyline
 90
        3
 70
   128
 43
0.0
 10
28.5720905421
 20
200.4866754036
 10
27.3559046809
 20
200.9844561439
 10
26.2108293727
 20
201.8629466515
  0
ARC
  5
174
330
1F
100
AcDbEntity
  8
0
  6
CONTINUOUS
 62
     7
100
AcDbCircle
 10
33.20968669
 20
196.2627893399
 30
0.0
 40
8.963579957924779
100
AcDbArc
 50
132.0877430914
 51
141.3348437105
  0
ARC
  5
175
330
1F
100
AcDbEntity
  8
0
  6
CONTINUOUS
 62
     7
100
AcDbCircle
 10
34.4247626502
 20
287.5615809682
 30
0.0
 40
10.62827118596131
100
AcDbArc
 50
219.3905605426
 51
227.1868526556
  0
LWPOLYLINE
  5
176
330
1F
100
AcDbEntity
  8
0
  6
CONTINUOUS
 62
     7
100
AcDbPolyline
 90
        3
 70
   128
 43
0.0
 10
26.2108293727
 20
280.8168460946
 10
27.355852294
 20
281.6953067999
 10
28.5720905421
 20
282.1931173425
  0
LINE
  5
177
330
1F
100
AcDbEntity
  8
0
  6
CONTINUOUS
 62
     7
100
AcDbLine
 10
26.1394455928
 20
272.3398958664
 30
0.0
 11
26.1394455928
 21
277.1703047078
 31
0.0
  0
LWPOLYLINE
  5
178
330
1F
100
AcDbEntity
  8
0
  6
CONTINUOUS
 62
     7
100
AcDbPolyline
 90
        3
 70
   128
 43
0.0
 10
26.1394455928
 20
277.1703047078
 10
26.4152882054
 20
278.572142623
 10
27.2016869757
 20
279.7649582248
  0
LWPOLYLINE
  5
179
330
1F
100
AcDbEntity
  8
0
  6
CONTINUOUS
 62
     7
100
AcDbPolyline
 90
        3
 70
   128
 43
0.0
 10
27.2016869757
 20
202.9148345213
 10
26.4152882054
 20
204.1076501231
 10
26.1394455928
 20
205.5094880383
  0
LINE
  5
17A
330
1F
100
AcDbEntity
  8
0
  6
CONTINUOUS
 62
     7
100
AcDbLine
 10
26.1394455928
 20
205.5094880383
 30
0.0
 11
26.1394455928
 21
210.3398968797
 31
0.0
  0
LWPOLYLINE
  5
17B
330
1F
100
AcDbEntity
  8
0
  6
CONTINUOUS
 62
     7
100
AcDbPolyline
 90
        3
 70
   128
 43
0.0
 10
26.2108293727
 20
201.8629466515
 10
25.0853723746
 20
203.5895404737
 10
24.7179493207
 20
205.5094880383
  0
LINE
  5
17C
330
1F
100
AcDbEntity
  8
0
  6
CONTINUOUS
 62
     7
100
AcDbLine
 10
26.1394455928
 20
205.5094880383
 30
0.0
 11
24.7179493207
 21
205.5094880383
 31
0.0
  0
LINE
  5
17D
330
1F
100
AcDbEntity
  8
0
  6
CONTINUOUS
 62
     7
100
AcDbLine
 10
24.7179493207
 20
277.1703047078
 30
0.0
 11
26.1394455928
 21
277.1703047078
 31
0.0
  0
LWPOLYLINE
  5
17E
330
1F
100
AcDbEntity
  8
0
  6
CONTINUOUS
 62
     7
100
AcDbPolyline
 90
        3
 70
   128
 43
0.0
 10
24.7179493207
 20
277.1703047078
 10
25.0853770312
 20
279.0902634483
 10
26.2108293727
 20
280.8168460946
  0
LINE
  5
17F
330
1F
100
AcDbEntity
  8
0
  6
CONTINUOUS
 62
     7
100
AcDbLine
 10
24.7179493207
 20
205.5094880383
 30
0.0
 11
24.7179493207
 21
210.3398968797
 31
0.0
  0
LINE
  5
180
330
1F
100
AcDbEntity
  8
0
  6
CONTINUOUS
 62
     7
100
AcDbLine
 10
24.7179493207
 20
272.3398958664
 30
0.0
 11
24.7179493207
 21
277.1703047078
 31
0.0
  0
LINE
  5
181
330
1F
100
AcDbEntity
  8
0
  6
CONTINUOUS
 62
     7
100
AcDbLine
 10
24.7179493207
 20
259.456169359
 30
0.0
 11
24.7179493207
 21
259.2068189155
 31
0.0
  0
LINE
  5
182
330
1F
100
AcDbEntity
  8
0
  6
CONTINUOUS
 62
     7
100
AcDbLine
 10
24.7179493207
 20
223.4729738306
 30
0.0
 11
24.7179493207
 21
223.2236233871
 31
0.0
  0
LINE
  5
183
330
1F
100
AcDbEntity
  8
0
  6
CONTINUOUS
 62
     7
100
AcDbLine
 10
76.1624333854
 20
323.7921540641
 30
0.0
 11
269.1624370809
 21
323.7921540641
 31
0.0
  0
LINE
  5
184
330
1F
100
AcDbEntity
  8
0
  6
CONTINUOUS
 62
     7
100
AcDbLine
 10
76.1624333854
 20
328.6803826487
 30
0.0
 11
76.1624333854
 21
323.7921540641
 31
0.0
  0
LINE
  5
185
330
1F
100
AcDbEntity
  8
0
  6
CONTINUOUS
 62
     7
100
AcDbLine
 10
86.1440954204
 20
328.6803826487
 30
0.0
 11
76.1624333854
 21
328.6803826487
 31
0.0
  0
ARC
  5
186
330
1F
100
AcDbEntity
  8
0
  6
CONTINUOUS
 62
     7
100
AcDbCircle
 10
86.1440880507
 20
331.7803879486
 30
0.0
 40
3.100005299927171
100
AcDbArc
 50
270.0001362097
 51
323.5362945963
  0
LINE
  5
187
330
1F
100
AcDbEntity
  8
0
  6
CONTINUOUS
 62
     7
100
AcDbLine
 10
256.687654316
 20
329.9380130848
 30
0.0
 11
88.6372161503
 21
329.9380130848
 31
0.0
  0
ARC
  5
188
330
1F
100
AcDbEntity
  8
0
  6
CONTINUOUS
 62
     7
100
AcDbCircle
 10
259.1807824156
 20
331.7803879486
 30
0.0
 40
3.100005299927153
100
AcDbArc
 50
216.4637054037
 51
269.9998637903
  0
LINE
  5
189
330
1F
100
AcDbEntity
  8
0
  6
CONTINUOUS
 62
     7
100
AcDbLine
 10
269.1624370809
 20
328.6803826487
 30
0.0
 11
259.1807750459
 21
328.6803826487
 31
0.0
  0
LINE
  5
18A
330
1F
100
AcDbEntity
  8
0
  6
CONTINUOUS
 62
     7
100
AcDbLine
 10
269.1624370809
 20
328.6803826487
 30
0.0
 11
269.1624370809
 21
323.7921540641
 31
0.0
  0
LINE
  5
18B
330
1F
100
AcDbEntity
  8
0
  6
CONTINUOUS
 62
     7
100
AcDbLine
 10
65.9722295995
 20
328.6803826487
 30
0.0
 11
64.6624324317
 21
323.7921540641
 31
0.0
  0
LINE
  5
18C
330
1F
100
AcDbEntity
  8
0
  6
CONTINUOUS
 62
     7
100
AcDbLine
 10
76.1624333854
 20
328.6803826487
 30
0.0
 11
65.9722295995
 21
328.6803826487
 31
0.0
  0
LINE
  5
18D
330
1F
100
AcDbEntity
  8
0
  6
CONTINUOUS
 62
     7
100
AcDbLine
 10
64.6624324317
 20
323.7921540641
 30
0.0
 11
76.1624333854
 21
323.7921540641
 31
0.0
  0
LINE
  5
18E
330
1F
100
AcDbEntity
  8
0
  6
CONTINUOUS
 62
     7
100
AcDbLine
 10
279.3526408668
 20
328.6803826487
 30
0.0
 11
269.1624370809
 21
328.6803826487
 31
0.0
  0
LINE
  5
18F
330
1F
100
AcDbEntity
  8
0
  6
CONTINUOUS
 62
     7
100
AcDbLine
 10
279.3526408668
 20
328.6803826487
 30
0.0
 11
280.6624380346
 21
323.7921540641
 31
0.0
  0
LINE
  5
190
330
1F
100
AcDbEntity
  8
0
  6
CONTINUOUS
 62
     7
100
AcDbLine
 10
269.1624370809
 20
323.7921540641
 30
0.0
 11
280.6624380346
 21
323.7921540641
 31
0.0
  0
ARC
  5
191
330
1F
100
AcDbEntity
  8
0
  6
CONTINUOUS
 62
     7
100
AcDbCircle
 10
257.893384679
 20
328.7466096431
 30
0.0
 40
1.695059842382441
100
AcDbArc
 50
89.9600553541
 51
135.3424349312
  0
ARC
  5
192
330
1F
100
AcDbEntity
  8
0
  6
CONTINUOUS
 62
     7
100
AcDbCircle
 10
259.1807698283
 20
331.3921299043
 30
0.0
 40
1.599975788128408
100
AcDbArc
 50
216.4632182901
 51
270.0001868446
  0
LINE
  5
193
330
1F
100
AcDbEntity
  8
0
  6
CONTINUOUS
 62
     7
100
AcDbLine
 10
259.1807750459
 20
329.7921541162
 30
0.0
 11
259.1807750459
 21
328.6803826487
 31
0.0
  0
ARC
  5
194
330
1F
100
AcDbEntity
  8
0
  6
CONTINUOUS
 62
     7
100
AcDbCircle
 10
86.1440953869
 20
331.3921403141
 30
0.0
 40
1.599986197905878
100
AcDbArc
 50
270.0000012006
 51
323.5365936647
  0
ARC
  5
195
330
1F
100
AcDbEntity
  8
0
  6
CONTINUOUS
 62
     7
100
AcDbCircle
 10
87.4314857873
 20
328.7466096431
 30
0.0
 40
1.695059842382498
100
AcDbArc
 50
44.6575650688
 51
90.0399446459
  0
LINE
  5
196
330
1F
100
AcDbEntity
  8
0
  6
CONTINUOUS
 62
     7
100
AcDbLine
 10
86.1440954204
 20
328.6803826487
 30
0.0
 11
86.1440954204
 21
329.7921541162
 31
0.0
  0
LINE
  5
197
330
1F
100
AcDbEntity
  8
0
  6
CONTINUOUS
 62
     7
100
AcDbLine
 10
269.1624370809
 20
329.7921541162
 30
0.0
 11
259.1807750459
 21
329.7921541162
 31
0.0
  0
LINE
  5
198
330
1F
100
AcDbEntity
  8
0
  6
CONTINUOUS
 62
     7
100
AcDbLine
 10
269.1624370809
 20
329.7921541162
 30
0.0
 11
269.1624370809
 21
328.6803826487
 31
0.0
  0
LINE
  5
199
330
1F
100
AcDbEntity
  8
0
  6
CONTINUOUS
 62
     7
100
AcDbLine
 10
86.1440954204
 20
329.7921541162
 30
0.0
 11
76.1624333854
 21
329.7921541162
 31
0.0
  0
LINE
  5
19A
330
1F
100
AcDbEntity
  8
0
  6
CONTINUOUS
 62
     7
100
AcDbLine
 10
76.1624333854
 20
329.7921541162
 30
0.0
 11
76.1624333854
 21
328.6803826487
 31
0.0
  0
LINE
  5
19B
330
1F
100
AcDbEntity
  8
0
  6
CONTINUOUS
 62
     7
100
AcDbLine
 10
277.9037488099
 20
329.7921541162
 30
0.0
 11
269.1624370809
 21
329.7921541162
 31
0.0
  0
ARC
  5
19C
330
1F
100
AcDbEntity
  8
0
  6
CONTINUOUS
 62
     7
100
AcDbCircle
 10
277.9037495966
 20
328.2921540801
 30
0.0
 40
1.500000000000031
100
AcDbArc
 50
15.0
 51
90.0
  0
LINE
  5
19D
330
1F
100
AcDbEntity
  8
0
  6
CONTINUOUS
 62
     7
100
AcDbLine
 10
76.1624333854
 20
329.7921541162
 30
0.0
 11
67.4211216565
 21
329.7921541162
 31
0.0
  0
ARC
  5
19E
330
1F
100
AcDbEntity
  8
0
  6
CONTINUOUS
 62
     7
100
AcDbCircle
 10
67.4211208697
 20
328.2921540801
 30
0.0
 40
1.500000000000004
100
AcDbArc
 50
90.0
 51
165.0
  0
LWPOLYLINE
  5
19F
330
1F
100
AcDbEntity
  8
0
  6
CONTINUOUS
 62
     7
100
AcDbPolyline
 90
        3
 70
   128
 43
0.0
 10
89.2398414607
 20
332.2992742542
 10
89.0861210819
 20
331.154251333
 10
88.6372161503
 20
329.9380130848
  0
LWPOLYLINE
  5
1A0
330
1F
100
AcDbEntity
  8
0
  6
CONTINUOUS
 62
     7
100
AcDbPolyline
 90
        3
 70
   128
 43
0.0
 10
89.295512199
 20
333.7921543062
 10
89.2815945144
 20
333.4247312524
 10
89.2398414607
 20
332.2992742542
  0
LINE
  5
1A1
330
1F
100
AcDbEntity
  8
0
  6
CONTINUOUS
 62
     7
100
AcDbLine
 10
256.0293582674
 20
333.7921543062
 30
0.0
 11
89.295512199
 21
333.7921543062
 31
0.0
  0
LWPOLYLINE
  5
1A2
330
1F
100
AcDbEntity
  8
0
  6
CONTINUOUS
 62
     7
100
AcDbPolyline
 90
        3
 70
   128
 43
0.0
 10
256.0850290056
 20
332.2992742542
 10
256.0432759519
 20
333.4247312524
 10
256.0293582674
 20
333.7921543062
  0
LWPOLYLINE
  5
1A3
330
1F
100
AcDbEntity
  8
0
  6
CONTINUOUS
 62
     7
100
AcDbPolyline
 90
        3
 70
   128
 43
0.0
 10
256.687654316
 20
329.9380130848
 10
256.2387642856
 20
331.1541989461
 10
256.0850290056
 20
332.2992742542
  0
ARC
  5
1A4
330
1F
100
AcDbEntity
  8
0
  6
CONTINUOUS
 62
     7
100
AcDbCircle
 10
86.1440292201
 20
331.3921874175
 30
0.0
 40
1.600067405596711
100
AcDbArc
 50
323.5366452726
 51
356.9989347246
  0
ARC
  5
1A5
330
1F
100
AcDbEntity
  8
0
  6
CONTINUOUS
 62
     7
100
AcDbCircle
 10
89.0142035384
 20
331.0126933547
 30
0.0
 40
1.306217012203347
100
AcDbArc
 50
80.0527443053
 51
166.91497386
  0
ARC
  5
1A6
330
1F
100
AcDbEntity
  8
0
  6
CONTINUOUS
 62
     7
100
AcDbCircle
 10
256.2815665929
 20
330.9687006222
 30
0.0
 40
1.345010488205216
100
AcDbArc
 50
14.6299401119
 51
98.4023417228
  0
ARC
  5
1A7
330
1F
100
AcDbEntity
  8
0
  6
CONTINUOUS
 62
     7
100
AcDbCircle
 10
259.1808412462
 20
331.3921874175
 30
0.0
 40
1.600067405596695
100
AcDbArc
 50
183.0010652754
 51
216.4633547274
  0
ARC
  5
1A8
330
1F
100
AcDbEntity
  8
0
  6
CONTINUOUS
 62
     7
100
AcDbCircle
 10
256.0293517609
 20
332.2921449559
 30
0.0
 40
1.500009350303905
100
AcDbArc
 50
3.0003310285
 51
89.9997514738
  0
LWPOLYLINE
  5
1A9
330
1F
100
AcDbEntity
  8
0
  6
CONTINUOUS
 62
     7
100
AcDbPolyline
 90
        3
 70
   128
 43
0.0
 10
257.5829682346
 20
331.3084166512
 10
257.5417590733
 20
332.0948154215
 10
257.5273049469
 20
332.3706580341
  0
LWPOLYLINE
  5
1AA
330
1F
100
AcDbEntity
  8
0
  6
CONTINUOUS
 62
     7
100
AcDbPolyline
 90
        3
 70
   128
 43
0.0
 10
87.7975655194
 20
332.3706580341
 10
87.783111393
 20
332.0948154215
 10
87.7419022317
 20
331.3084166512
  0
ARC
  5
1AB
330
1F
100
AcDbEntity
  8
0
  6
CONTINUOUS
 62
     7
100
AcDbCircle
 10
89.2955187054
 20
332.2921449559
 30
0.0
 40
1.500009350303926
100
AcDbArc
 50
90.0002485262
 51
176.9996689715
  0
LINE
  5
1AC
330
1F
100
AcDbEntity
  8
0
  6
CONTINUOUS
 62
     7
100
AcDbLine
 10
269.1624370809
 20
331.3084166512
 30
0.0
 11
257.5829682346
 21
331.3084166512
 31
0.0
  0
LINE
  5
1AD
330
1F
100
AcDbEntity
  8
0
  6
CONTINUOUS
 62
     7
100
AcDbLine
 10
269.1624370809
 20
329.7921541162
 30
0.0
 11
269.1624370809
 21
331.3084166512
 31
0.0
  0
LINE
  5
1AE
330
1F
100
AcDbEntity
  8
0
  6
CONTINUOUS
 62
     7
100
AcDbLine
 10
87.7419022317
 20
331.3084166512
 30
0.0
 11
76.1624333854
 21
331.3084166512
 31
0.0
  0
LINE
  5
1AF
330
1F
100
AcDbEntity
  8
0
  6
CONTINUOUS
 62
     7
100
AcDbLine
 10
76.1624333854
 20
329.7921541162
 30
0.0
 11
76.1624333854
 21
331.3084166512
 31
0.0
  0
LINE
  5
1B0
330
1F
100
AcDbEntity
  8
0
  6
CONTINUOUS
 62
     7
100
AcDbLine
 10
257.5273049469
 20
332.3706580341
 30
0.0
 11
269.1624370809
 21
332.3706580341
 31
0.0
  0
LINE
  5
1B1
330
1F
100
AcDbEntity
  8
0
  6
CONTINUOUS
 62
     7
100
AcDbLine
 10
269.1624370809
 20
333.7921543062
 30
0.0
 11
269.1624370809
 21
332.3706580341
 31
0.0
  0
LINE
  5
1B2
330
1F
100
AcDbEntity
  8
0
  6
CONTINUOUS
 62
     7
100
AcDbLine
 10
256.0293582674
 20
333.7921543062
 30
0.0
 11
269.1624370809
 21
333.7921543062
 31
0.0
  0
LINE
  5
1B3
330
1F
100
AcDbEntity
  8
0
  6
CONTINUOUS
 62
     7
100
AcDbLine
 10
76.1624333854
 20
332.3706580341
 30
0.0
 11
87.7975655194
 21
332.3706580341
 31
0.0
  0
LINE
  5
1B4
330
1F
100
AcDbEntity
  8
0
  6
CONTINUOUS
 62
     7
100
AcDbLine
 10
76.1624333854
 20
333.7921543062
 30
0.0
 11
76.1624333854
 21
332.3706580341
 31
0.0
  0
LINE
  5
1B5
330
1F
100
AcDbEntity
  8
0
  6
CONTINUOUS
 62
     7
100
AcDbLine
 10
76.1624333854
 20
333.7921543062
 30
0.0
 11
89.295512199
 21
333.7921543062
 31
0.0
  0
LINE
  5
1B6
330
1F
100
AcDbEntity
  8
0
  6
CONTINUOUS
 62
     7
100
AcDbLine
 10
76.1624333854
 20
331.3084166512
 30
0.0
 11
76.1624333854
 21
332.3706580341
 31
0.0
  0
LINE
  5
1B7
330
1F
100
AcDbEntity
  8
0
  6
CONTINUOUS
 62
     7
100
AcDbLine
 10
269.1624370809
 20
332.3706580341
 30
0.0
 11
269.1624370809
 21
331.3084166512
 31
0.0
  0
LWPOLYLINE
  5
1B8
330
1F
100
AcDbEntity
  8
0
  6
CONTINUOUS
 62
     7
100
AcDbPolyline
 90
        5
 70
   128
 43
0.0
 10
67.7581039663
 20
330.4412537037
 10
67.612206697
 20
330.1598040635
 10
67.5089565511
 20
329.9612788033
 10
67.4430859681
 20
329.834277487
 10
67.4211216565
 20
329.7921541162
  0
ARC
  5
1B9
330
1F
100
AcDbEntity
  8
0
  6
CONTINUOUS
 62
     7
100
AcDbCircle
 10
69.5565211134
 20
329.3968561089
 30
0.0
 40
2.079680401159482
100
AcDbArc
 50
113.1963077708
 51
149.8549124832
  0
LINE
  5
1BA
330
1F
100
AcDbEntity
  8
0
  6
CONTINUOUS
 62
     7
100
AcDbLine
 10
76.1624333854
 20
331.3084166512
 30
0.0
 11
68.737371027
 21
331.3084166512
 31
0.0
  0
LINE
  5
1BB
330
1F
100
AcDbEntity
  8
0
  6
CONTINUOUS
 62
     7
100
AcDbLine
 10
276.5874994393
 20
331.3084166512
 30
0.0
 11
269.1624370809
 21
331.3084166512
 31
0.0
  0
ARC
  5
1BC
330
1F
100
AcDbEntity
  8
0
  6
CONTINUOUS
 62
     7
100
AcDbCircle
 10
275.7683493529
 20
329.3968561089
 30
0.0
 40
2.079680401159579
100
AcDbArc
 50
30.1450875168
 51
66.8036922292
  0
LWPOLYLINE
  5
1BD
330
1F
100
AcDbEntity
  8
0
  6
CONTINUOUS
 62
     7
100
AcDbPolyline
 90
        5
 70
   128
 43
0.0
 10
277.9037488099
 20
329.7921541162
 10
277.8814939256
 20
329.8348143945
 10
277.8147367235
 20
329.9636163065
 10
277.7119336124
 20
330.1613005825
 10
277.5667665
 20
330.4412537037
  0
LWPOLYLINE
  5
1BE
330
1F
100
AcDbEntity
  8
0
  6
CONTINUOUS
 62
     7
100
AcDbPolyline
 90
        5
 70
   128
 43
0.0
 10
67.7581039663
 20
330.4416690735
 10
67.2495198842
 20
330.4737717627
 10
66.8039006587
 20
330.3924851135
 10
66.4780048128
 20
330.2055980094
 10
66.3092119093
 20
329.9380130848
  0
LWPOLYLINE
  5
1BF
330
1F
100
AcDbEntity
  8
0
  6
CONTINUOUS
 62
     7
100
AcDbPolyline
 90
        5
 70
   128
 43
0.0
 10
65.9722295995
 20
328.6803826487
 10
65.9941715594
 20
328.7622755343
 10
66.0612491365
 20
329.0125906133
 10
66.1697221394
 20
329.4174186668
 10
66.3092119093
 20
329.9380130848
  0
LWPOLYLINE
  5
1C0
330
1F
100
AcDbEntity
  8
0
  6
CONTINUOUS
 62
     7
100
AcDbPolyline
 90
        5
 70
   128
 43
0.0
 10
279.015658557
 20
329.9380130848
 10
278.8468656536
 20
330.2055980094
 10
278.5209698077
 20
330.3924851135
 10
278.0753505822
 20
330.4737717627
 10
277.5667665
 20
330.4416690735
  0
LWPOLYLINE
  5
1C1
330
1F
100
AcDbEntity
  8
0
  6
CONTINUOUS
 62
     7
100
AcDbPolyline
 90
        5
 70
   128
 43
0.0
 10
279.015658557
 20
329.9380130848
 10
279.1551483269
 20
329.4174186668
 10
279.2636213298
 20
329.0125906133
 10
279.3306989069
 20
328.7622755343
 10
279.3526408668
 20
328.6803826487
  0
LWPOLYLINE
  5
1C2
330
1F
100
AcDbEntity
  8
0
  6
CONTINUOUS
 62
     7
100
AcDbPolyline
 90
        3
 70
   128
 43
0.0
 10
66.3092119093
 20
329.9380130848
 10
66.8069926496
 20
331.1541989461
 10
67.6854831572
 20
332.2992742542
  0
ARC
  5
1C3
330
1F
100
AcDbEntity
  8
0
  6
CONTINUOUS
 62
     7
100
AcDbCircle
 10
62.0860219764
 20
325.3011559448
 30
0.0
 40
8.962568012978071
100
AcDbArc
 50
42.0872199196
 51
51.3353668823
  0
ARC
  5
1C4
330
1F
100
AcDbEntity
  8
0
  6
CONTINUOUS
 62
     7
100
AcDbCircle
 10
284.3836844719
 20
324.0858056475
 30
0.0
 40
10.62763429812534
100
AcDbArc
 50
129.3903265752
 51
137.187086623
  0
LWPOLYLINE
  5
1C5
330
1F
100
AcDbEntity
  8
0
  6
CONTINUOUS
 62
     7
100
AcDbPolyline
 90
        3
 70
   128
 43
0.0
 10
277.6393873091
 20
332.2992742542
 10
278.5178480144
 20
331.154251333
 10
279.015658557
 20
329.9380130848
  0
LINE
  5
1C6
330
1F
100
AcDbEntity
  8
0
  6
CONTINUOUS
 62
     7
100
AcDbLine
 10
269.1624370809
 20
332.3706580341
 30
0.0
 11
273.992842197
 21
332.3706580341
 31
0.0
  0
LWPOLYLINE
  5
1C7
330
1F
100
AcDbEntity
  8
0
  6
CONTINUOUS
 62
     7
100
AcDbPolyline
 90
        3
 70
   128
 43
0.0
 10
273.992842197
 20
332.3706580341
 10
275.3946763869
 20
332.0948154215
 10
276.5874994393
 20
331.3084166512
  0
LWPOLYLINE
  5
1C8
330
1F
100
AcDbEntity
  8
0
  6
CONTINUOUS
 62
     7
100
AcDbPolyline
 90
        3
 70
   128
 43
0.0
 10
68.737371027
 20
331.3084166512
 10
69.9301940794
 20
332.0948154215
 10
71.3320282693
 20
332.3706580341
  0
LINE
  5
1C9
330
1F
100
AcDbEntity
  8
0
  6
CONTINUOUS
 62
     7
100
AcDbLine
 10
71.3320282693
 20
332.3706580341
 30
0.0
 11
76.1624333854
 21
332.3706580341
 31
0.0
  0
LWPOLYLINE
  5
1CA
330
1F
100
AcDbEntity
  8
0
  6
CONTINUOUS
 62
     7
100
AcDbPolyline
 90
        3
 70
   128
 43
0.0
 10
67.6854831572
 20
332.2992742542
 10
69.4120807047
 20
333.4247312524
 10
71.3320282693
 20
333.7921543062
  0
LINE
  5
1CB
330
1F
100
AcDbEntity
  8
0
  6
CONTINUOUS
 62
     7
100
AcDbLine
 10
71.3320282693
 20
332.3706580341
 30
0.0
 11
71.3320282693
 21
333.7921543062
 31
0.0
  0
LINE
  5
1CC
330
1F
100
AcDbEntity
  8
0
  6
CONTINUOUS
 62
     7
100
AcDbLine
 10
273.992842197
 20
333.7921543062
 30
0.0
 11
273.992842197
 21
332.3706580341
 31
0.0
  0
LWPOLYLINE
  5
1CD
330
1F
100
AcDbEntity
  8
0
  6
CONTINUOUS
 62
     7
100
AcDbPolyline
 90
        3
 70
   128
 43
0.0
 10
273.992842197
 20
333.7921543062
 10
275.9128046627
 20
333.4247265958
 10
277.6393873091
 20
332.2992742542
  0
LINE
  5
1CE
330
1F
100
AcDbEntity
  8
0
  6
CONTINUOUS
 62
     7
100
AcDbLine
 10
71.3320282693
 20
333.7921543062
 30
0.0
 11
76.1624333854
 21
333.7921543062
 31
0.0
  0
LINE
  5
1CF
330
1F
100
AcDbEntity
  8
0
  6
CONTINUOUS
 62
     7
100
AcDbLine
 10
269.1624370809
 20
333.7921543062
 30
0.0
 11
273.992842197
 21
333.7921543062
 31
0.0
  0
LINE
  5
1D0
330
1F
100
AcDbEntity
  8
0
  6
CONTINUOUS
 62
     7
100
AcDbLine
 10
279.3526408668
 20
153.9994100975
 30
0.0
 11
280.6624380346
 21
158.8876386821
 31
0.0
  0
LINE
  5
1D1
330
1F
100
AcDbEntity
  8
0
  6
CONTINUOUS
 62
     7
100
AcDbLine
 10
269.1624370809
 20
153.9994100975
 30
0.0
 11
279.3526408668
 21
153.9994100975
 31
0.0
  0
LINE
  5
1D2
330
1F
100
AcDbEntity
  8
0
  6
CONTINUOUS
 62
     7
100
AcDbLine
 10
269.1624370809
 20
153.9994100975
 30
0.0
 11
269.1624370809
 21
158.8876386821
 31
0.0
  0
LINE
  5
1D3
330
1F
100
AcDbEntity
  8
0
  6
CONTINUOUS
 62
     7
100
AcDbLine
 10
280.6624380346
 20
158.8876386821
 30
0.0
 11
269.1624370809
 21
158.8876386821
 31
0.0
  0
LINE
  5
1D4
330
1F
100
AcDbEntity
  8
0
  6
CONTINUOUS
 62
     7
100
AcDbLine
 10
76.1624333854
 20
153.9994100975
 30
0.0
 11
86.1440954204
 21
153.9994100975
 31
0.0
  0
LINE
  5
1D5
330
1F
100
AcDbEntity
  8
0
  6
CONTINUOUS
 62
     7
100
AcDbLine
 10
76.1624333854
 20
153.9994100975
 30
0.0
 11
76.1624333854
 21
158.8876386821
 31
0.0
  0
LINE
  5
1D6
330
1F
100
AcDbEntity
  8
0
  6
CONTINUOUS
 62
     7
100
AcDbLine
 10
269.1624370809
 20
158.8876386821
 30
0.0
 11
76.1624333854
 21
158.8876386821
 31
0.0
  0
LINE
  5
1D7
330
1F
100
AcDbEntity
  8
0
  6
CONTINUOUS
 62
     7
100
AcDbLine
 10
259.1807750459
 20
153.9994100975
 30
0.0
 11
269.1624370809
 21
153.9994100975
 31
0.0
  0
ARC
  5
1D8
330
1F
100
AcDbEntity
  8
0
  6
CONTINUOUS
 62
     7
100
AcDbCircle
 10
259.1807824156
 20
150.8994047975
 30
0.0
 40
3.100005299927057
100
AcDbArc
 50
90.0001362097
 51
143.5362945963
  0
LINE
  5
1D9
330
1F
100
AcDbEntity
  8
0
  6
CONTINUOUS
 62
     7
100
AcDbLine
 10
88.6372161503
 20
152.7417796613
 30
0.0
 11
256.687654316
 21
152.7417796613
 31
0.0
  0
ARC
  5
1DA
330
1F
100
AcDbEntity
  8
0
  6
CONTINUOUS
 62
     7
100
AcDbCircle
 10
86.1440880507
 20
150.8994047975
 30
0.0
 40
3.100005299927074
100
AcDbArc
 50
36.4637054037
 51
89.9998637903
  0
LINE
  5
1DB
330
1F
100
AcDbEntity
  8
0
  6
CONTINUOUS
 62
     7
100
AcDbLine
 10
65.9722295995
 20
153.9994100975
 30
0.0
 11
76.1624333854
 21
153.9994100975
 31
0.0
  0
LINE
  5
1DC
330
1F
100
AcDbEntity
  8
0
  6
CONTINUOUS
 62
     7
100
AcDbLine
 10
64.6624324317
 20
158.8876386821
 30
0.0
 11
65.9722295995
 21
153.9994100975
 31
0.0
  0
LINE
  5
1DD
330
1F
100
AcDbEntity
  8
0
  6
CONTINUOUS
 62
     7
100
AcDbLine
 10
76.1624333854
 20
158.8876386821
 30
0.0
 11
64.6624324317
 21
158.8876386821
 31
0.0
  0
ARC
  5
1DE
330
1F
100
AcDbEntity
  8
0
  6
CONTINUOUS
 62
     7
100
AcDbCircle
 10
259.1807731713
 20
151.2876562147
 30
0.0
 40
1.599982415165773
100
AcDbArc
 50
89.9999328684
 51
143.5366619968
  0
ARC
  5
1DF
330
1F
100
AcDbEntity
  8
0
  6
CONTINUOUS
 62
     7
100
AcDbCircle
 10
257.893384679
 20
153.933183103
 30
0.0
 40
1.695059842382441
100
AcDbArc
 50
224.6575650688
 51
270.0399446459
  0
LINE
  5
1E0
330
1F
100
AcDbEntity
  8
0
  6
CONTINUOUS
 62
     7
100
AcDbLine
 10
259.1807750459
 20
153.9994100975
 30
0.0
 11
259.1807750459
 21
152.8876386299
 31
0.0
  0
ARC
  5
1E1
330
1F
100
AcDbEntity
  8
0
  6
CONTINUOUS
 62
     7
100
AcDbCircle
 10
87.4314857873
 20
153.933183103
 30
0.0
 40
1.695059842382488
100
AcDbArc
 50
269.9600553541
 51
315.3424349312
  0
ARC
  5
1E2
330
1F
100
AcDbEntity
  8
0
  6
CONTINUOUS
 62
     7
100
AcDbCircle
 10
86.1440986996
 20
151.287658999
 30
0.0
 40
1.599979630877235
100
AcDbArc
 50
36.463287707
 51
90.0001174278
  0
LINE
  5
1E3
330
1F
100
AcDbEntity
  8
0
  6
CONTINUOUS
 62
     7
100
AcDbLine
 10
86.1440954204
 20
153.9994100975
 30
0.0
 11
86.1440954204
 21
152.8876386299
 31
0.0
  0
LINE
  5
1E4
330
1F
100
AcDbEntity
  8
0
  6
CONTINUOUS
 62
     7
100
AcDbLine
 10
259.1807750459
 20
152.8876386299
 30
0.0
 11
269.1624370809
 21
152.8876386299
 31
0.0
  0
LINE
  5
1E5
330
1F
100
AcDbEntity
  8
0
  6
CONTINUOUS
 62
     7
100
AcDbLine
 10
269.1624370809
 20
152.8876386299
 30
0.0
 11
269.1624370809
 21
153.9994100975
 31
0.0
  0
LINE
  5
1E6
330
1F
100
AcDbEntity
  8
0
  6
CONTINUOUS
 62
     7
100
AcDbLine
 10
76.1624333854
 20
152.8876386299
 30
0.0
 11
86.1440954204
 21
152.8876386299
 31
0.0
  0
LINE
  5
1E7
330
1F
100
AcDbEntity
  8
0
  6
CONTINUOUS
 62
     7
100
AcDbLine
 10
76.1624333854
 20
152.8876386299
 30
0.0
 11
76.1624333854
 21
153.9994100975
 31
0.0
  0
LINE
  5
1E8
330
1F
100
AcDbEntity
  8
0
  6
CONTINUOUS
 62
     7
100
AcDbLine
 10
269.1624370809
 20
152.8876386299
 30
0.0
 11
277.9037488099
 21
152.8876386299
 31
0.0
  0
ARC
  5
1E9
330
1F
100
AcDbEntity
  8
0
  6
CONTINUOUS
 62
     7
100
AcDbCircle
 10
277.9037495966
 20
154.387638666
 30
0.0
 40
1.500000000000046
100
AcDbArc
 50
270.0
 51
345.0
  0
LINE
  5
1EA
330
1F
100
AcDbEntity
  8
0
  6
CONTINUOUS
 62
     7
100
AcDbLine
 10
67.4211216565
 20
152.8876386299
 30
0.0
 11
76.1624333854
 21
152.8876386299
 31
0.0
  0
ARC
  5
1EB
330
1F
100
AcDbEntity
  8
0
  6
CONTINUOUS
 62
     7
100
AcDbCircle
 10
67.4211208697
 20
154.387638666
 30
0.0
 40
1.500000000000018
100
AcDbArc
 50
195.0
 51
270.0
  0
LWPOLYLINE
  5
1EC
330
1F
100
AcDbEntity
  8
0
  6
CONTINUOUS
 62
     7
100
AcDbPolyline
 90
        3
 70
   128
 43
0.0
 10
88.6372161503
 20
152.7417796613
 10
89.0861061807
 20
151.5255938
 10
89.2398414607
 20
150.3805184919
  0
LWPOLYLINE
  5
1ED
330
1F
100
AcDbEntity
  8
0
  6
CONTINUOUS
 62
     7
100
AcDbPolyline
 90
        3
 70
   128
 43
0.0
 10
256.0850290056
 20
150.3805184919
 10
256.2387493844
 20
151.5255414131
 10
256.687654316
 20
152.7417796613
  0
LWPOLYLINE
  5
1EE
330
1F
100
AcDbEntity
  8
0
  6
CONTINUOUS
 62
     7
100
AcDbPolyline
 90
        3
 70
   128
 43
0.0
 10
256.0293582674
 20
148.8876384399
 10
256.0432759519
 20
149.2550661504
 10
256.0850290056
 20
150.3805184919
  0
LINE
  5
1EF
330
1F
100
AcDbEntity
  8
0
  6
CONTINUOUS
 62
     7
100
AcDbLine
 10
89.295512199
 20
148.8876384399
 30
0.0
 11
256.0293582674
 21
148.8876384399
 31
0.0
  0
LWPOLYLINE
  5
1F0
330
1F
100
AcDbEntity
  8
0
  6
CONTINUOUS
 62
     7
100
AcDbPolyline
 90
        3
 70
   128
 43
0.0
 10
89.2398414607
 20
150.3805184919
 10
89.2815945144
 20
149.2550661504
 10
89.295512199
 20
148.8876384399
  0
ARC
  5
1F1
330
1F
100
AcDbEntity
  8
0
  6
CONTINUOUS
 62
     7
100
AcDbCircle
 10
89.0142035384
 20
151.6670993914
 30
0.0
 40
1.306217012203331
100
AcDbArc
 50
193.08502614
 51
279.9472556947
  0
ARC
  5
1F2
330
1F
100
AcDbEntity
  8
0
  6
CONTINUOUS
 62
     7
100
AcDbCircle
 10
86.1440292201
 20
151.2876053286
 30
0.0
 40
1.600067405596774
100
AcDbArc
 50
3.0010652754
 51
36.4633547274
  0
ARC
  5
1F3
330
1F
100
AcDbEntity
  8
0
  6
CONTINUOUS
 62
     7
100
AcDbCircle
 10
259.1808412462
 20
151.2876053286
 30
0.0
 40
1.600067405596808
100
AcDbArc
 50
143.5366452726
 51
176.9989347246
  0
ARC
  5
1F4
330
1F
100
AcDbEntity
  8
0
  6
CONTINUOUS
 62
     7
100
AcDbCircle
 10
256.3106669279
 20
151.6670993914
 30
0.0
 40
1.306217012203317
100
AcDbArc
 50
260.0527443053
 51
346.91497386
  0
ARC
  5
1F5
330
1F
100
AcDbEntity
  8
0
  6
CONTINUOUS
 62
     7
100
AcDbCircle
 10
89.2955187054
 20
150.3876477902
 30
0.0
 40
1.500009350303848
100
AcDbArc
 50
183.0003310285
 51
269.9997514738
  0
LWPOLYLINE
  5
1F6
330
1F
100
AcDbEntity
  8
0
  6
CONTINUOUS
 62
     7
100
AcDbPolyline
 90
        3
 70
   128
 43
0.0
 10
87.7419022317
 20
151.3713760949
 10
87.783111393
 20
150.5849773246
 10
87.7975655194
 20
150.309134712
  0
LWPOLYLINE
  5
1F7
330
1F
100
AcDbEntity
  8
0
  6
CONTINUOUS
 62
     7
100
AcDbPolyline
 90
        3
 70
   128
 43
0.0
 10
257.5273049469
 20
150.309134712
 10
257.5417590733
 20
150.5849773246
 10
257.5829682346
 20
151.3713760949
  0
ARC
  5
1F8
330
1F
100
AcDbEntity
  8
0
  6
CONTINUOUS
 62
     7
100
AcDbCircle
 10
256.0293517609
 20
150.3876477902
 30
0.0
 40
1.500009350303848
100
AcDbArc
 50
270.0002485262
 51
356.9996689715
  0
LINE
  5
1F9
330
1F
100
AcDbEntity
  8
0
  6
CONTINUOUS
 62
     7
100
AcDbLine
 10
257.5829682346
 20
151.3713760949
 30
0.0
 11
269.1624370809
 21
151.3713760949
 31
0.0
  0
LINE
  5
1FA
330
1F
100
AcDbEntity
  8
0
  6
CONTINUOUS
 62
     7
100
AcDbLine
 10
269.1624370809
 20
152.8876386299
 30
0.0
 11
269.1624370809
 21
151.3713760949
 31
0.0
  0
LINE
  5
1FB
330
1F
100
AcDbEntity
  8
0
  6
CONTINUOUS
 62
     7
100
AcDbLine
 10
269.1624370809
 20
150.309134712
 30
0.0
 11
257.5273049469
 21
150.309134712
 31
0.0
  0
LINE
  5
1FC
330
1F
100
AcDbEntity
  8
0
  6
CONTINUOUS
 62
     7
100
AcDbLine
 10
269.1624370809
 20
148.8876384399
 30
0.0
 11
269.1624370809
 21
150.309134712
 31
0.0
  0
LINE
  5
1FD
330
1F
100
AcDbEntity
  8
0
  6
CONTINUOUS
 62
     7
100
AcDbLine
 10
269.1624370809
 20
148.8876384399
 30
0.0
 11
256.0293582674
 21
148.8876384399
 31
0.0
  0
LINE
  5
1FE
330
1F
100
AcDbEntity
  8
0
  6
CONTINUOUS
 62
     7
100
AcDbLine
 10
76.1624333854
 20
151.3713760949
 30
0.0
 11
87.7419022317
 21
151.3713760949
 31
0.0
  0
LINE
  5
1FF
330
1F
100
AcDbEntity
  8
0
  6
CONTINUOUS
 62
     7
100
AcDbLine
 10
76.1624333854
 20
152.8876386299
 30
0.0
 11
76.1624333854
 21
151.3713760949
 31
0.0
  0
LINE
  5
200
330
1F
100
AcDbEntity
  8
0
  6
CONTINUOUS
 62
     7
100
AcDbLine
 10
76.1624333854
 20
148.8876384399
 30
0.0
 11
76.1624333854
 21
150.309134712
 31
0.0
  0
LINE
  5
201
330
1F
100
AcDbEntity
  8
0
  6
CONTINUOUS
 62
     7
100
AcDbLine
 10
87.7975655194
 20
150.309134712
 30
0.0
 11
76.1624333854
 21
150.309134712
 31
0.0
  0
LINE
  5
202
330
1F
100
AcDbEntity
  8
0
  6
CONTINUOUS
 62
     7
100
AcDbLine
 10
89.295512199
 20
148.8876384399
 30
0.0
 11
76.1624333854
 21
148.8876384399
 31
0.0
  0
LINE
  5
203
330
1F
100
AcDbEntity
  8
0
  6
CONTINUOUS
 62
     7
100
AcDbLine
 10
269.1624370809
 20
151.3713760949
 30
0.0
 11
269.1624370809
 21
150.309134712
 31
0.0
  0
LINE
  5
204
330
1F
100
AcDbEntity
  8
0
  6
CONTINUOUS
 62
     7
100
AcDbLine
 10
76.1624333854
 20
150.309134712
 30
0.0
 11
76.1624333854
 21
151.3713760949
 31
0.0
  0
LWPOLYLINE
  5
205
330
1F
100
AcDbEntity
  8
0
  6
CONTINUOUS
 62
     7
100
AcDbPolyline
 90
        5
 70
   128
 43
0.0
 10
277.5667665
 20
152.2385390424
 10
277.7126637693
 20
152.5199886826
 10
277.8159139152
 20
152.7185139428
 10
277.8817919488
 20
152.8455180531
 10
277.9037488099
 20
152.8876386299
  0
ARC
  5
206
330
1F
100
AcDbEntity
  8
0
  6
CONTINUOUS
 62
     7
100
AcDbCircle
 10
275.7683493529
 20
153.2829366372
 30
0.0
 40
2.079680401160023
100
AcDbArc
 50
293.1963077708
 51
329.8549124832
  0
LINE
  5
207
330
1F
100
AcDbEntity
  8
0
  6
CONTINUOUS
 62
     7
100
AcDbLine
 10
269.1624370809
 20
151.3713760949
 30
0.0
 11
276.5874994393
 21
151.3713760949
 31
0.0
  0
LINE
  5
208
330
1F
100
AcDbEntity
  8
0
  6
CONTINUOUS
 62
     7
100
AcDbLine
 10
68.737371027
 20
151.3713760949
 30
0.0
 11
76.1624333854
 21
151.3713760949
 31
0.0
  0
ARC
  5
209
330
1F
100
AcDbEntity
  8
0
  6
CONTINUOUS
 62
     7
100
AcDbCircle
 10
69.5565211134
 20
153.2829366372
 30
0.0
 40
2.079680401159936
100
AcDbArc
 50
210.1450875168
 51
246.8036922292
  0
LWPOLYLINE
  5
20A
330
1F
100
AcDbEntity
  8
0
  6
CONTINUOUS
 62
     7
100
AcDbPolyline
 90
        5
 70
   128
 43
0.0
 10
67.4211216565
 20
152.8876386299
 10
67.4433765407
 20
152.8449811456
 10
67.5101337429
 20
152.7161764396
 10
67.6129368539
 20
152.5184921637
 10
67.7581039663
 20
152.2385390424
  0
LWPOLYLINE
  5
20B
330
1F
100
AcDbEntity
  8
0
  6
CONTINUOUS
 62
     7
100
AcDbPolyline
 90
        5
 70
   128
 43
0.0
 10
277.5667665
 20
152.2381236726
 10
278.0753505822
 20
152.2060209834
 10
278.5209698077
 20
152.2873076326
 10
278.8468656536
 20
152.4741947367
 10
279.015658557
 20
152.7417796613
  0
LWPOLYLINE
  5
20C
330
1F
100
AcDbEntity
  8
0
  6
CONTINUOUS
 62
     7
100
AcDbPolyline
 90
        5
 70
   128
 43
0.0
 10
279.3526408668
 20
153.9994100975
 10
279.3306989069
 20
153.9175172118
 10
279.2636213298
 20
153.6672021328
 10
279.1551483269
 20
153.2623740793
 10
279.015658557
 20
152.7417796613
  0
LWPOLYLINE
  5
20D
330
1F
100
AcDbEntity
  8
0
  6
CONTINUOUS
 62
     7
100
AcDbPolyline
 90
        5
 70
   128
 43
0.0
 10
66.3092119093
 20
152.7417796613
 10
66.4780048128
 20
152.4741947367
 10
66.8039006587
 20
152.2873076326
 10
67.2495198842
 20
152.2060209834
 10
67.7581039663
 20
152.2381236726
  0
LWPOLYLINE
  5
20E
330
1F
100
AcDbEntity
  8
0
  6
CONTINUOUS
 62
     7
100
AcDbPolyline
 90
        5
 70
   128
 43
0.0
 10
66.3092119093
 20
152.7417796613
 10
66.1697221394
 20
153.2623740793
 10
66.0612491365
 20
153.6672021328
 10
65.9941715594
 20
153.9175172118
 10
65.9722295995
 20
153.9994100975
  0
LWPOLYLINE
  5
20F
330
1F
100
AcDbEntity
  8
0
  6
CONTINUOUS
 62
     7
100
AcDbPolyline
 90
        3
 70
   128
 43
0.0
 10
279.015658557
 20
152.7417796613
 10
278.5178778167
 20
151.5255938
 10
277.6393873091
 20
150.3805184919
  0
ARC
  5
210
330
1F
100
AcDbEntity
  8
0
  6
CONTINUOUS
 62
     7
100
AcDbCircle
 10
283.2388484899
 20
157.3786368013
 30
0.0
 40
8.962568013005258
100
AcDbArc
 50
222.0872199196
 51
231.3353668822
  0
ARC
  5
211
330
1F
100
AcDbEntity
  8
0
  6
CONTINUOUS
 62
     7
100
AcDbCircle
 10
60.9411859944
 20
158.5939870986
 30
0.0
 40
10.62763429811396
100
AcDbArc
 50
309.3903265752
 51
317.187086623
  0
LWPOLYLINE
  5
212
330
1F
100
AcDbEntity
  8
0
  6
CONTINUOUS
 62
     7
100
AcDbPolyline
 90
        3
 70
   128
 43
0.0
 10
67.6854831572
 20
150.3805184919
 10
66.8070224519
 20
151.5255414131
 10
66.3092119093
 20
152.7417796613
  0
LINE
  5
213
330
1F
100
AcDbEntity
  8
0
  6
CONTINUOUS
 62
     7
100
AcDbLine
 10
76.1624333854
 20
150.309134712
 30
0.0
 11
71.3320282693
 21
150.309134712
 31
0.0
  0
LWPOLYLINE
  5
214
330
1F
100
AcDbEntity
  8
0
  6
CONTINUOUS
 62
     7
100
AcDbPolyline
 90
        3
 70
   128
 43
0.0
 10
71.3320282693
 20
150.309134712
 10
69.9301940794
 20
150.5849773246
 10
68.737371027
 20
151.3713760949
  0
LWPOLYLINE
  5
215
330
1F
100
AcDbEntity
  8
0
  6
CONTINUOUS
 62
     7
100
AcDbPolyline
 90
        3
 70
   128
 43
0.0
 10
276.5874994393
 20
151.3713760949
 10
275.3946763869
 20
150.5849773246
 10
273.992842197
 20
150.309134712
  0
LINE
  5
216
330
1F
100
AcDbEntity
  8
0
  6
CONTINUOUS
 62
     7
100
AcDbLine
 10
273.992842197
 20
150.309134712
 30
0.0
 11
269.1624370809
 21
150.309134712
 31
0.0
  0
LWPOLYLINE
  5
217
330
1F
100
AcDbEntity
  8
0
  6
CONTINUOUS
 62
     7
100
AcDbPolyline
 90
        3
 70
   128
 43
0.0
 10
277.6393873091
 20
150.3805184919
 10
275.9128046627
 20
149.2550661504
 10
273.992842197
 20
148.8876384399
  0
LINE
  5
218
330
1F
100
AcDbEntity
  8
0
  6
CONTINUOUS
 62
     7
100
AcDbLine
 10
273.992842197
 20
150.309134712
 30
0.0
 11
273.992842197
 21
148.8876384399
 31
0.0
  0
LINE
  5
219
330
1F
100
AcDbEntity
  8
0
  6
CONTINUOUS
 62
     7
100
AcDbLine
 10
71.3320282693
 20
148.8876384399
 30
0.0
 11
71.3320282693
 21
150.309134712
 31
0.0
  0
LWPOLYLINE
  5
21A
330
1F
100
AcDbEntity
  8
0
  6
CONTINUOUS
 62
     7
100
AcDbPolyline
 90
        3
 70
   128
 43
0.0
 10
71.3320282693
 20
148.8876384399
 10
69.4120807047
 20
149.2550614937
 10
67.6854831572
 20
150.3805184919
  0
LINE
  5
21B
330
1F
100
AcDbEntity
  8
0
  6
CONTINUOUS
 62
     7
100
AcDbLine
 10
273.992842197
 20
148.8876384399
 30
0.0
 11
269.1624370809
 21
148.8876384399
 31
0.0
  0
LINE
  5
21C
330
1F
100
AcDbEntity
  8
0
  6
CONTINUOUS
 62
     7
100
AcDbLine
 10
76.1624333854
 20
148.8876384399
 30
0.0
 11
71.3320282693
 21
148.8876384399
 31
0.0
  0
LINE
  5
21D
330
1F
100
AcDbEntity
  8
0
  6
CONTINUOUS
 62
     7
100
AcDbLine
 10
312.831522545
 20
282.5300996523
 30
0.0
 11
307.9432939604
 21
283.8398968201
 31
0.0
  0
LINE
  5
21E
330
1F
100
AcDbEntity
  8
0
  6
CONTINUOUS
 62
     7
100
AcDbLine
 10
312.831522545
 20
272.3398958664
 30
0.0
 11
312.831522545
 21
282.5300996523
 31
0.0
  0
LINE
  5
21F
330
1F
100
AcDbEntity
  8
0
  6
CONTINUOUS
 62
     7
100
AcDbLine
 10
307.9432939604
 20
272.3398958664
 30
0.0
 11
312.831522545
 21
272.3398958664
 31
0.0
  0
LINE
  5
220
330
1F
100
AcDbEntity
  8
0
  6
CONTINUOUS
 62
     7
100
AcDbLine
 10
307.9432939604
 20
283.8398968201
 30
0.0
 11
307.9432939604
 21
272.3398958664
 31
0.0
  0
LINE
  5
221
330
1F
100
AcDbEntity
  8
0
  6
CONTINUOUS
 62
     7
100
AcDbLine
 10
307.9432939604
 20
272.3398958664
 30
0.0
 11
307.9432939604
 21
210.3398968797
 31
0.0
  0
LINE
  5
222
330
1F
100
AcDbEntity
  8
0
  6
CONTINUOUS
 62
     7
100
AcDbLine
 10
312.831522545
 20
262.3582394194
 30
0.0
 11
312.831522545
 21
272.3398958664
 31
0.0
  0
ARC
  5
223
330
1F
100
AcDbEntity
  8
0
  6
CONTINUOUS
 62
     7
100
AcDbCircle
 10
315.931520123
 20
262.3582391685
 30
0.0
 40
3.099997577937141
100
AcDbArc
 50
179.9999953626
 51
233.5363665905
  0
LINE
  5
224
330
1F
100
AcDbEntity
  8
0
  6
CONTINUOUS
 62
     7
100
AcDbLine
 10
314.0891529812
 20
222.814677782
 30
0.0
 11
314.0891529812
 21
259.8651149642
 31
0.0
  0
ARC
  5
225
330
1F
100
AcDbEntity
  8
0
  6
CONTINUOUS
 62
     7
100
AcDbCircle
 10
315.931520123
 20
220.3215535777
 30
0.0
 40
3.099997577937192
100
AcDbArc
 50
126.4636334095
 51
180.0000046374
  0
LINE
  5
226
330
1F
100
AcDbEntity
  8
0
  6
CONTINUOUS
 62
     7
100
AcDbLine
 10
312.831522545
 20
210.3398968797
 30
0.0
 11
312.831522545
 21
220.3215533267
 31
0.0
  0
LINE
  5
227
330
1F
100
AcDbEntity
  8
0
  6
CONTINUOUS
 62
     7
100
AcDbLine
 10
312.831522545
 20
210.3398968797
 30
0.0
 11
307.9432939604
 21
210.3398968797
 31
0.0
  0
LINE
  5
228
330
1F
100
AcDbEntity
  8
0
  6
CONTINUOUS
 62
     7
100
AcDbLine
 10
312.831522545
 20
200.1496930938
 30
0.0
 11
312.831522545
 21
210.3398968797
 31
0.0
  0
LINE
  5
229
330
1F
100
AcDbEntity
  8
0
  6
CONTINUOUS
 62
     7
100
AcDbLine
 10
312.831522545
 20
200.1496930938
 30
0.0
 11
307.9432939604
 21
198.839895926
 31
0.0
  0
LINE
  5
22A
330
1F
100
AcDbEntity
  8
0
  6
CONTINUOUS
 62
     7
100
AcDbLine
 10
307.9432939604
 20
210.3398968797
 30
0.0
 11
307.9432939604
 21
198.839895926
 31
0.0
  0
ARC
  5
22B
330
1F
100
AcDbEntity
  8
0
  6
CONTINUOUS
 62
     7
100
AcDbCircle
 10
312.8977517902
 20
221.6089483564
 30
0.0
 40
1.695057593565798
100
AcDbArc
 50
359.9599606535
 51
45.3424667765
  0
ARC
  5
22C
330
1F
100
AcDbEntity
  8
0
  6
CONTINUOUS
 62
     7
100
AcDbCircle
 10
315.5432951051
 20
220.3215532304
 30
0.0
 40
1.600001092507177
100
AcDbArc
 50
126.4636753917
 51
179.9999965484
  0
LINE
  5
22D
330
1F
100
AcDbEntity
  8
0
  6
CONTINUOUS
 62
     7
100
AcDbLine
 10
313.9432940126
 20
220.3215533267
 30
0.0
 11
312.831522545
 21
220.3215533267
 31
0.0
  0
ARC
  5
22E
330
1F
100
AcDbEntity
  8
0
  6
CONTINUOUS
 62
     7
100
AcDbCircle
 10
315.5432981505
 20
262.358241052
 30
0.0
 40
1.600004137953513
100
AcDbArc
 50
180.0000584641
 51
233.5362695958
  0
ARC
  5
22F
330
1F
100
AcDbEntity
  8
0
  6
CONTINUOUS
 62
     7
100
AcDbCircle
 10
312.8977517902
 20
261.0708443897
 30
0.0
 40
1.695057593565869
100
AcDbArc
 50
314.6575332235
 51
0.0400393465
  0
LINE
  5
230
330
1F
100
AcDbEntity
  8
0
  6
CONTINUOUS
 62
     7
100
AcDbLine
 10
312.831522545
 20
262.3582394194
 30
0.0
 11
313.9432940126
 21
262.3582394194
 31
0.0
  0
LINE
  5
231
330
1F
100
AcDbEntity
  8
0
  6
CONTINUOUS
 62
     7
100
AcDbLine
 10
313.9432940126
 20
262.3582394194
 30
0.0
 11
313.9432940126
 21
272.3398958664
 31
0.0
  0
LINE
  5
232
330
1F
100
AcDbEntity
  8
0
  6
CONTINUOUS
 62
     7
100
AcDbLine
 10
312.831522545
 20
272.3398958664
 30
0.0
 11
313.9432940126
 21
272.3398958664
 31
0.0
  0
LINE
  5
233
330
1F
100
AcDbEntity
  8
0
  6
CONTINUOUS
 62
     7
100
AcDbLine
 10
313.9432940126
 20
210.3398968797
 30
0.0
 11
313.9432940126
 21
220.3215533267
 31
0.0
  0
LINE
  5
234
330
1F
100
AcDbEntity
  8
0
  6
CONTINUOUS
 62
     7
100
AcDbLine
 10
313.9432940126
 20
210.3398968797
 30
0.0
 11
312.831522545
 21
210.3398968797
 31
0.0
  0
LINE
  5
235
330
1F
100
AcDbEntity
  8
0
  6
CONTINUOUS
 62
     7
100
AcDbLine
 10
313.9432940126
 20
272.3398958664
 30
0.0
 11
313.9432940126
 21
281.0812113207
 31
0.0
  0
ARC
  5
236
330
1F
100
AcDbEntity
  8
0
  6
CONTINUOUS
 62
     7
100
AcDbCircle
 10
312.4432939764
 20
281.0812107365
 30
0.0
 40
1.5
100
AcDbArc
 50
0.0
 51
75.0
  0
LINE
  5
237
330
1F
100
AcDbEntity
  8
0
  6
CONTINUOUS
 62
     7
100
AcDbLine
 10
313.9432940126
 20
201.5985814255
 30
0.0
 11
313.9432940126
 21
210.3398968797
 31
0.0
  0
ARC
  5
238
330
1F
100
AcDbEntity
  8
0
  6
CONTINUOUS
 62
     7
100
AcDbCircle
 10
312.4432939764
 20
201.5985820096
 30
0.0
 40
1.500000000000004
100
AcDbArc
 50
285.0
 51
0.0
  0
LWPOLYLINE
  5
239
330
1F
100
AcDbEntity
  8
0
  6
CONTINUOUS
 62
     7
100
AcDbPolyline
 90
        3
 70
   128
 43
0.0
 10
316.4504141506
 20
259.2624877911
 10
315.3053912293
 20
259.4162118953
 10
314.0891529812
 20
259.8651149642
  0
LWPOLYLINE
  5
23A
330
1F
100
AcDbEntity
  8
0
  6
CONTINUOUS
 62
     7
100
AcDbPolyline
 90
        3
 70
   128
 43
0.0
 10
317.9432942026
 20
259.2068189155
 10
317.5758711487
 20
259.2207366001
 10
316.4504141506
 20
259.2624877911
  0
LINE
  5
23B
330
1F
100
AcDbEntity
  8
0
  6
CONTINUOUS
 62
     7
100
AcDbLine
 10
317.9432942026
 20
223.4729738306
 30
0.0
 11
317.9432942026
 21
259.2068189155
 31
0.0
  0
LWPOLYLINE
  5
23C
330
1F
100
AcDbEntity
  8
0
  6
CONTINUOUS
 62
     7
100
AcDbPolyline
 90
        3
 70
   128
 43
0.0
 10
316.4504141506
 20
223.417304955
 10
317.5758711487
 20
223.459056146
 10
317.9432942026
 20
223.4729738306
  0
LWPOLYLINE
  5
23D
330
1F
100
AcDbEntity
  8
0
  6
CONTINUOUS
 62
     7
100
AcDbPolyline
 90
        3
 70
   128
 43
0.0
 10
314.0891529812
 20
222.814677782
 10
315.3053388425
 20
223.2635678123
 10
316.4504141506
 20
223.417304955
  0
ARC
  5
23E
330
1F
100
AcDbEntity
  8
0
  6
CONTINUOUS
 62
     7
100
AcDbCircle
 10
315.1198355806
 20
223.2207657794
 30
0.0
 40
1.34501560536352
100
AcDbArc
 50
284.6301006134
 51
8.4023779197
  0
ARC
  5
23F
330
1F
100
AcDbEntity
  8
0
  6
CONTINUOUS
 62
     7
100
AcDbCircle
 10
315.5432966133
 20
220.3215418948
 30
0.0
 40
1.600011105291901
100
AcDbArc
 50
93.0000700873
 51
126.4634775837
  0
ARC
  5
240
330
1F
100
AcDbEntity
  8
0
  6
CONTINUOUS
 62
     7
100
AcDbCircle
 10
315.5432966133
 20
262.3582508513
 30
0.0
 40
1.600011105291855
100
AcDbArc
 50
233.5365224163
 51
266.9999299127
  0
ARC
  5
241
330
1F
100
AcDbEntity
  8
0
  6
CONTINUOUS
 62
     7
100
AcDbCircle
 10
315.1638240692
 20
259.488124386
 30
0.0
 40
1.306225826752431
100
AcDbArc
 50
350.0528712263
 51
76.9146502406
  0
ARC
  5
242
330
1F
100
AcDbEntity
  8
0
  6
CONTINUOUS
 62
     7
100
AcDbCircle
 10
316.4432947822
 20
223.4729746392
 30
0.0
 40
1.499999420352358
100
AcDbArc
 50
272.9999710924
 51
359.9999691143
  0
LWPOLYLINE
  5
243
330
1F
100
AcDbEntity
  8
0
  6
CONTINUOUS
 62
     7
100
AcDbPolyline
 90
        3
 70
   128
 43
0.0
 10
315.4595565476
 20
221.9193601381
 10
316.2459553179
 20
221.9605730247
 10
316.5217979305
 20
221.9750308763
  0
LWPOLYLINE
  5
244
330
1F
100
AcDbEntity
  8
0
  6
CONTINUOUS
 62
     7
100
AcDbPolyline
 90
        3
 70
   128
 43
0.0
 10
316.5217979305
 20
260.7047618698
 10
316.2459553179
 20
260.7192197215
 10
315.4595565476
 20
260.760432608
  0
ARC
  5
245
330
1F
100
AcDbEntity
  8
0
  6
CONTINUOUS
 62
     7
100
AcDbCircle
 10
316.4432947822
 20
259.2068181069
 30
0.0
 40
1.499999420352422
100
AcDbArc
 50
0.0000308857
 51
87.0000289076
  0
LINE
  5
246
330
1F
100
AcDbEntity
  8
0
  6
CONTINUOUS
 62
     7
100
AcDbLine
 10
315.4595565476
 20
260.760432608
 30
0.0
 11
315.4595565476
 21
272.3398958664
 31
0.0
  0
LINE
  5
247
330
1F
100
AcDbEntity
  8
0
  6
CONTINUOUS
 62
     7
100
AcDbLine
 10
313.9432940126
 20
272.3398958664
 30
0.0
 11
315.4595565476
 21
272.3398958664
 31
0.0
  0
LINE
  5
248
330
1F
100
AcDbEntity
  8
0
  6
CONTINUOUS
 62
     7
100
AcDbLine
 10
315.4595565476
 20
210.3398968797
 30
0.0
 11
315.4595565476
 21
221.9193601381
 31
0.0
  0
LINE
  5
249
330
1F
100
AcDbEntity
  8
0
  6
CONTINUOUS
 62
     7
100
AcDbLine
 10
313.9432940126
 20
210.3398968797
 30
0.0
 11
315.4595565476
 21
210.3398968797
 31
0.0
  0
LINE
  5
24A
330
1F
100
AcDbEntity
  8
0
  6
CONTINUOUS
 62
     7
100
AcDbLine
 10
316.5217979305
 20
272.3398958664
 30
0.0
 11
316.5217979305
 21
260.7047618698
 31
0.0
  0
LINE
  5
24B
330
1F
100
AcDbEntity
  8
0
  6
CONTINUOUS
 62
     7
100
AcDbLine
 10
317.9432942026
 20
272.3398958664
 30
0.0
 11
316.5217979305
 21
272.3398958664
 31
0.0
  0
LINE
  5
24C
330
1F
100
AcDbEntity
  8
0
  6
CONTINUOUS
 62
     7
100
AcDbLine
 10
317.9432942026
 20
272.3398958664
 30
0.0
 11
317.9432942026
 21
259.2068189155
 31
0.0
  0
LINE
  5
24D
330
1F
100
AcDbEntity
  8
0
  6
CONTINUOUS
 62
     7
100
AcDbLine
 10
316.5217979305
 20
221.9750308763
 30
0.0
 11
316.5217979305
 21
210.3398968797
 31
0.0
  0
LINE
  5
24E
330
1F
100
AcDbEntity
  8
0
  6
CONTINUOUS
 62
     7
100
AcDbLine
 10
317.9432942026
 20
210.3398968797
 30
0.0
 11
316.5217979305
 21
210.3398968797
 31
0.0
  0
LINE
  5
24F
330
1F
100
AcDbEntity
  8
0
  6
CONTINUOUS
 62
     7
100
AcDbLine
 10
317.9432942026
 20
223.4729738306
 30
0.0
 11
317.9432942026
 21
210.3398968797
 31
0.0
  0
LINE
  5
250
330
1F
100
AcDbEntity
  8
0
  6
CONTINUOUS
 62
     7
100
AcDbLine
 10
315.4595565476
 20
272.3398958664
 30
0.0
 11
316.5217979305
 21
272.3398958664
 31
0.0
  0
LINE
  5
251
330
1F
100
AcDbEntity
  8
0
  6
CONTINUOUS
 62
     7
100
AcDbLine
 10
316.5217979305
 20
210.3398968797
 30
0.0
 11
315.4595565476
 21
210.3398968797
 31
0.0
  0
LINE
  5
252
330
1F
100
AcDbEntity
  8
0
  6
CONTINUOUS
 62
     7
100
AcDbLine
 10
315.4595565476
 20
202.9148345213
 30
0.0
 11
315.4595565476
 21
210.3398968797
 31
0.0
  0
ARC
  5
253
330
1F
100
AcDbEntity
  8
0
  6
CONTINUOUS
 62
     7
100
AcDbCircle
 10
313.5479817247
 20
203.7339904119
 30
0.0
 40
2.079695813409471
100
AcDbArc
 50
300.1452958925
 51
336.8037002145
  0
LWPOLYLINE
  5
254
330
1F
100
AcDbEntity
  8
0
  6
CONTINUOUS
 62
     7
100
AcDbPolyline
 90
        5
 70
   128
 43
0.0
 10
313.9432940126
 20
201.5985814255
 10
313.9859542908
 20
201.620840035
 10
314.1147562029
 20
201.6875972371
 10
314.3124404788
 20
201.7904003482
 10
314.5923936
 20
201.9355637353
  0
LWPOLYLINE
  5
255
330
1F
100
AcDbEntity
  8
0
  6
CONTINUOUS
 62
     7
100
AcDbPolyline
 90
        5
 70
   128
 43
0.0
 10
314.5923936
 20
280.7442290108
 10
314.3109439599
 20
280.8901225548
 10
314.1124186997
 20
280.993376426
 10
313.9854173834
 20
281.0592470091
 10
313.9432940126
 20
281.0812113207
  0
ARC
  5
256
330
1F
100
AcDbEntity
  8
0
  6
CONTINUOUS
 62
     7
100
AcDbCircle
 10
313.5479817247
 20
278.9458023343
 30
0.0
 40
2.079695813409446
100
AcDbArc
 50
23.1962997855
 51
59.8547041075
  0
LINE
  5
257
330
1F
100
AcDbEntity
  8
0
  6
CONTINUOUS
 62
     7
100
AcDbLine
 10
315.4595565476
 20
272.3398958664
 30
0.0
 11
315.4595565476
 21
279.7649582248
 31
0.0
  0
LWPOLYLINE
  5
258
330
1F
100
AcDbEntity
  8
0
  6
CONTINUOUS
 62
     7
100
AcDbPolyline
 90
        5
 70
   128
 43
0.0
 10
314.0891529812
 20
200.4866754036
 10
314.3567379058
 20
200.6554645818
 10
314.5436250098
 20
200.9813641529
 10
314.6249116591
 20
201.4269833784
 10
314.5928089699
 20
201.9355637353
  0
LWPOLYLINE
  5
259
330
1F
100
AcDbEntity
  8
0
  6
CONTINUOUS
 62
     7
100
AcDbPolyline
 90
        5
 70
   128
 43
0.0
 10
314.0891529812
 20
200.4866754036
 10
313.5685585631
 20
200.3471819084
 10
313.1637305097
 20
200.2387089055
 10
312.9134154307
 20
200.1716350537
 10
312.831522545
 20
200.1496930938
  0
LWPOLYLINE
  5
25A
330
1F
100
AcDbEntity
  8
0
  6
CONTINUOUS
 62
     7
100
AcDbPolyline
 90
        5
 70
   128
 43
0.0
 10
314.5928089699
 20
280.7442290108
 10
314.6249116591
 20
281.2528093677
 10
314.5436250098
 20
281.6984285932
 10
314.3567379058
 20
282.0243281644
 10
314.0891529812
 20
282.1931173425
  0
LWPOLYLINE
  5
25B
330
1F
100
AcDbEntity
  8
0
  6
CONTINUOUS
 62
     7
100
AcDbPolyline
 90
        5
 70
   128
 43
0.0
 10
312.831522545
 20
282.5300996523
 10
312.9134154307
 20
282.5081576925
 10
313.1637305097
 20
282.4410838406
 10
313.5685585631
 20
282.3326108377
 10
314.0891529812
 20
282.1931173425
  0
LWPOLYLINE
  5
25C
330
1F
100
AcDbEntity
  8
0
  6
CONTINUOUS
 62
     7
100
AcDbPolyline
 90
        3
 70
   128
 43
0.0
 10
314.0891529812
 20
282.1931173425
 10
315.3053388425
 20
281.6953366022
 10
316.4504141506
 20
280.8168460946
  0
ARC
  5
25D
330
1F
100
AcDbEntity
  8
0
  6
CONTINUOUS
 62
     7
100
AcDbCircle
 10
308.2364808731
 20
287.5615809682
 30
0.0
 40
10.6282711859613
100
AcDbArc
 50
312.8131473444
 51
320.6094394574
  0
ARC
  5
25E
330
1F
100
AcDbEntity
  8
0
  6
CONTINUOUS
 62
     7
100
AcDbCircle
 10
308.2364808731
 20
195.1182117779
 30
0.0
 40
10.62827118595972
100
AcDbArc
 50
39.3905605426
 51
47.1868526556
  0
LWPOLYLINE
  5
25F
330
1F
100
AcDbEntity
  8
0
  6
CONTINUOUS
 62
     7
100
AcDbPolyline
 90
        3
 70
   128
 43
0.0
 10
316.4504141506
 20
201.8629466515
 10
315.3053912293
 20
200.9844859462
 10
314.0891529812
 20
200.4866754036
  0
LINE
  5
260
330
1F
100
AcDbEntity
  8
0
  6
CONTINUOUS
 62
     7
100
AcDbLine
 10
316.5217979305
 20
210.3398968797
 30
0.0
 11
316.5217979305
 21
205.5094880383
 31
0.0
  0
LWPOLYLINE
  5
261
330
1F
100
AcDbEntity
  8
0
  6
CONTINUOUS
 62
     7
100
AcDbPolyline
 90
        3
 70
   128
 43
0.0
 10
316.5217979305
 20
205.5094880383
 10
316.2459553179
 20
204.1076501231
 10
315.4595565476
 20
202.9148345213
  0
LWPOLYLINE
  5
262
330
1F
100
AcDbEntity
  8
0
  6
CONTINUOUS
 62
     7
100
AcDbPolyline
 90
        3
 70
   128
 43
0.0
 10
315.4595565476
 20
279.7649582248
 10
316.2459553179
 20
278.572142623
 10
316.5217979305
 20
277.1703047078
  0
LINE
  5
263
330
1F
100
AcDbEntity
  8
0
  6
CONTINUOUS
 62
     7
100
AcDbLine
 10
316.5217979305
 20
277.1703047078
 30
0.0
 11
316.5217979305
 21
272.3398958664
 31
0.0
  0
LWPOLYLINE
  5
264
330
1F
100
AcDbEntity
  8
0
  6
CONTINUOUS
 62
     7
100
AcDbPolyline
 90
        3
 70
   128
 43
0.0
 10
316.4504141506
 20
280.8168460946
 10
317.5758664921
 20
279.0902634483
 10
317.9432942026
 20
277.1703047078
  0
LINE
  5
265
330
1F
100
AcDbEntity
  8
0
  6
CONTINUOUS
 62
     7
100
AcDbLine
 10
316.5217979305
 20
277.1703047078
 30
0.0
 11
317.9432942026
 21
277.1703047078
 31
0.0
  0
LINE
  5
266
330
1F
100
AcDbEntity
  8
0
  6
CONTINUOUS
 62
     7
100
AcDbLine
 10
317.9432942026
 20
205.5094880383
 30
0.0
 11
316.5217979305
 21
205.5094880383
 31
0.0
  0
LWPOLYLINE
  5
267
330
1F
100
AcDbEntity
  8
0
  6
CONTINUOUS
 62
     7
100
AcDbPolyline
 90
        3
 70
   128
 43
0.0
 10
317.9432942026
 20
205.5094880383
 10
317.5758711487
 20
203.5895404737
 10
316.4504141506
 20
201.8629466515
  0
LINE
  5
268
330
1F
100
AcDbEntity
  8
0
  6
CONTINUOUS
 62
     7
100
AcDbLine
 10
317.9432942026
 20
277.1703047078
 30
0.0
 11
317.9432942026
 21
272.3398958664
 31
0.0
  0
LINE
  5
269
330
1F
100
AcDbEntity
  8
0
  6
CONTINUOUS
 62
     7
100
AcDbLine
 10
317.9432942026
 20
210.3398968797
 30
0.0
 11
317.9432942026
 21
205.5094880383
 31
0.0
  0
LINE
  5
26A
330
1F
100
AcDbEntity
  8
0
  6
CONTINUOUS
 62
     7
100
AcDbLine
 10
317.9432942026
 20
259.2068189155
 30
0.0
 11
317.9432942026
 21
259.456169359
 31
0.0
  0
LINE
  5
26B
330
1F
100
AcDbEntity
  8
0
  6
CONTINUOUS
 62
     7
100
AcDbLine
 10
317.9432942026
 20
223.2236233871
 30
0.0
 11
317.9432942026
 21
223.4729738306
 31
0.0
  0
LINE
  5
26C
330
1F
100
AcDbEntity
  8
0
  6
CONTINUOUS
 62
     7
100
AcDbLine
 10
391.4823825256
 20
205.8398952108
 30
0.0
 11
391.4823825256
 21
210.3398968797
 31
0.0
  0
ARC
  5
26D
330
1F
100
AcDbEntity
  8
0
  6
CONTINUOUS
 62
     7
100
AcDbCircle
 10
379.9823834197
 20
210.3398963731
 30
0.0
 40
11.5
100
AcDbArc
 50
0.0
 51
90.0
  0
LINE
  5
26E
330
1F
100
AcDbEntity
  8
0
  6
CONTINUOUS
 62
     7
100
AcDbLine
 10
379.9823815719
 20
221.8398959707
 30
0.0
 11
375.482379903
 21
221.8398959707
 31
0.0
  0
LINE
  5
26F
330
1F
100
AcDbEntity
  8
0
  6
CONTINUOUS
 62
     7
100
AcDbLine
 10
375.482379903
 20
221.8398959707
 30
0.0
 11
375.482379903
 21
217.8398971777
 31
0.0
  0
LINE
  5
270
330
1F
100
AcDbEntity
  8
0
  6
CONTINUOUS
 62
     7
100
AcDbLine
 10
375.482379903
 20
217.8398971777
 30
0.0
 11
379.9823815719
 21
217.8398971777
 31
0.0
  0
ARC
  5
271
330
1F
100
AcDbEntity
  8
0
  6
CONTINUOUS
 62
     7
100
AcDbCircle
 10
379.9823834197
 20
210.3398963731
 30
0.0
 40
7.500000000000057
100
AcDbArc
 50
0.0
 51
90.0
  0
LINE
  5
272
330
1F
100
AcDbEntity
  8
0
  6
CONTINUOUS
 62
     7
100
AcDbLine
 10
387.48238187
 20
210.3398968797
 30
0.0
 11
387.48238187
 21
205.8398952108
 31
0.0
  0
LINE
  5
273
330
1F
100
AcDbEntity
  8
0
  6
CONTINUOUS
 62
     7
100
AcDbLine
 10
387.48238187
 20
205.8398952108
 30
0.0
 11
391.4823825256
 21
205.8398952108
 31
0.0
  0
LINE
  5
274
330
1F
100
AcDbEntity
  8
0
  6
CONTINUOUS
 62
     7
100
AcDbLine
 10
561.4823843138
 20
276.8398975353
 30
0.0
 11
561.4823843138
 21
272.3398958664
 31
0.0
  0
ARC
  5
275
330
1F
100
AcDbEntity
  8
0
  6
CONTINUOUS
 62
     7
100
AcDbCircle
 10
572.9823834197
 20
272.3398963731
 30
0.0
 40
11.50000000000011
100
AcDbArc
 50
180.0
 51
270.0
  0
LINE
  5
276
330
1F
100
AcDbEntity
  8
0
  6
CONTINUOUS
 62
     7
100
AcDbLine
 10
572.9823852674
 20
260.8398967754
 30
0.0
 11
577.4823869364
 21
260.8398967754
 31
0.0
  0
LINE
  5
277
330
1F
100
AcDbEntity
  8
0
  6
CONTINUOUS
 62
     7
100
AcDbLine
 10
577.4823869364
 20
260.8398967754
 30
0.0
 11
577.4823869364
 21
264.8398955684
 31
0.0
  0
LINE
  5
278
330
1F
100
AcDbEntity
  8
0
  6
CONTINUOUS
 62
     7
100
AcDbLine
 10
577.4823869364
 20
264.8398955684
 30
0.0
 11
572.9823852674
 21
264.8398955684
 31
0.0
  0
ARC
  5
279
330
1F
100
AcDbEntity
  8
0
  6
CONTINUOUS
 62
     7
100
AcDbCircle
 10
572.9823834197
 20
272.3398963731
 30
0.0
 40
7.5
100
AcDbArc
 50
180.0
 51
270.0
  0
LINE
  5
27A
330
1F
100
AcDbEntity
  8
0
  6
CONTINUOUS
 62
     7
100
AcDbLine
 10
565.4823849694
 20
272.3398958664
 30
0.0
 11
565.4823849694
 21
276.8398975353
 31
0.0
  0
LINE
  5
27B
330
1F
100
AcDbEntity
  8
0
  6
CONTINUOUS
 62
     7
100
AcDbLine
 10
565.4823849694
 20
276.8398975353
 30
0.0
 11
561.4823843138
 21
276.8398975353
 31
0.0
  0
LINE
  5
27C
330
1F
100
AcDbEntity
  8
0
  6
CONTINUOUS
 62
     7
100
AcDbLine
 10
387.48238187
 20
276.8398975353
 30
0.0
 11
387.48238187
 21
272.3398958664
 31
0.0
  0
ARC
  5
27D
330
1F
100
AcDbEntity
  8
0
  6
CONTINUOUS
 62
     7
100
AcDbCircle
 10
379.9823834197
 20
272.3398963731
 30
0.0
 40
7.500000000000057
100
AcDbArc
 50
270.0
 51
0.0
  0
LINE
  5
27E
330
1F
100
AcDbEntity
  8
0
  6
CONTINUOUS
 62
     7
100
AcDbLine
 10
379.9823815719
 20
264.8398955684
 30
0.0
 11
375.482379903
 21
264.8398955684
 31
0.0
  0
LINE
  5
27F
330
1F
100
AcDbEntity
  8
0
  6
CONTINUOUS
 62
     7
100
AcDbLine
 10
375.482379903
 20
264.8398955684
 30
0.0
 11
375.482379903
 21
260.8398967754
 31
0.0
  0
LINE
  5
280
330
1F
100
AcDbEntity
  8
0
  6
CONTINUOUS
 62
     7
100
AcDbLine
 10
375.482379903
 20
260.8398967754
 30
0.0
 11
379.9823815719
 21
260.8398967754
 31
0.0
  0
ARC
  5
281
330
1F
100
AcDbEntity
  8
0
  6
CONTINUOUS
 62
     7
100
AcDbCircle
 10
379.9823834197
 20
272.3398963731
 30
0.0
 40
11.5
100
AcDbArc
 50
270.0
 51
0.0
  0
LINE
  5
282
330
1F
100
AcDbEntity
  8
0
  6
CONTINUOUS
 62
     7
100
AcDbLine
 10
391.4823825256
 20
272.3398958664
 30
0.0
 11
391.4823825256
 21
276.8398975353
 31
0.0
  0
LINE
  5
283
330
1F
100
AcDbEntity
  8
0
  6
CONTINUOUS
 62
     7
100
AcDbLine
 10
391.4823825256
 20
276.8398975353
 30
0.0
 11
387.48238187
 21
276.8398975353
 31
0.0
  0
LINE
  5
284
330
1F
100
AcDbEntity
  8
0
  6
CONTINUOUS
 62
     7
100
AcDbLine
 10
565.4823849694
 20
205.8398952108
 30
0.0
 11
565.4823849694
 21
210.3398968797
 31
0.0
  0
ARC
  5
285
330
1F
100
AcDbEntity
  8
0
  6
CONTINUOUS
 62
     7
100
AcDbCircle
 10
572.9823834197
 20
210.3398963731
 30
0.0
 40
7.5
100
AcDbArc
 50
90.0
 51
180.0
  0
LINE
  5
286
330
1F
100
AcDbEntity
  8
0
  6
CONTINUOUS
 62
     7
100
AcDbLine
 10
572.9823852674
 20
217.8398971777
 30
0.0
 11
577.4823869364
 21
217.8398971777
 31
0.0
  0
LINE
  5
287
330
1F
100
AcDbEntity
  8
0
  6
CONTINUOUS
 62
     7
100
AcDbLine
 10
577.4823869364
 20
217.8398971777
 30
0.0
 11
577.4823869364
 21
221.8398959707
 31
0.0
  0
LINE
  5
288
330
1F
100
AcDbEntity
  8
0
  6
CONTINUOUS
 62
     7
100
AcDbLine
 10
577.4823869364
 20
221.8398959707
 30
0.0
 11
572.9823852674
 21
221.8398959707
 31
0.0
  0
ARC
  5
289
330
1F
100
AcDbEntity
  8
0
  6
CONTINUOUS
 62
     7
100
AcDbCircle
 10
572.9823834197
 20
210.3398963731
 30
0.0
 40
11.5
100
AcDbArc
 50
90.0
 51
180.0
  0
LINE
  5
28A
330
1F
100
AcDbEntity
  8
0
  6
CONTINUOUS
 62
     7
100
AcDbLine
 10
561.4823843138
 20
210.3398968797
 30
0.0
 11
561.4823843138
 21
205.8398952108
 31
0.0
  0
LINE
  5
28B
330
1F
100
AcDbEntity
  8
0
  6
CONTINUOUS
 62
     7
100
AcDbLine
 10
561.4823843138
 20
205.8398952108
 30
0.0
 11
565.4823849694
 21
205.8398952108
 31
0.0
  0
LINE
  5
28C
330
1F
100
AcDbEntity
  8
0
  6
CONTINUOUS
 62
     7
100
AcDbLine
 10
572.9823852674
 20
258.3398972969
 30
0.0
 11
576.4837558166
 21
258.3398972969
 31
0.0
  0
ARC
  5
28D
330
1F
100
AcDbEntity
  8
0
  6
CONTINUOUS
 62
     7
100
AcDbCircle
 10
572.9823834197
 20
272.3398963731
 30
0.0
 40
14.0
100
AcDbArc
 50
180.0
 51
270.0
  0
LINE
  5
28E
330
1F
100
AcDbEntity
  8
0
  6
CONTINUOUS
 62
     7
100
AcDbLine
 10
558.9823866979
 20
275.8412664156
 30
0.0
 11
558.9823866979
 21
272.3398958664
 31
0.0
  0
ELLIPSE
  5
28F
330
1F
100
AcDbEntity
  8
0
  6
CONTINUOUS
 62
     7
100
AcDbEllipse
 10
557.9810110737
 20
275.8385240271
 30
0.0
 11
-0.7090462434350684
 21
-0.7090462434350684
 31
0.0
210
0.0
220
0.0
230
0.9999999999999998
 40
0.9972646886
 41
2.357564018062741
 42
3.92562128911686
  0
LINE
  5
290
330
1F
100
AcDbEntity
  8
0
  6
CONTINUOUS
 62
     7
100
AcDbLine
 10
394.9810112612
 20
276.8398975353
 30
0.0
 11
557.9837555782
 21
276.8398975353
 31
0.0
  0
ELLIPSE
  5
291
330
1F
100
AcDbEntity
  8
0
  6
CONTINUOUS
 62
     7
100
AcDbEllipse
 10
394.9837557657
 20
275.8385240271
 30
0.0
 11
0.7090462434350684
 21
-0.7090462434350684
 31
0.0
210
0.0
220
0.0
230
0.9999999999999998
 40
0.9972646886
 41
2.357564018062781
 42
3.925621289116819
  0
LINE
  5
292
330
1F
100
AcDbEntity
  8
0
  6
CONTINUOUS
 62
     7
100
AcDbLine
 10
393.9823801414
 20
272.3398958664
 30
0.0
 11
393.9823801414
 21
275.8412664156
 31
0.0
  0
ARC
  5
293
330
1F
100
AcDbEntity
  8
0
  6
CONTINUOUS
 62
     7
100
AcDbCircle
 10
379.9823834197
 20
272.3398963731
 30
0.0
 40
14.00000000000006
100
AcDbArc
 50
270.0
 51
0.0
  0
LINE
  5
294
330
1F
100
AcDbEntity
  8
0
  6
CONTINUOUS
 62
     7
100
AcDbLine
 10
376.4810110227
 20
258.3398972969
 30
0.0
 11
379.9823815719
 21
258.3398972969
 31
0.0
  0
ELLIPSE
  5
295
330
1F
100
AcDbEntity
  8
0
  6
CONTINUOUS
 62
     7
100
AcDbEllipse
 10
376.4837557657
 20
257.3385240271
 30
0.0
 11
0.7090462434350684
 21
-0.7090462434350684
 31
0.0
210
0.0
220
0.0
230
0.9999999999999998
 40
0.9972646886
 41
2.357564018062817
 42
3.925621289116896
  0
LINE
  5
296
330
1F
100
AcDbEntity
  8
0
  6
CONTINUOUS
 62
     7
100
AcDbLine
 10
375.482379903
 20
225.3385265689
 30
0.0
 11
375.482379903
 21
257.3412661772
 31
0.0
  0
ELLIPSE
  5
297
330
1F
100
AcDbEntity
  8
0
  6
CONTINUOUS
 62
     7
100
AcDbEllipse
 10
376.4837557657
 20
225.3412687191
 30
0.0
 11
0.7090462434350115
 21
0.7090462434350968
 31
0.0
210
0.0
220
0.0
230
0.9999999999999998
 40
0.9972646886
 41
2.357564018062672
 42
3.925621289116723
  0
LINE
  5
298
330
1F
100
AcDbEntity
  8
0
  6
CONTINUOUS
 62
     7
100
AcDbLine
 10
379.9823815719
 20
224.3398954492
 30
0.0
 11
376.4810110227
 21
224.3398954492
 31
0.0
  0
ARC
  5
299
330
1F
100
AcDbEntity
  8
0
  6
CONTINUOUS
 62
     7
100
AcDbCircle
 10
379.9823834197
 20
210.3398963731
 30
0.0
 40
14.00000000000006
100
AcDbArc
 50
0.0
 51
90.0
  0
LINE
  5
29A
330
1F
100
AcDbEntity
  8
0
  6
CONTINUOUS
 62
     7
100
AcDbLine
 10
393.9823801414
 20
206.8385263305
 30
0.0
 11
393.9823801414
 21
210.3398968797
 31
0.0
  0
ELLIPSE
  5
29B
330
1F
100
AcDbEntity
  8
0
  6
CONTINUOUS
 62
     7
100
AcDbEllipse
 10
394.9837557657
 20
206.8412687191
 30
0.0
 11
0.7090462434350684
 21
0.7090462434350968
 31
0.0
210
0.0
220
0.0
230
1.0
 40
0.9972646886
 41
2.357564018062692
 42
3.925621289116896
  0
LINE
  5
29C
330
1F
100
AcDbEntity
  8
0
  6
CONTINUOUS
 62
     7
100
AcDbLine
 10
557.9837555782
 20
205.8398952108
 30
0.0
 11
394.9810112612
 21
205.8398952108
 31
0.0
  0
ELLIPSE
  5
29D
330
1F
100
AcDbEntity
  8
0
  6
CONTINUOUS
 62
     7
100
AcDbEllipse
 10
557.9810110737
 20
206.8412687191
 30
0.0
 11
-0.7090462434351821
 21
0.7090462434350401
 31
0.0
210
0.0
220
0.0
230
1.0
 40
0.9972646886
 41
2.35756401806263
 42
3.925621289116798
  0
LINE
  5
29E
330
1F
100
AcDbEntity
  8
0
  6
CONTINUOUS
 62
     7
100
AcDbLine
 10
558.9823866979
 20
210.3398968797
 30
0.0
 11
558.9823866979
 21
206.8385263305
 31
0.0
  0
ARC
  5
29F
330
1F
100
AcDbEntity
  8
0
  6
CONTINUOUS
 62
     7
100
AcDbCircle
 10
572.9823834197
 20
210.3398963731
 30
0.0
 40
14.0
100
AcDbArc
 50
90.0
 51
180.0
  0
LINE
  5
2A0
330
1F
100
AcDbEntity
  8
0
  6
CONTINUOUS
 62
     7
100
AcDbLine
 10
576.4837558166
 20
224.3398954492
 30
0.0
 11
572.9823852674
 21
224.3398954492
 31
0.0
  0
ELLIPSE
  5
2A1
330
1F
100
AcDbEntity
  8
0
  6
CONTINUOUS
 62
     7
100
AcDbEllipse
 10
576.4810110737
 20
225.3412687191
 30
0.0
 11
-0.7090462434349548
 21
0.7090462434350968
 31
0.0
210
0.0
220
0.0
230
1.0
 40
0.9972646886
 41
2.357564018062891
 42
3.925621289116938
  0
LINE
  5
2A2
330
1F
100
AcDbEntity
  8
0
  6
CONTINUOUS
 62
     7
100
AcDbLine
 10
577.4823869364
 20
257.3412661772
 30
0.0
 11
577.4823869364
 21
225.3385265689
 31
0.0
  0
ELLIPSE
  5
2A3
330
1F
100
AcDbEntity
  8
0
  6
CONTINUOUS
 62
     7
100
AcDbEllipse
 10
576.4810110737
 20
257.3385240271
 30
0.0
 11
-0.7090462434349546
 21
-0.7090462434350683
 31
0.0
210
0.0
220
0.0
230
1.0
 40
0.9972646886
 41
2.35756401806272
 42
3.925621289116719
  0
CIRCLE
  5
2A4
330
1F
100
AcDbEntity
  8
0
  6
CONTINUOUS
 62
     7
100
AcDbCircle
 10
572.9823834197
 20
272.3398963731
 30
0.0
 40
4.790475383050989
  0
CIRCLE
  5
2A5
330
1F
100
AcDbEntity
  8
0
  6
CONTINUOUS
 62
     7
100
AcDbCircle
 10
379.9823834197
 20
210.3398963731
 30
0.0
 40
4.790475383052353
  0
CIRCLE
  5
2A6
330
1F
100
AcDbEntity
  8
0
  6
CONTINUOUS
 62
     7
100
AcDbCircle
 10
379.9823834197
 20
272.3398963731
 30
0.0
 40
4.790475383052353
  0
CIRCLE
  5
2A7
330
1F
100
AcDbEntity
  8
0
  6
CONTINUOUS
 62
     7
100
AcDbCircle
 10
572.9823834197
 20
210.3398963731
 30
0.0
 40
4.790475383050989
  0
ARC
  5
2A8
330
1F
100
AcDbEntity
  8
0
  6
CONTINUOUS
 62
     7
100
AcDbCircle
 10
572.9823834197
 20
272.3398963731
 30
0.0
 40
11.5
100
AcDbArc
 50
0.0
 51
90.0
  0
LINE
  5
2A9
330
1F
100
AcDbEntity
  8
0
  6
CONTINUOUS
 62
     7
100
AcDbLine
 10
584.4823862211
 20
272.3398958664
 30
0.0
 11
584.4823862211
 21
210.3398968797
 31
0.0
  0
ARC
  5
2AA
330
1F
100
AcDbEntity
  8
0
  6
CONTINUOUS
 62
     7
100
AcDbCircle
 10
572.9823834197
 20
210.3398963731
 30
0.0
 40
11.50000000000003
100
AcDbArc
 50
270.0
 51
0.0
  0
LINE
  5
2AB
330
1F
100
AcDbEntity
  8
0
  6
CONTINUOUS
 62
     7
100
AcDbLine
 10
572.9823852674
 20
198.839895926
 30
0.0
 11
379.9823815719
 21
198.839895926
 31
0.0
  0
ARC
  5
2AC
330
1F
100
AcDbEntity
  8
0
  6
CONTINUOUS
 62
     7
100
AcDbCircle
 10
379.9823834197
 20
210.3398963731
 30
0.0
 40
11.50000000000003
100
AcDbArc
 50
180.0
 51
270.0
  0
LINE
  5
2AD
330
1F
100
AcDbEntity
  8
0
  6
CONTINUOUS
 62
     7
100
AcDbLine
 10
368.4823806183
 20
210.3398968797
 30
0.0
 11
368.4823806183
 21
272.3398958664
 31
0.0
  0
ARC
  5
2AE
330
1F
100
AcDbEntity
  8
0
  6
CONTINUOUS
 62
     7
100
AcDbCircle
 10
379.9823834197
 20
272.3398963731
 30
0.0
 40
11.5
100
AcDbArc
 50
90.0
 51
180.0
  0
LINE
  5
2AF
330
1F
100
AcDbEntity
  8
0
  6
CONTINUOUS
 62
     7
100
AcDbLine
 10
379.9823815719
 20
283.8398968201
 30
0.0
 11
572.9823852674
 21
283.8398968201
 31
0.0
  0
LINE
  5
2B0
330
1F
100
AcDbEntity
  8
0
  6
CONTINUOUS
 62
     7
100
AcDbLine
 10
375.5872021214
 20
221.7350812029
 30
0.0
 11
375.5872021214
 21
217.9447119456
 31
0.0
  0
LINE
  5
2B1
330
1F
100
AcDbEntity
  8
0
  6
CONTINUOUS
 62
     7
100
AcDbLine
 10
375.482379903
 20
217.8398971777
 30
0.0
 11
375.5872021214
 21
217.9447119456
 31
0.0
  0
LINE
  5
2B2
330
1F
100
AcDbEntity
  8
0
  6
CONTINUOUS
 62
     7
100
AcDbLine
 10
375.482379903
 20
221.8398959707
 30
0.0
 11
375.5872021214
 21
221.7350812029
 31
0.0
  0
LINE
  5
2B3
330
1F
100
AcDbEntity
  8
0
  6
CONTINUOUS
 62
     7
100
AcDbLine
 10
379.9823815719
 20
221.7350812029
 30
0.0
 11
375.5872021214
 21
221.7350812029
 31
0.0
  0
LINE
  5
2B4
330
1F
100
AcDbEntity
  8
0
  6
CONTINUOUS
 62
     7
100
AcDbLine
 10
379.9823815719
 20
221.8398959707
 30
0.0
 11
379.9823815719
 21
221.7350812029
 31
0.0
  0
LINE
  5
2B5
330
1F
100
AcDbEntity
  8
0
  6
CONTINUOUS
 62
     7
100
AcDbLine
 10
375.5872021214
 20
260.9447115432
 30
0.0
 11
379.9823815719
 21
260.9447115432
 31
0.0
  0
LINE
  5
2B6
330
1F
100
AcDbEntity
  8
0
  6
CONTINUOUS
 62
     7
100
AcDbLine
 10
379.9823815719
 20
260.8398967754
 30
0.0
 11
379.9823815719
 21
260.9447115432
 31
0.0
  0
LINE
  5
2B7
330
1F
100
AcDbEntity
  8
0
  6
CONTINUOUS
 62
     7
100
AcDbLine
 10
375.482379903
 20
260.8398967754
 30
0.0
 11
375.5872021214
 21
260.9447115432
 31
0.0
  0
LINE
  5
2B8
330
1F
100
AcDbEntity
  8
0
  6
CONTINUOUS
 62
     7
100
AcDbLine
 10
375.5872021214
 20
264.7350808006
 30
0.0
 11
375.5872021214
 21
260.9447115432
 31
0.0
  0
LINE
  5
2B9
330
1F
100
AcDbEntity
  8
0
  6
CONTINUOUS
 62
     7
100
AcDbLine
 10
375.482379903
 20
264.8398955684
 30
0.0
 11
375.5872021214
 21
264.7350808006
 31
0.0
  0
LINE
  5
2BA
330
1F
100
AcDbEntity
  8
0
  6
CONTINUOUS
 62
     7
100
AcDbLine
 10
375.5872021214
 20
217.9447119456
 30
0.0
 11
379.9823815719
 21
217.9447119456
 31
0.0
  0
LINE
  5
2BB
330
1F
100
AcDbEntity
  8
0
  6
CONTINUOUS
 62
     7
100
AcDbLine
 10
379.9823815719
 20
217.8398971777
 30
0.0
 11
379.9823815719
 21
217.9447119456
 31
0.0
  0
LINE
  5
2BC
330
1F
100
AcDbEntity
  8
0
  6
CONTINUOUS
 62
     7
100
AcDbLine
 10
379.9823815719
 20
264.7350808006
 30
0.0
 11
375.5872021214
 21
264.7350808006
 31
0.0
  0
LINE
  5
2BD
330
1F
100
AcDbEntity
  8
0
  6
CONTINUOUS
 62
     7
100
AcDbLine
 10
379.9823815719
 20
264.8398955684
 30
0.0
 11
379.9823815719
 21
264.7350808006
 31
0.0
  0
LINE
  5
2BE
330
1F
100
AcDbEntity
  8
0
  6
CONTINUOUS
 62
     7
100
AcDbLine
 10
387.5871966378
 20
276.7350790422
 30
0.0
 11
387.5871966378
 21
272.3398958664
 31
0.0
  0
LINE
  5
2BF
330
1F
100
AcDbEntity
  8
0
  6
CONTINUOUS
 62
     7
100
AcDbLine
 10
387.5871966378
 20
272.3398958664
 30
0.0
 11
387.48238187
 21
272.3398958664
 31
0.0
  0
LINE
  5
2C0
330
1F
100
AcDbEntity
  8
0
  6
CONTINUOUS
 62
     7
100
AcDbLine
 10
387.48238187
 20
276.8398975353
 30
0.0
 11
387.5871966378
 21
276.7350790422
 31
0.0
  0
LINE
  5
2C1
330
1F
100
AcDbEntity
  8
0
  6
CONTINUOUS
 62
     7
100
AcDbLine
 10
391.3775677578
 20
276.7350790422
 30
0.0
 11
387.5871966378
 21
276.7350790422
 31
0.0
  0
LINE
  5
2C2
330
1F
100
AcDbEntity
  8
0
  6
CONTINUOUS
 62
     7
100
AcDbLine
 10
391.4823825256
 20
276.8398975353
 30
0.0
 11
391.3775677578
 21
276.7350790422
 31
0.0
  0
LINE
  5
2C3
330
1F
100
AcDbEntity
  8
0
  6
CONTINUOUS
 62
     7
100
AcDbLine
 10
387.5871966378
 20
210.3398968797
 30
0.0
 11
387.5871966378
 21
205.9447137039
 31
0.0
  0
LINE
  5
2C4
330
1F
100
AcDbEntity
  8
0
  6
CONTINUOUS
 62
     7
100
AcDbLine
 10
387.48238187
 20
205.8398952108
 30
0.0
 11
387.5871966378
 21
205.9447137039
 31
0.0
  0
LINE
  5
2C5
330
1F
100
AcDbEntity
  8
0
  6
CONTINUOUS
 62
     7
100
AcDbLine
 10
387.48238187
 20
210.3398968797
 30
0.0
 11
387.5871966378
 21
210.3398968797
 31
0.0
  0
LINE
  5
2C6
330
1F
100
AcDbEntity
  8
0
  6
CONTINUOUS
 62
     7
100
AcDbLine
 10
387.5871966378
 20
205.9447137039
 30
0.0
 11
391.3775677578
 21
205.9447137039
 31
0.0
  0
LINE
  5
2C7
330
1F
100
AcDbEntity
  8
0
  6
CONTINUOUS
 62
     7
100
AcDbLine
 10
391.4823825256
 20
205.8398952108
 30
0.0
 11
391.3775677578
 21
205.9447137039
 31
0.0
  0
LINE
  5
2C8
330
1F
100
AcDbEntity
  8
0
  6
CONTINUOUS
 62
     7
100
AcDbLine
 10
391.3775677578
 20
205.9447137039
 30
0.0
 11
391.3775677578
 21
210.3398968797
 31
0.0
  0
LINE
  5
2C9
330
1F
100
AcDbEntity
  8
0
  6
CONTINUOUS
 62
     7
100
AcDbLine
 10
391.3775677578
 20
210.3398968797
 30
0.0
 11
391.4823825256
 21
210.3398968797
 31
0.0
  0
LINE
  5
2CA
330
1F
100
AcDbEntity
  8
0
  6
CONTINUOUS
 62
     7
100
AcDbLine
 10
391.3775677578
 20
272.3398958664
 30
0.0
 11
391.3775677578
 21
276.7350790422
 31
0.0
  0
LINE
  5
2CB
330
1F
100
AcDbEntity
  8
0
  6
CONTINUOUS
 62
     7
100
AcDbLine
 10
391.4823825256
 20
272.3398958664
 30
0.0
 11
391.3775677578
 21
272.3398958664
 31
0.0
  0
LINE
  5
2CC
330
1F
100
AcDbEntity
  8
0
  6
CONTINUOUS
 62
     7
100
AcDbLine
 10
565.3775702016
 20
276.7350790422
 30
0.0
 11
561.5871990816
 21
276.7350790422
 31
0.0
  0
LINE
  5
2CD
330
1F
100
AcDbEntity
  8
0
  6
CONTINUOUS
 62
     7
100
AcDbLine
 10
561.4823843138
 20
276.8398975353
 30
0.0
 11
561.5871990816
 21
276.7350790422
 31
0.0
  0
LINE
  5
2CE
330
1F
100
AcDbEntity
  8
0
  6
CONTINUOUS
 62
     7
100
AcDbLine
 10
565.4823849694
 20
276.8398975353
 30
0.0
 11
565.3775702016
 21
276.7350790422
 31
0.0
  0
LINE
  5
2CF
330
1F
100
AcDbEntity
  8
0
  6
CONTINUOUS
 62
     7
100
AcDbLine
 10
561.5871990816
 20
276.7350790422
 30
0.0
 11
561.5871990816
 21
272.3398958664
 31
0.0
  0
LINE
  5
2D0
330
1F
100
AcDbEntity
  8
0
  6
CONTINUOUS
 62
     7
100
AcDbLine
 10
561.5871990816
 20
272.3398958664
 30
0.0
 11
561.4823843138
 21
272.3398958664
 31
0.0
  0
LINE
  5
2D1
330
1F
100
AcDbEntity
  8
0
  6
CONTINUOUS
 62
     7
100
AcDbLine
 10
561.5871990816
 20
205.9447137039
 30
0.0
 11
565.3775702016
 21
205.9447137039
 31
0.0
  0
LINE
  5
2D2
330
1F
100
AcDbEntity
  8
0
  6
CONTINUOUS
 62
     7
100
AcDbLine
 10
565.4823849694
 20
205.8398952108
 30
0.0
 11
565.3775702016
 21
205.9447137039
 31
0.0
  0
LINE
  5
2D3
330
1F
100
AcDbEntity
  8
0
  6
CONTINUOUS
 62
     7
100
AcDbLine
 10
561.4823843138
 20
205.8398952108
 30
0.0
 11
561.5871990816
 21
205.9447137039
 31
0.0
  0
LINE
  5
2D4
330
1F
100
AcDbEntity
  8
0
  6
CONTINUOUS
 62
     7
100
AcDbLine
 10
561.5871990816
 20
210.3398968797
 30
0.0
 11
561.5871990816
 21
205.9447137039
 31
0.0
  0
LINE
  5
2D5
330
1F
100
AcDbEntity
  8
0
  6
CONTINUOUS
 62
     7
100
AcDbLine
 10
561.4823843138
 20
210.3398968797
 30
0.0
 11
561.5871990816
 21
210.3398968797
 31
0.0
  0
LINE
  5
2D6
330
1F
100
AcDbEntity
  8
0
  6
CONTINUOUS
 62
     7
100
AcDbLine
 10
577.3775647179
 20
264.7350808006
 30
0.0
 11
572.9823852674
 21
264.7350808006
 31
0.0
  0
LINE
  5
2D7
330
1F
100
AcDbEntity
  8
0
  6
CONTINUOUS
 62
     7
100
AcDbLine
 10
572.9823852674
 20
264.8398955684
 30
0.0
 11
572.9823852674
 21
264.7350808006
 31
0.0
  0
LINE
  5
2D8
330
1F
100
AcDbEntity
  8
0
  6
CONTINUOUS
 62
     7
100
AcDbLine
 10
577.4823869364
 20
264.8398955684
 30
0.0
 11
577.3775647179
 21
264.7350808006
 31
0.0
  0
LINE
  5
2D9
330
1F
100
AcDbEntity
  8
0
  6
CONTINUOUS
 62
     7
100
AcDbLine
 10
572.9823852674
 20
217.9447119456
 30
0.0
 11
577.3775647179
 21
217.9447119456
 31
0.0
  0
LINE
  5
2DA
330
1F
100
AcDbEntity
  8
0
  6
CONTINUOUS
 62
     7
100
AcDbLine
 10
577.4823869364
 20
217.8398971777
 30
0.0
 11
577.3775647179
 21
217.9447119456
 31
0.0
  0
LINE
  5
2DB
330
1F
100
AcDbEntity
  8
0
  6
CONTINUOUS
 62
     7
100
AcDbLine
 10
572.9823852674
 20
217.8398971777
 30
0.0
 11
572.9823852674
 21
217.9447119456
 31
0.0
  0
LINE
  5
2DC
330
1F
100
AcDbEntity
  8
0
  6
CONTINUOUS
 62
     7
100
AcDbLine
 10
577.3775647179
 20
221.7350812029
 30
0.0
 11
572.9823852674
 21
221.7350812029
 31
0.0
  0
LINE
  5
2DD
330
1F
100
AcDbEntity
  8
0
  6
CONTINUOUS
 62
     7
100
AcDbLine
 10
572.9823852674
 20
221.8398959707
 30
0.0
 11
572.9823852674
 21
221.7350812029
 31
0.0
  0
LINE
  5
2DE
330
1F
100
AcDbEntity
  8
0
  6
CONTINUOUS
 62
     7
100
AcDbLine
 10
577.4823869364
 20
221.8398959707
 30
0.0
 11
577.3775647179
 21
221.7350812029
 31
0.0
  0
LINE
  5
2DF
330
1F
100
AcDbEntity
  8
0
  6
CONTINUOUS
 62
     7
100
AcDbLine
 10
572.9823852674
 20
260.9447115432
 30
0.0
 11
577.3775647179
 21
260.9447115432
 31
0.0
  0
LINE
  5
2E0
330
1F
100
AcDbEntity
  8
0
  6
CONTINUOUS
 62
     7
100
AcDbLine
 10
577.4823869364
 20
260.8398967754
 30
0.0
 11
577.3775647179
 21
260.9447115432
 31
0.0
  0
LINE
  5
2E1
330
1F
100
AcDbEntity
  8
0
  6
CONTINUOUS
 62
     7
100
AcDbLine
 10
572.9823852674
 20
260.8398967754
 30
0.0
 11
572.9823852674
 21
260.9447115432
 31
0.0
  0
LINE
  5
2E2
330
1F
100
AcDbEntity
  8
0
  6
CONTINUOUS
 62
     7
100
AcDbLine
 10
565.3775702016
 20
205.9447137039
 30
0.0
 11
565.3775702016
 21
210.3398968797
 31
0.0
  0
LINE
  5
2E3
330
1F
100
AcDbEntity
  8
0
  6
CONTINUOUS
 62
     7
100
AcDbLine
 10
565.3775702016
 20
210.3398968797
 30
0.0
 11
565.4823849694
 21
210.3398968797
 31
0.0
  0
LINE
  5
2E4
330
1F
100
AcDbEntity
  8
0
  6
CONTINUOUS
 62
     7
100
AcDbLine
 10
565.3775702016
 20
272.3398958664
 30
0.0
 11
565.3775702016
 21
276.7350790422
 31
0.0
  0
LINE
  5
2E5
330
1F
100
AcDbEntity
  8
0
  6
CONTINUOUS
 62
     7
100
AcDbLine
 10
565.4823849694
 20
272.3398958664
 30
0.0
 11
565.3775702016
 21
272.3398958664
 31
0.0
  0
LINE
  5
2E6
330
1F
100
AcDbEntity
  8
0
  6
CONTINUOUS
 62
     7
100
AcDbLine
 10
577.3775647179
 20
217.9447119456
 30
0.0
 11
577.3775647179
 21
221.7350812029
 31
0.0
  0
LINE
  5
2E7
330
1F
100
AcDbEntity
  8
0
  6
CONTINUOUS
 62
     7
100
AcDbLine
 10
577.3775647179
 20
260.9447115432
 30
0.0
 11
577.3775647179
 21
264.7350808006
 31
0.0
  0
LINE
  5
2E8
330
1F
100
AcDbEntity
  8
0
  6
CONTINUOUS
 62
     7
100
AcDbLine
 10
379.9823815719
 20
258.0227074545
 30
0.0
 11
376.7982045905
 21
258.0227074545
 31
0.0
  0
LINE
  5
2E9
330
1F
100
AcDbEntity
  8
0
  6
CONTINUOUS
 62
     7
100
AcDbLine
 10
376.7982045905
 20
258.0227074545
 30
0.0
 11
376.4810110227
 21
258.3398972969
 31
0.0
  0
LINE
  5
2EA
330
1F
100
AcDbEntity
  8
0
  6
CONTINUOUS
 62
     7
100
AcDbLine
 10
379.9823815719
 20
258.0227074545
 30
0.0
 11
379.9823815719
 21
258.3398972969
 31
0.0
  0
LINE
  5
2EB
330
1F
100
AcDbEntity
  8
0
  6
CONTINUOUS
 62
     7
100
AcDbLine
 10
376.7982045905
 20
224.6570852916
 30
0.0
 11
379.9823815719
 21
224.6570852916
 31
0.0
  0
LINE
  5
2EC
330
1F
100
AcDbEntity
  8
0
  6
CONTINUOUS
 62
     7
100
AcDbLine
 10
379.9823815719
 20
224.3398954492
 30
0.0
 11
379.9823815719
 21
224.6570852916
 31
0.0
  0
LINE
  5
2ED
330
1F
100
AcDbEntity
  8
0
  6
CONTINUOUS
 62
     7
100
AcDbLine
 10
376.4810110227
 20
224.3398954492
 30
0.0
 11
376.7982045905
 21
224.6570852916
 31
0.0
  0
ARC
  5
2EE
330
1F
100
AcDbEntity
  8
0
  6
CONTINUOUS
 62
     7
100
AcDbCircle
 10
379.9823834197
 20
272.3398963731
 30
0.0
 40
14.31718948694163
100
AcDbArc
 50
270.0
 51
0.0
  0
LINE
  5
2EF
330
1F
100
AcDbEntity
  8
0
  6
CONTINUOUS
 62
     7
100
AcDbLine
 10
394.2995737092
 20
272.3398958664
 30
0.0
 11
393.9823801414
 21
272.3398958664
 31
0.0
  0
ARC
  5
2F0
330
1F
100
AcDbEntity
  8
0
  6
CONTINUOUS
 62
     7
100
AcDbCircle
 10
379.9823834197
 20
210.3398963731
 30
0.0
 40
14.31718948694163
100
AcDbArc
 50
0.0
 51
90.0
  0
LINE
  5
2F1
330
1F
100
AcDbEntity
  8
0
  6
CONTINUOUS
 62
     7
100
AcDbLine
 10
394.2995737092
 20
210.3398968797
 30
0.0
 11
393.9823801414
 21
210.3398968797
 31
0.0
  0
LINE
  5
2F2
330
1F
100
AcDbEntity
  8
0
  6
CONTINUOUS
 62
     7
100
AcDbLine
 10
394.2995737092
 20
210.3398968797
 30
0.0
 11
394.2995737092
 21
207.155716173
 31
0.0
  0
LINE
  5
2F3
330
1F
100
AcDbEntity
  8
0
  6
CONTINUOUS
 62
     7
100
AcDbLine
 10
394.2995737092
 20
207.155716173
 30
0.0
 11
393.9823801414
 21
206.8385263305
 31
0.0
  0
LINE
  5
2F4
330
1F
100
AcDbEntity
  8
0
  6
CONTINUOUS
 62
     7
100
AcDbLine
 10
394.2995737092
 20
275.5240765732
 30
0.0
 11
394.2995737092
 21
272.3398958664
 31
0.0
  0
LINE
  5
2F5
330
1F
100
AcDbEntity
  8
0
  6
CONTINUOUS
 62
     7
100
AcDbLine
 10
393.9823801414
 20
275.8412664156
 30
0.0
 11
394.2995737092
 21
275.5240765732
 31
0.0
  0
ARC
  5
2F6
330
1F
100
AcDbEntity
  8
0
  6
CONTINUOUS
 62
     7
100
AcDbCircle
 10
572.9823834197
 20
272.3398963731
 30
0.0
 40
14.31718948694163
100
AcDbArc
 50
180.0
 51
270.0
  0
LINE
  5
2F7
330
1F
100
AcDbEntity
  8
0
  6
CONTINUOUS
 62
     7
100
AcDbLine
 10
558.6651931302
 20
272.3398958664
 30
0.0
 11
558.9823866979
 21
272.3398958664
 31
0.0
  0
LINE
  5
2F8
330
1F
100
AcDbEntity
  8
0
  6
CONTINUOUS
 62
     7
100
AcDbLine
 10
572.9823852674
 20
258.0227074545
 30
0.0
 11
572.9823852674
 21
258.3398972969
 31
0.0
  0
LINE
  5
2F9
330
1F
100
AcDbEntity
  8
0
  6
CONTINUOUS
 62
     7
100
AcDbLine
 10
558.6651931302
 20
207.155716173
 30
0.0
 11
558.6651931302
 21
210.3398968797
 31
0.0
  0
LINE
  5
2FA
330
1F
100
AcDbEntity
  8
0
  6
CONTINUOUS
 62
     7
100
AcDbLine
 10
558.6651931302
 20
210.3398968797
 30
0.0
 11
558.9823866979
 21
210.3398968797
 31
0.0
  0
LINE
  5
2FB
330
1F
100
AcDbEntity
  8
0
  6
CONTINUOUS
 62
     7
100
AcDbLine
 10
558.9823866979
 20
206.8385263305
 30
0.0
 11
558.6651931302
 21
207.155716173
 31
0.0
  0
LINE
  5
2FC
330
1F
100
AcDbEntity
  8
0
  6
CONTINUOUS
 62
     7
100
AcDbLine
 10
558.6651931302
 20
272.3398958664
 30
0.0
 11
558.6651931302
 21
275.5240765732
 31
0.0
  0
LINE
  5
2FD
330
1F
100
AcDbEntity
  8
0
  6
CONTINUOUS
 62
     7
100
AcDbLine
 10
558.6651931302
 20
275.5240765732
 30
0.0
 11
558.9823866979
 21
275.8412664156
 31
0.0
  0
ARC
  5
2FE
330
1F
100
AcDbEntity
  8
0
  6
CONTINUOUS
 62
     7
100
AcDbCircle
 10
572.9823834197
 20
210.3398963731
 30
0.0
 40
14.31718948694163
100
AcDbArc
 50
90.0
 51
180.0
  0
LINE
  5
2FF
330
1F
100
AcDbEntity
  8
0
  6
CONTINUOUS
 62
     7
100
AcDbLine
 10
572.9823852674
 20
224.6570852916
 30
0.0
 11
572.9823852674
 21
224.3398954492
 31
0.0
  0
LINE
  5
300
330
1F
100
AcDbEntity
  8
0
  6
CONTINUOUS
 62
     7
100
AcDbLine
 10
576.1665622489
 20
258.0227074545
 30
0.0
 11
572.9823852674
 21
258.0227074545
 31
0.0
  0
LINE
  5
301
330
1F
100
AcDbEntity
  8
0
  6
CONTINUOUS
 62
     7
100
AcDbLine
 10
576.4837558166
 20
258.3398972969
 30
0.0
 11
576.1665622489
 21
258.0227074545
 31
0.0
  0
LINE
  5
302
330
1F
100
AcDbEntity
  8
0
  6
CONTINUOUS
 62
     7
100
AcDbLine
 10
572.9823852674
 20
224.6570852916
 30
0.0
 11
576.1665622489
 21
224.6570852916
 31
0.0
  0
LINE
  5
303
330
1F
100
AcDbEntity
  8
0
  6
CONTINUOUS
 62
     7
100
AcDbLine
 10
576.1665622489
 20
224.6570852916
 30
0.0
 11
576.4837558166
 21
224.3398954492
 31
0.0
  0
LINE
  5
304
330
1F
100
AcDbEntity
  8
0
  6
CONTINUOUS
 62
     7
100
AcDbLine
 10
375.7995734708
 20
257.0240781974
 30
0.0
 11
375.7995734708
 21
225.6557145487
 31
0.0
  0
LINE
  5
305
330
1F
100
AcDbEntity
  8
0
  6
CONTINUOUS
 62
     7
100
AcDbLine
 10
375.7995734708
 20
225.6557145487
 30
0.0
 11
375.482379903
 21
225.3385265689
 31
0.0
  0
LINE
  5
306
330
1F
100
AcDbEntity
  8
0
  6
CONTINUOUS
 62
     7
100
AcDbLine
 10
375.482379903
 20
257.3412661772
 30
0.0
 11
375.7995734708
 21
257.0240781974
 31
0.0
  0
ARC
  5
307
330
1F
100
AcDbEntity
  8
0
  6
CONTINUOUS
 62
     7
100
AcDbCircle
 10
376.8014157686
 20
257.0208651506
 30
0.0
 40
1.001847450181201
100
AcDbArc
 50
90.1836479883
 51
179.8162451436
  0
ARC
  5
308
330
1F
100
AcDbEntity
  8
0
  6
CONTINUOUS
 62
     7
100
AcDbCircle
 10
376.8014157686
 20
225.6589275955
 30
0.0
 40
1.001847450181144
100
AcDbArc
 50
180.1837548564
 51
269.8163520117
  0
ARC
  5
309
330
1F
100
AcDbEntity
  8
0
  6
CONTINUOUS
 62
     7
100
AcDbCircle
 10
379.9823834197
 20
272.3398963731
 30
0.0
 40
7.604815558566202
100
AcDbArc
 50
270.0
 51
0.0
  0
ARC
  5
30A
330
1F
100
AcDbEntity
  8
0
  6
CONTINUOUS
 62
     7
100
AcDbCircle
 10
379.9823834197
 20
272.3398963731
 30
0.0
 40
11.39518444143397
100
AcDbArc
 50
270.0
 51
0.0
  0
ARC
  5
30B
330
1F
100
AcDbEntity
  8
0
  6
CONTINUOUS
 62
     7
100
AcDbCircle
 10
379.9823834197
 20
210.3398963731
 30
0.0
 40
7.604815558566088
100
AcDbArc
 50
0.0
 51
90.0
  0
ARC
  5
30C
330
1F
100
AcDbEntity
  8
0
  6
CONTINUOUS
 62
     7
100
AcDbCircle
 10
379.9823834197
 20
210.3398963731
 30
0.0
 40
11.39518444143397
100
AcDbArc
 50
0.0
 51
90.0
  0
ARC
  5
30D
330
1F
100
AcDbEntity
  8
0
  6
CONTINUOUS
 62
     7
100
AcDbCircle
 10
395.3014149327
 20
207.1589262767
 30
0.0
 40
1.001846366401494
100
AcDbArc
 50
180.1835867443
 51
269.8164132557
  0
LINE
  5
30E
330
1F
100
AcDbEntity
  8
0
  6
CONTINUOUS
 62
     7
100
AcDbLine
 10
394.9810112612
 20
205.8398952108
 30
0.0
 11
395.2982048289
 21
206.1570850532
 31
0.0
  0
LINE
  5
30F
330
1F
100
AcDbEntity
  8
0
  6
CONTINUOUS
 62
     7
100
AcDbLine
 10
395.2982048289
 20
276.5227076929
 30
0.0
 11
394.9810112612
 21
276.8398975353
 31
0.0
  0
ARC
  5
310
330
1F
100
AcDbEntity
  8
0
  6
CONTINUOUS
 62
     7
100
AcDbCircle
 10
395.3014149327
 20
275.5208664694
 30
0.0
 40
1.001846366401494
100
AcDbArc
 50
90.1835867443
 51
179.8164132557
  0
LINE
  5
311
330
1F
100
AcDbEntity
  8
0
  6
CONTINUOUS
 62
     7
100
AcDbLine
 10
557.6665620105
 20
276.5227076929
 30
0.0
 11
395.2982048289
 21
276.5227076929
 31
0.0
  0
LINE
  5
312
330
1F
100
AcDbEntity
  8
0
  6
CONTINUOUS
 62
     7
100
AcDbLine
 10
557.9837555782
 20
276.8398975353
 30
0.0
 11
557.6665620105
 21
276.5227076929
 31
0.0
  0
LINE
  5
313
330
1F
100
AcDbEntity
  8
0
  6
CONTINUOUS
 62
     7
100
AcDbLine
 10
395.2982048289
 20
206.1570850532
 30
0.0
 11
557.6665620105
 21
206.1570850532
 31
0.0
  0
LINE
  5
314
330
1F
100
AcDbEntity
  8
0
  6
CONTINUOUS
 62
     7
100
AcDbLine
 10
557.6665620105
 20
206.1570850532
 30
0.0
 11
557.9837555782
 21
205.8398952108
 31
0.0
  0
ARC
  5
315
330
1F
100
AcDbEntity
  8
0
  6
CONTINUOUS
 62
     7
100
AcDbCircle
 10
557.6633519067
 20
275.5208664694
 30
0.0
 40
1.001846366401494
100
AcDbArc
 50
0.1835867443
 51
89.8164132557
  0
ARC
  5
316
330
1F
100
AcDbEntity
  8
0
  6
CONTINUOUS
 62
     7
100
AcDbCircle
 10
557.6633519067
 20
207.1589262767
 30
0.0
 40
1.001846366401494
100
AcDbArc
 50
270.1835867443
 51
359.8164132557
  0
ARC
  5
317
330
1F
100
AcDbEntity
  8
0
  6
CONTINUOUS
 62
     7
100
AcDbCircle
 10
572.9823834197
 20
272.3398963731
 30
0.0
 40
11.39518444143391
100
AcDbArc
 50
180.0
 51
270.0
  0
ARC
  5
318
330
1F
100
AcDbEntity
  8
0
  6
CONTINUOUS
 62
     7
100
AcDbCircle
 10
572.9823834197
 20
210.3398963731
 30
0.0
 40
11.39518444143391
100
AcDbArc
 50
90.0
 51
180.0
  0
ARC
  5
319
330
1F
100
AcDbEntity
  8
0
  6
CONTINUOUS
 62
     7
100
AcDbCircle
 10
572.9823834197
 20
210.3398963731
 30
0.0
 40
7.604815558566088
100
AcDbArc
 50
90.0
 51
180.0
  0
ARC
  5
31A
330
1F
100
AcDbEntity
  8
0
  6
CONTINUOUS
 62
     7
100
AcDbCircle
 10
572.9823834197
 20
272.3398963731
 30
0.0
 40
7.604815558566202
100
AcDbArc
 50
180.0
 51
270.0
  0
LWPOLYLINE
  5
31B
330
1F
100
AcDbEntity
  8
0
  6
CONTINUOUS
 62
     7
100
AcDbPolyline
 90
        3
 70
   128
 43
0.0
 10
577.117204179
 20
225.3524610173
 10
577.145538737
 20
225.4612264555
 10
577.1651933686
 20
225.6557145487
  0
LINE
  5
31C
330
1F
100
AcDbEntity
  8
0
  6
CONTINUOUS
 62
     7
100
AcDbLine
 10
577.4823869364
 20
225.3385265689
 30
0.0
 11
577.1651933686
 21
225.6557145487
 31
0.0
  0
LINE
  5
31D
330
1F
100
AcDbEntity
  8
0
  6
CONTINUOUS
 62
     7
100
AcDbLine
 10
577.1651933686
 20
257.0240781974
 30
0.0
 11
577.4823869364
 21
257.3412661772
 31
0.0
  0
ARC
  5
31E
330
1F
100
AcDbEntity
  8
0
  6
CONTINUOUS
 62
     7
100
AcDbCircle
 10
576.1633510708
 20
257.0208651506
 30
0.0
 40
1.001847450181201
100
AcDbArc
 50
0.1837548564
 51
89.8163520117
  0
LINE
  5
31F
330
1F
100
AcDbEntity
  8
0
  6
CONTINUOUS
 62
     7
100
AcDbLine
 10
577.1651933686
 20
225.6557145487
 30
0.0
 11
577.1651933686
 21
257.0240781974
 31
0.0
  0
LINE
  5
320
330
1F
100
AcDbEntity
  8
0
  6
CONTINUOUS
 62
     7
100
AcDbLine
 10
375.7995734708
 20
257.0240781974
 30
0.0
 11
376.7982045905
 21
257.0240781974
 31
0.0
  0
LINE
  5
321
330
1F
100
AcDbEntity
  8
0
  6
CONTINUOUS
 62
     7
100
AcDbLine
 10
376.7982045905
 20
257.0240781974
 30
0.0
 11
376.7982045905
 21
258.0227074545
 31
0.0
  0
LINE
  5
322
330
1F
100
AcDbEntity
  8
0
  6
CONTINUOUS
 62
     7
100
AcDbLine
 10
394.2995737092
 20
275.5240765732
 30
0.0
 11
395.2982048289
 21
275.5240765732
 31
0.0
  0
LINE
  5
323
330
1F
100
AcDbEntity
  8
0
  6
CONTINUOUS
 62
     7
100
AcDbLine
 10
395.2982048289
 20
275.5240765732
 30
0.0
 11
395.2982048289
 21
276.5227076929
 31
0.0
  0
LINE
  5
324
330
1F
100
AcDbEntity
  8
0
  6
CONTINUOUS
 62
     7
100
AcDbLine
 10
376.7982045905
 20
224.6570852916
 30
0.0
 11
376.7982045905
 21
225.6557145487
 31
0.0
  0
LINE
  5
325
330
1F
100
AcDbEntity
  8
0
  6
CONTINUOUS
 62
     7
100
AcDbLine
 10
376.7982045905
 20
225.6557145487
 30
0.0
 11
375.7995734708
 21
225.6557145487
 31
0.0
  0
LINE
  5
326
330
1F
100
AcDbEntity
  8
0
  6
CONTINUOUS
 62
     7
100
AcDbLine
 10
395.2982048289
 20
206.1570850532
 30
0.0
 11
395.2982048289
 21
207.155716173
 31
0.0
  0
LINE
  5
327
330
1F
100
AcDbEntity
  8
0
  6
CONTINUOUS
 62
     7
100
AcDbLine
 10
395.2982048289
 20
207.155716173
 30
0.0
 11
394.2995737092
 21
207.155716173
 31
0.0
  0
LINE
  5
328
330
1F
100
AcDbEntity
  8
0
  6
CONTINUOUS
 62
     7
100
AcDbLine
 10
557.6665620105
 20
207.155716173
 30
0.0
 11
558.6651931302
 21
207.155716173
 31
0.0
  0
LINE
  5
329
330
1F
100
AcDbEntity
  8
0
  6
CONTINUOUS
 62
     7
100
AcDbLine
 10
557.6665620105
 20
206.1570850532
 30
0.0
 11
557.6665620105
 21
207.155716173
 31
0.0
  0
LINE
  5
32A
330
1F
100
AcDbEntity
  8
0
  6
CONTINUOUS
 62
     7
100
AcDbLine
 10
576.1665622489
 20
225.6557145487
 30
0.0
 11
577.1651933686
 21
225.6557145487
 31
0.0
  0
LINE
  5
32B
330
1F
100
AcDbEntity
  8
0
  6
CONTINUOUS
 62
     7
100
AcDbLine
 10
576.1665622489
 20
224.6570852916
 30
0.0
 11
576.1665622489
 21
225.6557145487
 31
0.0
  0
LINE
  5
32C
330
1F
100
AcDbEntity
  8
0
  6
CONTINUOUS
 62
     7
100
AcDbLine
 10
557.6665620105
 20
275.5240765732
 30
0.0
 11
557.6665620105
 21
276.5227076929
 31
0.0
  0
LINE
  5
32D
330
1F
100
AcDbEntity
  8
0
  6
CONTINUOUS
 62
     7
100
AcDbLine
 10
558.6651931302
 20
275.5240765732
 30
0.0
 11
557.6665620105
 21
275.5240765732
 31
0.0
  0
LINE
  5
32E
330
1F
100
AcDbEntity
  8
0
  6
CONTINUOUS
 62
     7
100
AcDbLine
 10
576.1665622489
 20
257.0240781974
 30
0.0
 11
576.1665622489
 21
258.0227074545
 31
0.0
  0
LINE
  5
32F
330
1F
100
AcDbEntity
  8
0
  6
CONTINUOUS
 62
     7
100
AcDbLine
 10
577.1651933686
 20
257.0240781974
 30
0.0
 11
576.1665622489
 21
257.0240781974
 31
0.0
  0
LINE
  5
330
330
1F
100
AcDbEntity
  8
0
  6
CONTINUOUS
 62
     7
100
AcDbLine
 10
394.2995737092
 20
272.3398958664
 30
0.0
 11
395.2982048289
 21
272.3398958664
 31
0.0
  0
ARC
  5
331
330
1F
100
AcDbEntity
  8
0
  6
CONTINUOUS
 62
     7
100
AcDbCircle
 10
379.9823854248
 20
272.3398976015
 30
0.0
 40
15.31581940407493
100
AcDbArc
 50
269.9999855865
 51
359.9999935093
  0
LINE
  5
332
330
1F
100
AcDbEntity
  8
0
  6
CONTINUOUS
 62
     7
100
AcDbLine
 10
379.9823815719
 20
258.0227074545
 30
0.0
 11
379.9823815719
 21
257.0240781974
 31
0.0
  0
LINE
  5
333
330
1F
100
AcDbEntity
  8
0
  6
CONTINUOUS
 62
     7
100
AcDbLine
 10
379.9823815719
 20
225.6557145487
 30
0.0
 11
379.9823815719
 21
224.6570852916
 31
0.0
  0
ARC
  5
334
330
1F
100
AcDbEntity
  8
0
  6
CONTINUOUS
 62
     7
100
AcDbCircle
 10
379.9823841245
 20
210.3398938444
 30
0.0
 40
15.31582070437556
100
AcDbArc
 50
0.0000113551
 51
90.0000095491
  0
LINE
  5
335
330
1F
100
AcDbEntity
  8
0
  6
CONTINUOUS
 62
     7
100
AcDbLine
 10
394.2995737092
 20
210.3398968797
 30
0.0
 11
395.2982048289
 21
210.3398968797
 31
0.0
  0
ARC
  5
336
330
1F
100
AcDbEntity
  8
0
  6
CONTINUOUS
 62
     7
100
AcDbCircle
 10
572.9823827148
 20
272.3398989018
 30
0.0
 40
15.31582070437544
100
AcDbArc
 50
180.0000113551
 51
270.0000095491
  0
LINE
  5
337
330
1F
100
AcDbEntity
  8
0
  6
CONTINUOUS
 62
     7
100
AcDbLine
 10
558.6651931302
 20
272.3398958664
 30
0.0
 11
557.6665620105
 21
272.3398958664
 31
0.0
  0
LINE
  5
338
330
1F
100
AcDbEntity
  8
0
  6
CONTINUOUS
 62
     7
100
AcDbLine
 10
572.9823852674
 20
258.0227074545
 30
0.0
 11
572.9823852674
 21
257.0240781974
 31
0.0
  0
ARC
  5
339
330
1F
100
AcDbEntity
  8
0
  6
CONTINUOUS
 62
     7
100
AcDbCircle
 10
572.9823814145
 20
210.3398951447
 30
0.0
 40
15.31581940407497
100
AcDbArc
 50
89.9999855865
 51
179.9999935093
  0
LINE
  5
33A
330
1F
100
AcDbEntity
  8
0
  6
CONTINUOUS
 62
     7
100
AcDbLine
 10
572.9823852674
 20
224.6570852916
 30
0.0
 11
572.9823852674
 21
225.6557145487
 31
0.0
  0
LINE
  5
33B
330
1F
100
AcDbEntity
  8
0
  6
CONTINUOUS
 62
     7
100
AcDbLine
 10
558.6651931302
 20
210.3398968797
 30
0.0
 11
557.6665620105
 21
210.3398968797
 31
0.0
  0
LINE
  5
33C
330
1F
100
AcDbEntity
  8
0
  6
CONTINUOUS
 62
     7
100
AcDbLine
 10
379.9823815719
 20
225.6557145487
 30
0.0
 11
376.7982045905
 21
225.6557145487
 31
0.0
  0
LINE
  5
33D
330
1F
100
AcDbEntity
  8
0
  6
CONTINUOUS
 62
     7
100
AcDbLine
 10
376.7982045905
 20
257.0240781974
 30
0.0
 11
379.9823815719
 21
257.0240781974
 31
0.0
  0
LINE
  5
33E
330
1F
100
AcDbEntity
  8
0
  6
CONTINUOUS
 62
     7
100
AcDbLine
 10
395.2982048289
 20
207.155716173
 30
0.0
 11
395.2982048289
 21
210.3398968797
 31
0.0
  0
LINE
  5
33F
330
1F
100
AcDbEntity
  8
0
  6
CONTINUOUS
 62
     7
100
AcDbLine
 10
395.2982048289
 20
272.3398958664
 30
0.0
 11
395.2982048289
 21
275.5240765732
 31
0.0
  0
LINE
  5
340
330
1F
100
AcDbEntity
  8
0
  6
CONTINUOUS
 62
     7
100
AcDbLine
 10
557.6665620105
 20
275.5240765732
 30
0.0
 11
557.6665620105
 21
272.3398958664
 31
0.0
  0
LINE
  5
341
330
1F
100
AcDbEntity
  8
0
  6
CONTINUOUS
 62
     7
100
AcDbLine
 10
557.6665620105
 20
210.3398968797
 30
0.0
 11
557.6665620105
 21
207.155716173
 31
0.0
  0
LINE
  5
342
330
1F
100
AcDbEntity
  8
0
  6
CONTINUOUS
 62
     7
100
AcDbLine
 10
572.9823852674
 20
257.0240781974
 30
0.0
 11
576.1665622489
 21
257.0240781974
 31
0.0
  0
LINE
  5
343
330
1F
100
AcDbEntity
  8
0
  6
CONTINUOUS
 62
     7
100
AcDbLine
 10
576.1665622489
 20
225.6557145487
 30
0.0
 11
572.9823852674
 21
225.6557145487
 31
0.0
  0
LINE
  5
344
330
1F
100
AcDbEntity
  8
0
  6
CONTINUOUS
 62
     7
100
AcDbLine
 10
376.7982045905
 20
225.6557145487
 30
0.0
 11
376.7982045905
 21
257.0240781974
 31
0.0
  0
LINE
  5
345
330
1F
100
AcDbEntity
  8
0
  6
CONTINUOUS
 62
     7
100
AcDbLine
 10
395.2982048289
 20
275.5240765732
 30
0.0
 11
557.6665620105
 21
275.5240765732
 31
0.0
  0
LINE
  5
346
330
1F
100
AcDbEntity
  8
0
  6
CONTINUOUS
 62
     7
100
AcDbLine
 10
557.6665620105
 20
207.155716173
 30
0.0
 11
395.2982048289
 21
207.155716173
 31
0.0
  0
LINE
  5
347
330
1F
100
AcDbEntity
  8
0
  6
CONTINUOUS
 62
     7
100
AcDbLine
 10
576.1665622489
 20
257.0240781974
 30
0.0
 11
576.1665622489
 21
225.6557145487
 31
0.0
  0
ARC
  5
348
330
1F
100
AcDbEntity
  8
0
  6
CONTINUOUS
 62
     8
100
AcDbCircle
 10
576.163257929
 20
225.6590974973
 30
0.0
 40
1.00201765393282
100
AcDbArc
 50
270.1889427072
 51
342.1805177367
  0
ENDSEC
  0
SECTION
  2
OBJECTS
  0
DICTIONARY
  5
C
330
0
100
AcDbDictionary
  3
ACAD_GROUP
350
D
  3
ACAD_MLINESTYLE
350
17
  0
DICTIONARY
  5
D
102
{ACAD_REACTORS
330
C
102
}
330
C
100
AcDbDictionary
  0
DICTIONARY
  5
17
102
{ACAD_REACTORS
330
C
102
}
330
C
100
AcDbDictionary
  3
STANDARD
350
18
  0
MLINESTYLE
  5
18
102
{ACAD_REACTORS
330
17
102
}
330
17
100
AcDbMlineStyle
  2
Standard
 70
     0
  3

 62
   256
 51
90.0
 52
90.0
 71
     2
 49
0.5
 62
   256
  6
BYLAYER
 49
-0.5
 62
   256
  6
BYLAYER
  0
ENDSEC
  0
EOF
