  0
SECTION
  2
HEADER
  9
$ACADVER
  1
AC1014
  9
$ACADMAINTVER
 70
     9
  9
$DWGCODEPAGE
  3
ANSI_1252
  9
$INSBASE
 10
0.0
 20
0.0
 30
0.0
  9
$EXTMIN
 10
0.0
 20
0.0
 30
0.0
  9
$EXTMAX
 10
1260.0
 20
891.0
 30
0.0
  9
$LIMMIN
 10
0.0
 20
0.0
  9
$LIMMAX
 10
1260.0
 20
891.0
  9
$ORTHOMODE
 70
     0
  9
$REGENMODE
 70
     1
  9
$FILLMODE
 70
     1
  9
$QTEXTMODE
 70
     0
  9
$MIRRTEXT
 70
     1
  9
$DRAGMODE
 70
     2
  9
$LTSCALE
 40
1.0
  9
$OSMODE
 70
    37
  9
$ATTMODE
 70
     1
  9
$TEXTSIZE
 40
10.5
  9
$TRACEWID
 40
1.0
  9
$TEXTSTYLE
  7
STANDARD
  9
$CLAYER
  8
0
  9
$CELTYPE
  6
BYLAYER
  9
$CECOLOR
 62
   256
  9
$CELTSCALE
 40
1.0
  9
$DELOBJ
 70
     1
  9
$DISPSILH
 70
     0
  9
$DIMSCALE
 40
1.0
  9
$DIMASZ
 40
18.0
  9
$DIMEXO
 40
3.0
  9
$DIMDLI
 40
3.75
  9
$DIMRND
 40
0.0
  9
$DIMDLE
 40
0.0
  9
$DIMEXE
 40
3.0
  9
$DIMTP
 40
0.0
  9
$DIMTM
 40
0.0
  9
$DIMTXT
 40
10.5
  9
$DIMCEN
 40
2.5
  9
$DIMTSZ
 40
0.0
  9
$DIMTOL
 70
     0
  9
$DIMLIM
 70
     0
  9
$DIMTIH
 70
     1
  9
$DIMTOH
 70
     1
  9
$DIMSE1
 70
     0
  9
$DIMSE2
 70
     0
  9
$DIMTAD
 70
     1
  9
$DIMZIN
 70
     0
  9
$DIMBLK
  1

  9
$DIMASO
 70
     1
  9
$DIMSHO
 70
     1
  9
$DIMPOST
  1

  9
$DIMAPOST
  1

  9
$DIMALT
 70
     0
  9
$DIMALTD
 70
     3
  9
$DIMALTF
 40
0.0393700787
  9
$DIMLFAC
 40
1.0
  9
$DIMTOFL
 70
     1
  9
$DIMTVP
 40
0.0
  9
$DIMTIX
 70
     0
  9
$DIMSOXD
 70
     0
  9
$DIMSAH
 70
     0
  9
$DIMBLK1
  1

  9
$DIMBLK2
  1

  9
$DIMSTYLE
  2
ISO-25
  9
$DIMCLRD
 70
     0
  9
$DIMCLRE
 70
     0
  9
$DIMCLRT
 70
     0
  9
$DIMTFAC
 40
1.0
  9
$DIMGAP
 40
4.572
  9
$DIMJUST
 70
     0
  9
$DIMSD1
 70
     0
  9
$DIMSD2
 70
     0
  9
$DIMTOLJ
 70
     0
  9
$DIMTZIN
 70
     0
  9
$DIMALTZ
 70
     0
  9
$DIMALTTZ
 70
     0
  9
$DIMFIT
 70
     3
  9
$DIMUPT
 70
     0
  9
$DIMUNIT
 70
     2
  9
$DIMDEC
 70
     2
  9
$DIMTDEC
 70
     2
  9
$DIMALTU
 70
     2
  9
$DIMALTTD
 70
     3
  9
$DIMTXSTY
  7
STANDARD
  9
$DIMAUNIT
 70
     0
  9
$LUNITS
 70
     2
  9
$LUPREC
 70
     2
  9
$SKETCHINC
 40
1.0
  9
$FILLETRAD
 40
10.0
  9
$AUNITS
 70
     0
  9
$AUPREC
 70
     2
  9
$MENU
  1
.
  9
$ELEVATION
 40
0.0
  9
$PELEVATION
 40
0.0
  9
$THICKNESS
 40
0.0
  9
$LIMCHECK
 70
     0
  9
$CHAMFERA
 40
10.0
  9
$CHAMFERB
 40
10.0
  9
$CHAMFERC
 40
20.0
  9
$CHAMFERD
 40
0.0
  9
$SKPOLY
 70
     0
  9
$TDCREATE
 40
2455261.501013403
  9
$TDUPDATE
 40
2455261.501013414
  9
$TDINDWG
 40
0.0000000116
  9
$TDUSRTIMER
 40
0.0000000116
  9
$USRTIMER
 70
     1
  9
$ANGBASE
 50
0.0
  9
$ANGDIR
 70
     0
  9
$PDMODE
 70
     0
  9
$PDSIZE
 40
-1.0
  9
$PLINEWID
 40
0.0
  9
$COORDS
 70
     1
  9
$SPLFRAME
 70
     0
  9
$SPLINETYPE
 70
     6
  9
$SPLINESEGS
 70
     8
  9
$ATTDIA
 70
     0
  9
$ATTREQ
 70
     1
  9
$HANDLING
 70
     1
  9
$HANDSEED
  5
197
  9
$SURFTAB1
 70
     6
  9
$SURFTAB2
 70
     6
  9
$SURFTYPE
 70
     6
  9
$SURFU
 70
     6
  9
$SURFV
 70
     6
  9
$UCSNAME
  2

  9
$UCSORG
 10
0.0
 20
0.0
 30
0.0
  9
$UCSXDIR
 10
1.0
 20
0.0
 30
0.0
  9
$UCSYDIR
 10
0.0
 20
1.0
 30
0.0
  9
$PUCSNAME
  2

  9
$PUCSORG
 10
0.0
 20
0.0
 30
0.0
  9
$PUCSXDIR
 10
1.0
 20
0.0
 30
0.0
  9
$PUCSYDIR
 10
0.0
 20
1.0
 30
0.0
  9
$USERI1
 70
     0
  9
$USERI2
 70
     0
  9
$USERI3
 70
     0
  9
$USERI4
 70
     0
  9
$USERI5
 70
     0
  9
$USERR1
 40
0.0
  9
$USERR2
 40
0.0
  9
$USERR3
 40
0.0
  9
$USERR4
 40
0.0
  9
$USERR5
 40
0.0
  9
$WORLDVIEW
 70
     1
  9
$SHADEDGE
 70
     3
  9
$SHADEDIF
 70
    70
  9
$TILEMODE
 70
     1
  9
$MAXACTVP
 70
    64
  9
$PINSBASE
 10
0.0
 20
0.0
 30
0.0
  9
$PLIMCHECK
 70
     0
  9
$PEXTMIN
 10
1.0000000000E+20
 20
1.0000000000E+20
 30
1.0000000000E+20
  9
$PEXTMAX
 10
-1.0000000000E+20
 20
-1.0000000000E+20
 30
-1.0000000000E+20
  9
$PLIMMIN
 10
0.0
 20
0.0
  9
$PLIMMAX
 10
420.0
 20
297.0
  9
$UNITMODE
 70
     0
  9
$VISRETAIN
 70
     1
  9
$PLINEGEN
 70
     0
  9
$PSLTSCALE
 70
     1
  9
$TREEDEPTH
 70
  3020
  9
$PICKSTYLE
 70
     1
  9
$CMLSTYLE
  2
STANDARD
  9
$CMLJUST
 70
     0
  9
$CMLSCALE
 40
20.0
  9
$PROXYGRAPHICS
 70
     1
  9
$MEASUREMENT
 70
     1
  0
ENDSEC
  0
SECTION
  2
CLASSES
  0
CLASS
  1
ACDBDICTIONARYWDFLT
  2
AcDbDictionaryWithDefault
  3
ObjectDBX Classes
 90
        0
280
     0
281
     0
  0
CLASS
  1
VISUALSTYLE
  2
AcDbVisualStyle
  3
ObjectDBX Classes
 90
     4095
280
     0
281
     0
  0
CLASS
  1
DICTIONARYVAR
  2
AcDbDictionaryVar
  3
ObjectDBX Classes
 90
        0
280
     0
281
     0
  0
CLASS
  1
XRECORD
  2
AcDbXrecord
  3
AutoCAD 2000
 90
        0
280
     0
281
     0
  0
CLASS
  1
LWPOLYLINE
  2
AcDbPolyline
  3
AutoCAD 2000
 90
        0
280
     0
281
     1
  0
CLASS
  1
HATCH
  2
AcDbHatch
  3
AutoCAD 2000
 90
        0
280
     0
281
     1
  0
CLASS
  1
ACDBPLACEHOLDER
  2
AcDbPlaceHolder
  3
ObjectDBX Classes
 90
        0
280
     0
281
     0
  0
CLASS
  1
LAYOUT
  2
AcDbLayout
  3
ObjectDBX Classes
 90
        0
280
     0
281
     0
  0
ENDSEC
  0
SECTION
  2
TABLES
  0
TABLE
  2
VPORT
  5
8
330
0
100
AcDbSymbolTable
 70
     1
  0
VPORT
  5
29
330
8
100
AcDbSymbolTableRecord
100
AcDbViewportTableRecord
  2
*ACTIVE
 70
     0
 10
0.0
 20
0.0
 11
1.0
 21
1.0
 12
630.0
 22
445.5
 13
0.0
 23
0.0
 14
10.0
 24
10.0
 15
10.0
 25
10.0
 16
0.0
 26
0.0
 36
1.0
 17
0.0
 27
0.0
 37
0.0
 40
891.0
 41
1.4141414141
 42
50.0
 43
0.0
 44
0.0
 50
0.0
 51
0.0
 71
     0
 72
  2000
 73
     1
 74
     3
 75
     0
 76
     0
 77
     0
 78
     0
  0
ENDTAB
  0
TABLE
  2
LTYPE
  5
5
330
0
100
AcDbSymbolTable
 70
     6
  0
LTYPE
  5
14
330
5
100
AcDbSymbolTableRecord
100
AcDbLinetypeTableRecord
  2
BYBLOCK
 70
     0
  3

 72
    65
 73
     0
 40
0.0
  0
LTYPE
  5
15
330
5
100
AcDbSymbolTableRecord
100
AcDbLinetypeTableRecord
  2
BYLAYER
 70
     0
  3

 72
    65
 73
     0
 40
0.0
  0
LTYPE
  5
16
330
5
100
AcDbSymbolTableRecord
100
AcDbLinetypeTableRecord
  2
CONTINUOUS
 70
     0
  3
Solid line
 72
    65
 73
     0
 40
0.0
  0
LTYPE
  5
3B
330
5
100
AcDbSymbolTableRecord
100
AcDbLinetypeTableRecord
  2
HIDDEN
 70
     0
  3
Hidden __ __ __ __ __ __ __ __ __ __ __ __ __ __
 72
    65
 73
     2
 40
1.905
 49
1.27
 74
     0
 49
-0.635
 74
     0
  0
LTYPE
  5
3C
330
5
100
AcDbSymbolTableRecord
100
AcDbLinetypeTableRecord
  2
PHANTOM
 70
     0
  3
Phantom ______  __  __  ______  __  __  ______
 72
    65
 73
     6
 40
12.7
 49
6.35
 74
     0
 49
-1.27
 74
     0
 49
1.27
 74
     0
 49
-1.27
 74
     0
 49
1.27
 74
     0
 49
-1.27
 74
     0
  0
LTYPE
  5
3D
330
5
100
AcDbSymbolTableRecord
100
AcDbLinetypeTableRecord
  2
CENTER
 70
     0
  3
Center ____ _ ____ _ ____ _ ____ _ ____ _ ____
 72
    65
 73
     4
 40
10.16
 49
6.35
 74
     0
 49
-1.27
 74
     0
 49
1.27
 74
     0
 49
-1.27
 74
     0
  0
LTYPE
  5
3E
330
5
100
AcDbSymbolTableRecord
100
AcDbLinetypeTableRecord
  2
CENTERX2
 70
     0
  3
Center (2x) ________  __  ________  __  _____
 72
    65
 73
     4
 40
20.32
 49
12.7
 74
     0
 49
-2.54
 74
     0
 49
2.54
 74
     0
 49
-2.54
 74
     0
  0
LTYPE
  5
3F
330
5
100
AcDbSymbolTableRecord
100
AcDbLinetypeTableRecord
  2
DOT2
 70
     0
  3
Dot (.5x) ........................................
 72
    65
 73
     2
 40
0.635
 49
0.0
 74
     0
 49
-0.635
 74
     0
  0
ENDTAB
  0
TABLE
  2
LAYER
  5
2
330
0
100
AcDbSymbolTable
 70
     1
  0
LAYER
  5
10
330
2
100
AcDbSymbolTableRecord
100
AcDbLayerTableRecord
  2
0
 70
     0
 62
     7
  6
CONTINUOUS
  0
ENDTAB
  0
TABLE
  2
STYLE
  5
3
330
0
100
AcDbSymbolTable
 70
     1
  0
STYLE
  5
11
330
3
100
AcDbSymbolTableRecord
100
AcDbTextStyleTableRecord
  2
STANDARD
 70
     0
 40
0.0
 41
1.0
 50
0.0
 71
     0
 42
2.5
  3
txt
  4

  0
ENDTAB
  0
TABLE
  2
VIEW
  5
6
330
0
100
AcDbSymbolTable
 70
     0
  0
ENDTAB
  0
TABLE
  2
UCS
  5
7
330
0
100
AcDbSymbolTable
 70
     0
  0
ENDTAB
  0
TABLE
  2
APPID
  5
9
330
0
100
AcDbSymbolTable
 70
     1
  0
APPID
  5
12
330
9
100
AcDbSymbolTableRecord
100
AcDbRegAppTableRecord
  2
ACAD
 70
     0
  0
ENDTAB
  0
TABLE
  2
DIMSTYLE
  5
A
330
0
100
AcDbSymbolTable
 70
     1
  0
DIMSTYLE
105
27
330
A
100
AcDbSymbolTableRecord
100
AcDbDimStyleTableRecord
  2
ISO-25
 70
     0
  3

  4

  5

  6

  7

 40
1.0
 41
2.5
 42
0.625
 43
3.75
 44
1.25
 45
0.0
 46
0.0
 47
0.0
 48
0.0
140
2.5
141
2.5
142
0.0
143
0.0393700787
144
1.0
145
0.0
146
1.0
147
0.625
 71
     0
 72
     0
 73
     0
 74
     0
 75
     0
 76
     0
 77
     1
 78
     8
170
     0
171
     3
172
     1
173
     0
174
     0
175
     0
176
     0
177
     0
178
     0
270
     2
271
     2
272
     2
273
     2
274
     3
340
11
275
     0
280
     0
281
     0
282
     0
283
     0
284
     8
285
     0
286
     0
287
     3
288
     0
  0
ENDTAB
  0
TABLE
  2
BLOCK_RECORD
  5
1
330
0
100
AcDbSymbolTable
 70
     1
  0
BLOCK_RECORD
  5
1F
330
1
100
AcDbSymbolTableRecord
100
AcDbBlockTableRecord
  2
*MODEL_SPACE
  0
BLOCK_RECORD
  5
1B
330
1
100
AcDbSymbolTableRecord
100
AcDbBlockTableRecord
  2
*PAPER_SPACE
  0
ENDTAB
  0
ENDSEC
  0
SECTION
  2
BLOCKS
  0
BLOCK
  5
20
330
1F
100
AcDbEntity
  8
0
100
AcDbBlockBegin
  2
*MODEL_SPACE
 70
     0
 10
0.0
 20
0.0
 30
0.0
  3
*MODEL_SPACE
  1

  0
ENDBLK
  5
21
330
1F
100
AcDbEntity
  8
0
100
AcDbBlockEnd
  0
BLOCK
  5
1C
330
1B
100
AcDbEntity
 67
     1
  8
0
100
AcDbBlockBegin
  2
*PAPER_SPACE
 70
     0
 10
0.0
 20
0.0
 30
0.0
  3
*PAPER_SPACE
  1

  0
ENDBLK
  5
1D
330
1B
100
AcDbEntity
 67
     1
  8
0
100
AcDbBlockEnd
  0
ENDSEC
  0
SECTION
  2
ENTITIES
  0
CIRCLE
  5
40
330
1F
100
AcDbEntity
  8
0
  6
CONTINUOUS
 62
     7
100
AcDbCircle
 10
362.6489167604
 20
433.0942396268
 30
0.0
 40
28.5
  0
CIRCLE
  5
41
330
1F
100
AcDbEntity
  8
0
  6
CONTINUOUS
 62
     7
100
AcDbCircle
 10
362.6489167604
 20
433.0942396268
 30
0.0
 40
31.85639852470911
  0
CIRCLE
  5
42
330
1F
100
AcDbEntity
  8
0
  6
CONTINUOUS
 62
     7
100
AcDbCircle
 10
362.6489167604
 20
433.671589896
 30
0.0
 40
36.06921094753727
  0
CIRCLE
  5
43
330
1F
100
AcDbEntity
  8
0
  6
CONTINUOUS
 62
     7
100
AcDbCircle
 10
362.6489167604
 20
433.0942396268
 30
0.0
 40
32.5
  0
CIRCLE
  5
44
330
1F
100
AcDbEntity
  8
0
  6
CONTINUOUS
 62
     7
100
AcDbCircle
 10
362.6489167604
 20
433.671589896
 30
0.0
 40
40.06860172816283
  0
SPLINE
  5
45
330
1F
100
AcDbEntity
  8
0
  6
CONTINUOUS
 62
     7
100
AcDbSpline
210
0.0
220
0.0
230
1.0
 70
     8
 71
     3
 72
    14
 73
    10
 74
     0
 42
0.00000001
 43
0.00000001
 40
0.0
 40
0.0
 40
0.0
 40
0.0
 40
0.25
 40
0.25
 40
0.5
 40
0.5
 40
0.75
 40
0.75
 40
1.0
 40
1.0
 40
1.0
 40
1.0
 10
327.1975291382608
 20
453.869943303048
 30
0.0
 10
327.1177319261521
 20
453.7245259010134
 30
0.0
 10
327.0322728742535
 20
453.5678245296025
 30
0.0
 10
326.8523472585606
 20
453.2339099691817
 30
0.0
 10
326.7569574182854
 20
453.0549475549669
 30
0.0
 10
326.5623863991341
 20
452.6843928821222
 30
0.0
 10
326.4639512436561
 20
452.4942688835244
 30
0.0
 10
326.2653573727034
 20
452.1044084956246
 30
0.0
 10
326.1646727640708
 20
451.9035846732876
 30
0.0
 10
326.0653430773077
 20
451.7020459600285
 30
0.0
  0
LWPOLYLINE
  5
46
330
1F
100
AcDbEntity
  8
0
  6
CONTINUOUS
 62
     7
100
AcDbPolyline
 90
        3
 70
   128
 43
0.0
 10
327.1975291383
 20
453.869943303
 10
327.2253609472
 20
453.8861119742
 10
327.3662576729
 20
453.9677699592
  0
ELLIPSE
  5
47
330
1F
100
AcDbEntity
  8
0
  6
CONTINUOUS
 62
     7
100
AcDbEllipse
 10
361.2944369521
 20
435.0260697044
 30
0.0
 11
27.47892707594491
 21
-27.47892707594491
 31
0.0
210
0.0
220
0.0
230
0.9999999999999998
 40
0.9987844311
 41
2.796860640979502
 42
3.418125922271233
  0
ELLIPSE
  5
48
330
1F
100
AcDbEntity
  8
0
  6
CONTINUOUS
 62
     7
100
AcDbEllipse
 10
362.6489167604
 20
437.3757107777
 30
0.0
 11
0.0
 21
37.41816223201391
 31
0.0
210
0.0
220
0.0
230
1.0
 40
0.9950881703
 41
5.780412329838211
 42
6.785958284520991
  0
ELLIPSE
  5
49
330
1F
100
AcDbEntity
  8
0
  6
CONTINUOUS
 62
     7
100
AcDbEllipse
 10
364.0033965688
 20
435.0260697044
 30
0.0
 11
27.47892707594372
 21
27.47892707594593
 31
0.0
210
0.0
220
0.0
230
1.0
 40
0.9987844311
 41
6.006652038498134
 42
6.627917319789853
  0
LWPOLYLINE
  5
4A
330
1F
100
AcDbEntity
  8
0
  6
CONTINUOUS
 62
     7
100
AcDbPolyline
 90
        3
 70
   128
 43
0.0
 10
398.1003043826
 20
453.869943303
 10
398.0724725737
 20
453.8861119742
 10
397.931575848
 20
453.9677699592
  0
SPLINE
  5
4B
330
1F
100
AcDbEntity
  8
0
  6
CONTINUOUS
 62
     7
100
AcDbSpline
210
0.0
220
0.0
230
1.0
 70
     8
 71
     3
 72
    14
 73
    10
 74
     0
 42
0.00000001
 43
0.00000001
 40
0.0
 40
0.0
 40
0.0
 40
0.0
 40
0.25
 40
0.25
 40
0.5
 40
0.5
 40
0.75
 40
0.75
 40
1.0
 40
1.0
 40
1.0
 40
1.0
 10
399.2324904435917
 20
451.7020459600285
 30
0.0
 10
399.1330253930948
 20
451.9038593246393
 30
0.0
 10
399.0337212183913
 20
452.101933793592
 30
0.0
 10
398.8355462415632
 20
452.4910324043558
 30
0.0
 10
398.7360481247713
 20
452.6832433025824
 30
0.0
 10
398.5408220287974
 20
453.05505551031
 30
0.0
 10
398.4467673979776
 20
453.231515138202
 30
0.0
 10
398.2667311679896
 20
453.5656692252216
 30
0.0
 10
398.180199700031
 20
453.7243471201374
 30
0.0
 10
398.1003043826386
 20
453.869943303048
 30
0.0
  0
ARC
  5
4C
330
1F
100
AcDbEntity
  8
0
  6
CONTINUOUS
 62
     7
100
AcDbCircle
 10
362.6489167604
 20
433.671589896
 30
0.0
 40
40.7854779217698
100
AcDbArc
 50
333.7633124228
 51
26.2366875772
  0
SPLINE
  5
4D
330
1F
100
AcDbEntity
  8
0
  6
CONTINUOUS
 62
     7
100
AcDbSpline
210
0.0
220
0.0
230
1.0
 70
     8
 71
     3
 72
    14
 73
    10
 74
     0
 42
0.00000001
 43
0.00000001
 40
0.0
 40
0.0
 40
0.0
 40
0.0
 40
0.25
 40
0.25
 40
0.5
 40
0.5
 40
0.75
 40
0.75
 40
1.0
 40
1.0
 40
1.0
 40
1.0
 10
398.1003043826387
 20
413.4732364889283
 30
0.0
 10
398.1801015947473
 20
413.6186538909629
 30
0.0
 10
398.2655606466461
 20
413.7753552623736
 30
0.0
 10
398.4454862623389
 20
414.1092698227945
 30
0.0
 10
398.5408761026141
 20
414.2882322370094
 30
0.0
 10
398.7354471217653
 20
414.658786909854
 30
0.0
 10
398.8338822772434
 20
414.8489109084518
 30
0.0
 10
399.0324761481961
 20
415.2387712963517
 30
0.0
 10
399.1331607568287
 20
415.4395951186887
 30
0.0
 10
399.2324904435917
 20
415.6411338319477
 30
0.0
  0
LWPOLYLINE
  5
4E
330
1F
100
AcDbEntity
  8
0
  6
CONTINUOUS
 62
     7
100
AcDbPolyline
 90
        3
 70
   128
 43
0.0
 10
398.1003043826
 20
413.4732364889
 10
398.0724725737
 20
413.4570678178
 10
397.931575848
 20
413.3754098328
  0
ELLIPSE
  5
4F
330
1F
100
AcDbEntity
  8
0
  6
CONTINUOUS
 62
     7
100
AcDbEllipse
 10
364.0033965688
 20
432.3171100876
 30
0.0
 11
27.47892707594372
 21
-27.47892707594588
 31
0.0
210
0.0
220
0.0
230
1.0
 40
0.9987844311
 41
5.938453294569346
 42
6.559718575861066
  0
ELLIPSE
  5
50
330
1F
100
AcDbEntity
  8
0
  6
CONTINUOUS
 62
     7
100
AcDbEllipse
 10
362.6489167604
 20
429.9674690143
 30
0.0
 11
0.0
 21
37.41816223201386
 31
0.0
210
0.0
220
0.0
230
1.0
 40
0.9950881703
 41
2.638819676248405
 42
3.644365630931196
  0
ELLIPSE
  5
51
330
1F
100
AcDbEntity
  8
0
  6
CONTINUOUS
 62
     7
100
AcDbEllipse
 10
361.2944369521
 20
432.3171100876
 30
0.0
 11
27.47892707594491
 21
27.47892707594485
 31
0.0
210
0.0
220
0.0
230
1.0
 40
0.9987844311
 41
2.865059384908367
 42
3.486324666200101
  0
LWPOLYLINE
  5
52
330
1F
100
AcDbEntity
  8
0
  6
CONTINUOUS
 62
     7
100
AcDbPolyline
 90
        3
 70
   128
 43
0.0
 10
327.1975291383
 20
413.4732364889
 10
327.2253609472
 20
413.4570678178
 10
327.3662576729
 20
413.3754098328
  0
SPLINE
  5
53
330
1F
100
AcDbEntity
  8
0
  6
CONTINUOUS
 62
     7
100
AcDbSpline
210
0.0
220
0.0
230
1.0
 70
     8
 71
     3
 72
    14
 73
    10
 74
     0
 42
0.00000001
 43
0.00000001
 40
0.0
 40
0.0
 40
0.0
 40
0.0
 40
0.25
 40
0.25
 40
0.5
 40
0.5
 40
0.75
 40
0.75
 40
1.0
 40
1.0
 40
1.0
 40
1.0
 10
326.0653430773077
 20
415.6411338319477
 30
0.0
 10
326.1648081278046
 20
415.4393204673369
 30
0.0
 10
326.2641123025081
 20
415.2412459983843
 30
0.0
 10
326.4622872793362
 20
414.8521473876204
 30
0.0
 10
326.5617853961281
 20
414.6599364893939
 30
0.0
 10
326.757011492102
 20
414.2881242816662
 30
0.0
 10
326.8510661229218
 20
414.1116646537743
 30
0.0
 10
327.0311023529098
 20
413.7775105667546
 30
0.0
 10
327.1176338208684
 20
413.6188326718388
 30
0.0
 10
327.1975291382608
 20
413.4732364889283
 30
0.0
  0
ARC
  5
54
330
1F
100
AcDbEntity
  8
0
  6
CONTINUOUS
 62
     7
100
AcDbCircle
 10
362.6489167604
 20
433.671589896
 30
0.0
 40
40.78547792176985
100
AcDbArc
 50
153.7633124228
 51
206.2366875772
  0
LINE
  5
55
330
1F
100
AcDbEntity
  8
0
  6
CONTINUOUS
 62
     7
100
AcDbLine
 10
344.7072668761
 20
397.1798135859
 30
0.0
 11
310.6489167604
 21
378.671589896
 31
0.0
  0
LINE
  5
56
330
1F
100
AcDbEntity
  8
0
  6
CONTINUOUS
 62
     7
100
AcDbLine
 10
278.6489167604
 20
410.671589896
 30
0.0
 11
310.6489167604
 21
378.671589896
 31
0.0
  0
LINE
  5
57
330
1F
100
AcDbEntity
  8
0
  6
CONTINUOUS
 62
     7
100
AcDbLine
 10
301.3351592777
 20
412.34963542
 30
0.0
 11
278.6489167604
 21
410.671589896
 31
0.0
  0
SPLINE
  5
58
330
1F
100
AcDbEntity
  8
0
  6
CONTINUOUS
 62
     7
100
AcDbSpline
210
0.0
220
0.0
230
1.0
 70
     8
 71
     3
 72
     8
 73
     4
 74
     0
 42
0.00000001
 43
0.00000001
 40
0.0
 40
0.0
 40
0.0
 40
0.0
 40
1.0
 40
1.0
 40
1.0
 40
1.0
 10
304.5682581537587
 20
412.2314958093179
 30
0.0
 10
303.5359465993214
 20
412.2100243574245
 30
0.0
 10
302.4637320697973
 20
412.2420504158406
 30
0.0
 10
301.3351592777335
 20
412.3496354200415
 30
0.0
  0
LINE
  5
59
330
1F
100
AcDbEntity
  8
0
  6
CONTINUOUS
 62
     7
100
AcDbLine
 10
304.5682581538
 20
412.2314958093
 30
0.0
 11
324.2704788004
 21
412.6412900047
 31
0.0
  0
ELLIPSE
  5
5A
330
1F
100
AcDbEntity
  8
0
  6
CONTINUOUS
 62
     7
100
AcDbEllipse
 10
321.2553051808
 20
415.6411338319
 30
0.0
 11
3.285417958087578
 21
-2.899157751088637
 31
0.0
210
0.0
220
0.0
230
1.0
 40
0.2347608317
 41
6.033373238129077
 42
6.786362721407404
  0
LINE
  5
5B
330
1F
100
AcDbEntity
  8
0
  6
CONTINUOUS
 62
     7
100
AcDbLine
 10
327.3662576729
 20
413.3754098328
 30
0.0
 11
324.4617087297
 21
413.4732364889
 31
0.0
  0
LINE
  5
5C
330
1F
100
AcDbEntity
  8
0
  6
CONTINUOUS
 62
     7
100
AcDbLine
 10
310.6489167604
 20
378.671589896
 30
0.0
 11
414.6489167604
 21
378.671589896
 31
0.0
  0
LINE
  5
5D
330
1F
100
AcDbEntity
  8
0
  6
CONTINUOUS
 62
     7
100
AcDbLine
 10
380.5905666448
 20
397.1798135859
 30
0.0
 11
414.6489167604
 21
378.671589896
 31
0.0
  0
SPLINE
  5
5E
330
1F
100
AcDbEntity
  8
0
  6
CONTINUOUS
 62
     7
100
AcDbSpline
210
0.0
220
0.0
230
1.0
 70
     8
 71
     3
 72
     8
 73
     4
 74
     0
 42
0.00000001
 43
0.00000001
 40
0.0
 40
0.0
 40
0.0
 40
0.0
 40
1.0
 40
1.0
 40
1.0
 40
1.0
 10
301.3351592777452
 20
454.9935443719357
 30
0.0
 10
302.4639103565982
 20
455.1011463719252
 30
0.0
 10
303.536092052612
 20
455.1331524092118
 30
0.0
 10
304.5682581537587
 20
455.1116839826582
 30
0.0
  0
LINE
  5
5F
330
1F
100
AcDbEntity
  8
0
  6
CONTINUOUS
 62
     7
100
AcDbLine
 10
301.3351592777
 20
454.9935443719
 30
0.0
 11
278.6489167604
 21
456.671589896
 31
0.0
  0
LINE
  5
60
330
1F
100
AcDbEntity
  8
0
  6
CONTINUOUS
 62
     7
100
AcDbLine
 10
310.6489167604
 20
488.671589896
 30
0.0
 11
278.6489167604
 21
456.671589896
 31
0.0
  0
LINE
  5
61
330
1F
100
AcDbEntity
  8
0
  6
CONTINUOUS
 62
     7
100
AcDbLine
 10
344.7072668761
 20
470.1633662061
 30
0.0
 11
310.6489167604
 21
488.671589896
 31
0.0
  0
LINE
  5
62
330
1F
100
AcDbEntity
  8
0
  6
CONTINUOUS
 62
     7
100
AcDbLine
 10
324.4617087297
 20
453.869943303
 30
0.0
 11
327.3662576729
 21
453.9677699592
 31
0.0
  0
ELLIPSE
  5
63
330
1F
100
AcDbEntity
  8
0
  6
CONTINUOUS
 62
     7
100
AcDbEllipse
 10
321.2553051808
 20
451.70204596
 30
0.0
 11
3.285417958087578
 21
2.899157751088694
 31
0.0
210
0.0
220
0.0
230
1.0
 40
0.2347608317
 41
5.780007892951846
 42
6.532997376230293
  0
LINE
  5
64
330
1F
100
AcDbEntity
  8
0
  6
CONTINUOUS
 62
     7
100
AcDbLine
 10
324.2704788004
 20
454.7018897873
 30
0.0
 11
304.5682581538
 21
455.1116839827
 31
0.0
  0
LINE
  5
65
330
1F
100
AcDbEntity
  8
0
  6
CONTINUOUS
 62
     7
100
AcDbLine
 10
414.6489167604
 20
488.671589896
 30
0.0
 11
310.6489167604
 21
488.671589896
 31
0.0
  0
LINE
  5
66
330
1F
100
AcDbEntity
  8
0
  6
CONTINUOUS
 62
     7
100
AcDbLine
 10
380.5905666448
 20
470.1633662061
 30
0.0
 11
414.6489167604
 21
488.671589896
 31
0.0
  0
LINE
  5
67
330
1F
100
AcDbEntity
  8
0
  6
CONTINUOUS
 62
     7
100
AcDbLine
 10
446.6489167604
 20
456.671589896
 30
0.0
 11
414.6489167604
 21
488.671589896
 31
0.0
  0
LINE
  5
68
330
1F
100
AcDbEntity
  8
0
  6
CONTINUOUS
 62
     7
100
AcDbLine
 10
423.9626742431
 20
454.9935443719
 30
0.0
 11
446.6489167604
 21
456.671589896
 31
0.0
  0
SPLINE
  5
69
330
1F
100
AcDbEntity
  8
0
  6
CONTINUOUS
 62
     7
100
AcDbSpline
210
0.0
220
0.0
230
1.0
 70
     8
 71
     3
 72
     8
 73
     4
 74
     0
 42
0.00000001
 43
0.00000001
 40
0.0
 40
0.0
 40
0.0
 40
0.0
 40
1.0
 40
1.0
 40
1.0
 40
1.0
 10
420.7295753671408
 20
455.1116839826582
 30
0.0
 10
421.7618869215663
 20
455.1331554345513
 30
0.0
 10
422.8341014510778
 20
455.1011293761363
 30
0.0
 10
423.9626742431274
 20
454.9935443719383
 30
0.0
  0
LINE
  5
6A
330
1F
100
AcDbEntity
  8
0
  6
CONTINUOUS
 62
     7
100
AcDbLine
 10
420.7295753671
 20
455.1116839827
 30
0.0
 11
401.0273547205
 21
454.7018897873
 31
0.0
  0
ELLIPSE
  5
6B
330
1F
100
AcDbEntity
  8
0
  6
CONTINUOUS
 62
     7
100
AcDbEllipse
 10
404.0425283401
 20
451.70204596
 30
0.0
 11
3.285417958087522
 21
-2.899157751088638
 31
0.0
210
0.0
220
0.0
230
0.9999999999999998
 40
0.2347608317
 41
2.891780584539178
 42
3.644770067817586
  0
LINE
  5
6C
330
1F
100
AcDbEntity
  8
0
  6
CONTINUOUS
 62
     7
100
AcDbLine
 10
397.931575848
 20
453.9677699592
 30
0.0
 11
400.8361247912
 21
453.869943303
 31
0.0
  0
SPLINE
  5
6D
330
1F
100
AcDbEntity
  8
0
  6
CONTINUOUS
 62
     7
100
AcDbSpline
210
0.0
220
0.0
230
1.0
 70
     8
 71
     3
 72
     8
 73
     4
 74
     0
 42
0.00000001
 43
0.00000001
 40
0.0
 40
0.0
 40
0.0
 40
0.0
 40
1.0
 40
1.0
 40
1.0
 40
1.0
 10
423.9626742431686
 20
412.3496354200418
 30
0.0
 10
422.8339231643102
 20
412.2420334200513
 30
0.0
 10
421.7617414682918
 20
412.2100273827643
 30
0.0
 10
420.7295753671408
 20
412.2314958093179
 30
0.0
  0
LINE
  5
6E
330
1F
100
AcDbEntity
  8
0
  6
CONTINUOUS
 62
     7
100
AcDbLine
 10
423.9626742432
 20
412.34963542
 30
0.0
 11
446.6489167604
 21
410.671589896
 31
0.0
  0
LINE
  5
6F
330
1F
100
AcDbEntity
  8
0
  6
CONTINUOUS
 62
     7
100
AcDbLine
 10
414.6489167604
 20
378.671589896
 30
0.0
 11
446.6489167604
 21
410.671589896
 31
0.0
  0
LINE
  5
70
330
1F
100
AcDbEntity
  8
0
  6
CONTINUOUS
 62
     7
100
AcDbLine
 10
400.8361247912
 20
413.4732364889
 30
0.0
 11
397.931575848
 21
413.3754098328
 31
0.0
  0
ELLIPSE
  5
71
330
1F
100
AcDbEntity
  8
0
  6
CONTINUOUS
 62
     7
100
AcDbEllipse
 10
404.0425283401
 20
415.6411338319
 30
0.0
 11
3.285417958087578
 21
2.899157751088694
 31
0.0
210
0.0
220
0.0
230
1.0
 40
0.2347608317
 41
2.638415239361986
 42
3.391404722640377
  0
LINE
  5
72
330
1F
100
AcDbEntity
  8
0
  6
CONTINUOUS
 62
     7
100
AcDbLine
 10
401.0273547205
 20
412.6412900047
 30
0.0
 11
420.7295753671
 21
412.2314958093
 31
0.0
  0
LINE
  5
73
330
1F
100
AcDbEntity
  8
0
  6
CONTINUOUS
 62
     7
100
AcDbLine
 10
327.1975291383
 20
413.4732364889
 30
0.0
 11
324.4617087297
 21
413.4732364889
 31
0.0
  0
LINE
  5
74
330
1F
100
AcDbEntity
  8
0
  6
CONTINUOUS
 62
     7
100
AcDbLine
 10
400.8361247912
 20
413.4732364889
 30
0.0
 11
398.1003043826
 21
413.4732364889
 31
0.0
  0
LINE
  5
75
330
1F
100
AcDbEntity
  8
0
  6
CONTINUOUS
 62
     7
100
AcDbLine
 10
324.4617087297
 20
453.869943303
 30
0.0
 11
327.1975291383
 21
453.869943303
 31
0.0
  0
LINE
  5
76
330
1F
100
AcDbEntity
  8
0
  6
CONTINUOUS
 62
     7
100
AcDbLine
 10
398.1003043826
 20
453.869943303
 30
0.0
 11
400.8361247912
 21
453.869943303
 31
0.0
  0
CIRCLE
  5
77
330
1F
100
AcDbEntity
  8
0
  6
CONTINUOUS
 62
     7
100
AcDbCircle
 10
307.6489167604
 20
433.671589896
 30
0.0
 40
9.300000000000011
  0
SPLINE
  5
78
330
1F
100
AcDbEntity
  8
0
  6
CONTINUOUS
 62
     7
100
AcDbSpline
210
0.0
220
0.0
230
1.0
 70
     8
 71
     3
 72
    71
 73
    67
 74
     0
 42
0.00000001
 43
0.00000001
 40
0.0
 40
0.0
 40
0.0
 40
0.0
 40
0.0078125000000008
 40
0.0078125000000008
 40
0.0156250000000015
 40
0.0156250000000015
 40
0.0312500000000018
 40
0.0312500000000018
 40
0.0625000000000011
 40
0.0625000000000011
 40
0.0937500000000004
 40
0.0937500000000004
 40
0.1249999999999997
 40
0.1249999999999997
 40
0.156249999999999
 40
0.156249999999999
 40
0.1874999999999984
 40
0.1874999999999984
 40
0.2499999999999956
 40
0.2499999999999956
 40
0.281249999999994
 40
0.281249999999994
 40
0.2968749999999936
 40
0.2968749999999936
 40
0.3124999999999932
 40
0.3124999999999932
 40
0.3749999999999916
 40
0.3749999999999916
 40
0.3906249999999919
 40
0.3906249999999919
 40
0.4062499999999922
 40
0.4062499999999922
 40
0.4374999999999921
 40
0.4374999999999921
 40
0.4999999999999915
 40
0.4999999999999915
 40
0.5156249999999918
 40
0.5156249999999918
 40
0.531249999999992
 40
0.531249999999992
 40
0.5624999999999919
 40
0.5937499999999918
 40
0.5937499999999918
 40
0.6249999999999917
 40
0.6249999999999917
 40
0.6874999999999925
 40
0.6874999999999925
 40
0.7187499999999928
 40
0.7187499999999928
 40
0.7499999999999931
 40
0.7499999999999931
 40
0.812499999999994
 40
0.812499999999994
 40
0.8437499999999944
 40
0.8437499999999944
 40
0.8749999999999949
 40
0.8749999999999949
 40
0.937499999999997
 40
0.937499999999997
 40
0.9687499999999986
 40
0.9687499999999986
 40
0.9843749999999999
 40
0.9843749999999999
 40
0.9921875
 40
0.9921875
 40
1.0
 40
1.0
 40
1.0
 40
1.0
 10
417.8610159996427
 20
454.7018897873014
 30
0.0
 10
418.032677051873
 20
454.7018719289057
 30
0.0
 10
418.2076577431474
 20
454.6997044463173
 30
0.0
 10
418.5533650454711
 20
454.6911136515246
 30
0.0
 10
418.7259080324009
 20
454.6846901436215
 30
0.0
 10
419.2426124374998
 20
454.6590862316562
 30
0.0
 10
419.5858498646005
 20
454.6335763070916
 30
0.0
 10
420.6119041900382
 20
454.5319888037047
 30
0.0
 10
421.2910718352634
 20
454.4309131104516
 30
0.0
 10
422.6396625918439
 20
454.1620096554602
 30
0.0
 10
423.3100792860924
 20
453.9938814134866
 30
0.0
 10
424.6367175762787
 20
453.5901311298818
 30
0.0
 10
425.2854761368166
 20
453.3568899916824
 30
0.0
 10
426.5546423862584
 20
452.829335066729
 30
0.0
 10
427.1750483821579
 20
452.5350176329569
 30
0.0
 10
428.3874407955639
 20
451.885162108805
 30
0.0
 10
428.9811174738063
 20
451.5284807109015
 30
0.0
 10
430.7069911567488
 20
450.3712661955616
 30
0.0
 10
431.7641552380923
 20
449.4991104464297
 30
0.0
 10
433.214657966988
 20
448.0451215527542
 30
0.0
 10
433.6754533444561
 20
447.5359882547206
 30
0.0
 10
434.3317035918761
 20
446.7346295455241
 30
0.0
 10
434.545182898809
 20
446.4604300191198
 30
0.0
 10
434.9566432244567
 20
445.9040646189396
 30
0.0
 10
435.1547397569343
 20
445.6218529813904
 30
0.0
 10
436.1077681535102
 20
444.1910268886356
 30
0.0
 10
436.7514013479658
 20
442.9836703521633
 30
0.0
 10
437.4078771775224
 20
441.3963274601192
 30
0.0
 10
437.5317026744431
 20
441.0749164830092
 30
0.0
 10
437.7641519850906
 20
440.4240712695413
 30
0.0
 10
437.8729776782636
 20
440.0938589000086
 30
0.0
 10
438.1731608290031
 20
439.1011967133634
 30
0.0
 10
438.3393099020778
 20
438.4343417517454
 30
0.0
 10
438.7387021088131
 20
436.4189646368972
 30
0.0
 10
438.8738374179479
 20
435.0557718920164
 30
0.0
 10
438.8739022889555
 20
433.3265312751716
 30
0.0
 10
438.8653261775597
 20
432.9790154281031
 30
0.0
 10
438.8312691608626
 20
432.2890543317236
 30
0.0
 10
438.8058121233926
 20
431.9456849215958
 30
0.0
 10
438.7045816470965
 20
430.9203286316213
 30
0.0
 10
438.5034329165244
 20
429.5658364117392
 30
0.0
 10
438.1715343484828
 20
428.2363374090449
 30
0.0
 10
437.7731711781346
 20
426.9195433126675
 30
0.0
 10
437.5391437728206
 20
426.263950437415
 30
0.0
 10
436.7474222256978
 20
424.3504931078169
 30
0.0
 10
436.1021929266342
 20
423.1430720130513
 30
0.0
 10
434.9618840430695
 20
421.4321411407007
 30
0.0
 10
434.5528327262031
 20
420.8786496167171
 30
0.0
 10
433.6748922834205
 20
419.8064318717732
 30
0.0
 10
433.2107555216938
 20
419.2938067569336
 30
0.0
 10
431.7563020637103
 20
417.8368821278629
 30
0.0
 10
430.6999386779123
 20
416.9671329525732
 30
0.0
 10
428.9838243298399
 20
415.8165400173261
 30
0.0
 10
428.3866869986453
 20
415.4575268223628
 30
0.0
 10
427.1716833980806
 20
414.8064456032166
 30
0.0
 10
426.5518763886426
 20
414.5126937203647
 30
0.0
 10
424.6563259493153
 20
413.7247731721914
 30
0.0
 10
423.343773689948
 20
413.3228114333086
 30
0.0
 10
421.3031581139782
 20
412.9140666814631
 30
0.0
 10
420.6195025078496
 20
412.8120957473482
 30
0.0
 10
419.5889163202343
 20
412.7098316147932
 30
0.0
 10
419.2445355486336
 20
412.6842079713467
 30
0.0
 10
418.726681358929
 20
412.6585184582589
 30
0.0
 10
418.5538493597918
 20
412.6520805780306
 30
0.0
 10
418.207755478642
 20
412.6434753760014
 30
0.0
 10
418.0326770518741
 20
412.6413078630692
 30
0.0
 10
417.8610159996427
 20
412.6412900046749
 30
0.0
  0
LINE
  5
79
330
1F
100
AcDbEntity
  8
0
  6
CONTINUOUS
 62
     7
100
AcDbLine
 10
417.8610159996
 20
412.6412900047
 30
0.0
 11
417.8610159996
 21
415.6411338319
 31
0.0
  0
SPLINE
  5
7A
330
1F
100
AcDbEntity
  8
0
  6
CONTINUOUS
 62
     7
100
AcDbSpline
210
0.0
220
0.0
230
1.0
 70
     8
 71
     3
 72
    53
 73
    49
 74
     0
 42
0.00000001
 43
0.00000001
 40
0.0
 40
0.0
 40
0.0
 40
0.0
 40
0.0624999999999991
 40
0.0624999999999991
 40
0.0937499999999986
 40
0.0937499999999986
 40
0.1249999999999982
 40
0.1249999999999982
 40
0.1874999999999973
 40
0.1874999999999973
 40
0.2187499999999968
 40
0.2187499999999968
 40
0.2499999999999964
 40
0.2499999999999964
 40
0.3124999999999968
 40
0.3124999999999968
 40
0.3437499999999965
 40
0.3437499999999965
 40
0.3749999999999961
 40
0.4062499999999958
 40
0.4062499999999958
 40
0.4374999999999954
 40
0.4374999999999954
 40
0.4999999999999941
 40
0.4999999999999941
 40
0.5312499999999938
 40
0.5312499999999938
 40
0.5624999999999934
 40
0.5624999999999934
 40
0.6249999999999928
 40
0.6249999999999928
 40
0.6562499999999925
 40
0.6562499999999925
 40
0.6874999999999921
 40
0.6874999999999921
 40
0.7499999999999922
 40
0.7499999999999922
 40
0.7812499999999929
 40
0.7812499999999929
 40
0.8124999999999936
 40
0.8124999999999936
 40
0.8437499999999942
 40
0.8437499999999942
 40
0.8749999999999949
 40
0.8749999999999949
 40
0.9374999999999974
 40
0.9374999999999974
 40
1.0
 40
1.0
 40
1.0
 40
1.0
 10
417.8610159996427
 20
415.6411338319477
 30
0.0
 10
419.0518410096232
 20
415.6411338319477
 30
0.0
 10
420.2227538727084
 20
415.7580456734722
 30
0.0
 10
421.9504778638401
 20
416.1016009848124
 30
0.0
 10
422.5215761312463
 20
416.2443591869351
 30
0.0
 10
423.6539338690147
 20
416.5876429372564
 30
0.0
 10
424.2167101084372
 20
416.7891312845619
 30
0.0
 10
425.853712623888
 20
417.4679868053361
 30
0.0
 10
426.8889033517736
 20
418.0218670836038
 30
0.0
 10
428.3582340806528
 20
419.0032790965404
 30
0.0
 10
428.835609168004
 20
419.3570290849892
 30
0.0
 10
429.754033804425
 20
420.1111081041178
 30
0.0
 10
430.1910912777629
 20
420.5078741313194
 30
0.0
 10
431.4378756444611
 20
421.7555028815276
 30
0.0
 10
432.1838238382909
 20
422.6631537088248
 30
0.0
 10
433.1718386484783
 20
424.1411890472913
 30
0.0
 10
433.4785550800555
 20
424.653216118607
 30
0.0
 10
434.0344582497063
 20
425.69390887154
 30
0.0
 10
434.5366776263278
 20
426.7566844230856
 30
0.0
 10
434.9331498742557
 20
427.8629589976146
 30
0.0
 10
435.2760277929854
 20
428.9912795698587
 30
0.0
 10
435.4212313474129
 20
429.5695776456429
 30
0.0
 10
435.768460606773
 20
431.3145097048771
 30
0.0
 10
435.8830449284952
 20
432.4839977031007
 30
0.0
 10
435.884224702644
 20
434.2472827012025
 30
0.0
 10
435.8559638854758
 20
434.8365640530422
 30
0.0
 10
435.7403886882677
 20
436.0182586973129
 30
0.0
 10
435.6531381386082
 20
436.6069995667606
 30
0.0
 10
435.3088178488396
 20
438.3408939261058
 30
0.0
 10
434.9690375892062
 20
439.464604312729
 30
0.0
 10
434.293071071343
 20
441.1015646065325
 30
0.0
 10
434.0381620831117
 20
441.641909590535
 30
0.0
 10
433.4806004206561
 20
442.6865577311548
 30
0.0
 10
433.1779716264905
 20
443.1917917227746
 30
0.0
 10
432.2002542468381
 20
444.6574509648644
 30
0.0
 10
431.4560162360446
 20
445.5683219149127
 30
0.0
 10
430.1955962628591
 20
446.8313890286109
 30
0.0
 10
429.7565772174551
 20
447.2295988427512
 30
0.0
 10
428.8470224387639
 20
447.977158463793
 30
0.0
 10
428.3756801562699
 20
448.3273131176792
 30
0.0
 10
427.4001289389667
 20
448.9807473987283
 30
0.0
 10
426.8959210229444
 20
449.2840284789034
 30
0.0
 10
425.8539486929881
 20
449.8427317419962
 30
0.0
 10
425.31374298344
 20
450.0989079862948
 30
0.0
 10
423.675740764658
 20
450.7787969449318
 30
0.0
 10
422.5523285346918
 20
451.1203007756449
 30
0.0
 10
420.2434659024983
 20
451.5825844734559
 30
0.0
 10
419.05184087828
 20
451.7020459600284
 30
0.0
 10
417.8610159996427
 20
451.7020459600285
 30
0.0
  0
LINE
  5
7B
330
1F
100
AcDbEntity
  8
0
  6
CONTINUOUS
 62
     7
100
AcDbLine
 10
417.8610159996
 20
454.7018897873
 30
0.0
 11
417.8610159996
 21
451.70204596
 31
0.0
  0
LINE
  5
7C
330
1F
100
AcDbEntity
  8
0
  6
CONTINUOUS
 62
     7
100
AcDbLine
 10
326.0653430773
 20
451.70204596
 30
0.0
 11
307.4368175213
 21
451.70204596
 31
0.0
  0
LINE
  5
7D
330
1F
100
AcDbEntity
  8
0
  6
CONTINUOUS
 62
     7
100
AcDbLine
 10
307.4368175213
 20
451.70204596
 30
0.0
 11
307.4368175213
 21
454.7018897873
 31
0.0
  0
LINE
  5
7E
330
1F
100
AcDbEntity
  8
0
  6
CONTINUOUS
 62
     7
100
AcDbLine
 10
307.4368175213
 20
454.7018897873
 30
0.0
 11
324.2704788004
 21
454.7018897873
 31
0.0
  0
SPLINE
  5
7F
330
1F
100
AcDbEntity
  8
0
  6
CONTINUOUS
 62
     7
100
AcDbSpline
210
0.0
220
0.0
230
1.0
 70
     8
 71
     3
 72
    53
 73
    49
 74
     0
 42
0.00000001
 43
0.00000001
 40
0.0
 40
0.0
 40
0.0
 40
0.0
 40
0.0625000000000006
 40
0.0625000000000006
 40
0.093750000000001
 40
0.093750000000001
 40
0.1250000000000013
 40
0.1250000000000013
 40
0.1875000000000021
 40
0.1875000000000021
 40
0.2187500000000021
 40
0.2187500000000021
 40
0.2500000000000021
 40
0.2500000000000021
 40
0.3125000000000021
 40
0.3125000000000021
 40
0.3437500000000022
 40
0.3437500000000022
 40
0.3750000000000022
 40
0.4062500000000022
 40
0.4062500000000022
 40
0.4375000000000022
 40
0.4375000000000022
 40
0.5000000000000014
 40
0.5000000000000014
 40
0.5312500000000016
 40
0.5312500000000016
 40
0.5625000000000016
 40
0.5625000000000016
 40
0.6250000000000019
 40
0.6250000000000019
 40
0.656250000000002
 40
0.656250000000002
 40
0.6875000000000021
 40
0.6875000000000021
 40
0.750000000000002
 40
0.750000000000002
 40
0.7812500000000019
 40
0.7812500000000019
 40
0.8125000000000017
 40
0.8125000000000017
 40
0.8437500000000016
 40
0.8437500000000016
 40
0.8750000000000013
 40
0.8750000000000013
 40
0.9375000000000008
 40
0.9375000000000008
 40
1.0
 40
1.0
 40
1.0
 40
1.0
 10
307.4368175212568
 20
451.7020459600285
 30
0.0
 10
306.2459925112761
 20
451.7020459600285
 30
0.0
 10
305.0750796481911
 20
451.5851341185039
 30
0.0
 10
303.3473556570594
 20
451.2415788071638
 30
0.0
 10
302.7762573896531
 20
451.0988206050412
 30
0.0
 10
301.6438996518847
 20
450.7555368547197
 30
0.0
 10
301.0811234124623
 20
450.5540485074143
 30
0.0
 10
299.4441208970114
 20
449.8751929866402
 30
0.0
 10
298.4089301691259
 20
449.3213127083724
 30
0.0
 10
296.9395994402465
 20
448.3399006954358
 30
0.0
 10
296.4622243528954
 20
447.9861507069871
 30
0.0
 10
295.5437997164744
 20
447.2320716878584
 30
0.0
 10
295.1067422431366
 20
446.8353056606568
 30
0.0
 10
293.8599578764384
 20
445.5876769104487
 30
0.0
 10
293.1140096826085
 20
444.6800260831515
 30
0.0
 10
292.1259948724211
 20
443.2019907446849
 30
0.0
 10
291.819278440844
 20
442.6899636733693
 30
0.0
 10
291.2633752711931
 20
441.6492709204363
 30
0.0
 10
290.7611558945717
 20
440.5864953688906
 30
0.0
 10
290.3646836466438
 20
439.4802207943616
 30
0.0
 10
290.0218057279141
 20
438.3519002221175
 30
0.0
 10
289.8766021734865
 20
437.7736021463332
 30
0.0
 10
289.5293729141263
 20
436.0286700870992
 30
0.0
 10
289.4147885924042
 20
434.8591820888755
 30
0.0
 10
289.4136088182555
 20
433.0958970907737
 30
0.0
 10
289.4418696354236
 20
432.506615738934
 30
0.0
 10
289.5574448326317
 20
431.3249210946634
 30
0.0
 10
289.6446953822913
 20
430.7361802252157
 30
0.0
 10
289.9890156720599
 20
429.0022858658705
 30
0.0
 10
290.3287959316934
 20
427.8785754792473
 30
0.0
 10
291.0047624495564
 20
426.2416151854437
 30
0.0
 10
291.2596714377877
 20
425.7012702014413
 30
0.0
 10
291.8172331002433
 20
424.6566220608215
 30
0.0
 10
292.1198618944089
 20
424.1513880692017
 30
0.0
 10
293.0975792740614
 20
422.6857288271119
 30
0.0
 10
293.8418172848548
 20
421.7748578770635
 30
0.0
 10
295.1022372580403
 20
420.5117907633653
 30
0.0
 10
295.5412563034443
 20
420.113580949225
 30
0.0
 10
296.4508110821355
 20
419.3660213281831
 30
0.0
 10
296.9221533646296
 20
419.015866674297
 30
0.0
 10
297.8977045819327
 20
418.362432393248
 30
0.0
 10
298.4019124979551
 20
418.0591513130728
 30
0.0
 10
299.4438848279113
 20
417.50044804998
 30
0.0
 10
299.9840905374595
 20
417.2442718056815
 30
0.0
 10
301.6220927562413
 20
416.5643828470444
 30
0.0
 10
302.7455049862077
 20
416.2228790163313
 30
0.0
 10
305.0543676184012
 20
415.7605953185202
 30
0.0
 10
306.2459926426193
 20
415.6411338319477
 30
0.0
 10
307.4368175212568
 20
415.6411338319477
 30
0.0
  0
LINE
  5
80
330
1F
100
AcDbEntity
  8
0
  6
CONTINUOUS
 62
     7
100
AcDbLine
 10
307.4368175213
 20
415.6411338319
 30
0.0
 11
307.4368175213
 21
412.6412900047
 31
0.0
  0
SPLINE
  5
81
330
1F
100
AcDbEntity
  8
0
  6
CONTINUOUS
 62
     7
100
AcDbSpline
210
0.0
220
0.0
230
1.0
 70
     8
 71
     3
 72
    71
 73
    67
 74
     0
 42
0.00000001
 43
0.00000001
 40
0.0
 40
0.0
 40
0.0
 40
0.0
 40
0.0078124999999998
 40
0.0078124999999998
 40
0.0156249999999997
 40
0.0156249999999997
 40
0.0312499999999997
 40
0.0312499999999997
 40
0.0624999999999997
 40
0.0624999999999997
 40
0.0937499999999997
 40
0.0937499999999997
 40
0.1249999999999997
 40
0.1249999999999997
 40
0.1562499999999997
 40
0.1562499999999997
 40
0.1874999999999996
 40
0.1874999999999996
 40
0.2499999999999998
 40
0.2499999999999998
 40
0.2812500000000001
 40
0.2812500000000001
 40
0.2968750000000001
 40
0.2968750000000001
 40
0.3125000000000002
 40
0.3125000000000002
 40
0.3750000000000004
 40
0.3750000000000004
 40
0.3906250000000006
 40
0.3906250000000006
 40
0.4062500000000007
 40
0.4062500000000007
 40
0.4375000000000011
 40
0.4375000000000011
 40
0.500000000000002
 40
0.500000000000002
 40
0.5156250000000021
 40
0.5156250000000021
 40
0.5312500000000022
 40
0.5312500000000022
 40
0.5625000000000018
 40
0.5937500000000012
 40
0.5937500000000012
 40
0.6250000000000008
 40
0.6250000000000008
 40
0.6874999999999999
 40
0.6874999999999999
 40
0.7187499999999998
 40
0.7187499999999998
 40
0.7499999999999996
 40
0.7499999999999996
 40
0.8124999999999993
 40
0.8124999999999993
 40
0.8437499999999994
 40
0.8437499999999994
 40
0.8749999999999994
 40
0.8749999999999994
 40
0.9374999999999998
 40
0.9374999999999998
 40
0.96875
 40
0.96875
 40
0.9843749999999999
 40
0.9843749999999999
 40
0.9921874999999999
 40
0.9921874999999999
 40
1.0
 40
1.0
 40
1.0
 40
1.0
 10
307.4368175212568
 20
412.6412900046749
 30
0.0
 10
307.265156469025
 20
412.6413081082505
 30
0.0
 10
307.0901757777521
 20
412.6434753456589
 30
0.0
 10
306.7444684754284
 20
412.6520661404516
 30
0.0
 10
306.5719254884985
 20
412.6584896483548
 30
0.0
 10
306.0552210833995
 20
412.6840935603199
 30
0.0
 10
305.7119836562989
 20
412.7096034848847
 30
0.0
 10
304.6859293308612
 20
412.8111909882716
 30
0.0
 10
304.006761685636
 20
412.9122666815246
 30
0.0
 10
302.6581709290555
 20
413.181170136516
 30
0.0
 10
301.9877542348069
 20
413.3492983784896
 30
0.0
 10
300.6611159446208
 20
413.7530486620944
 30
0.0
 10
300.0123573840829
 20
413.9862898002938
 30
0.0
 10
298.7431911346409
 20
414.5138447252472
 30
0.0
 10
298.1227851387417
 20
414.8081621590194
 30
0.0
 10
296.9103927253356
 20
415.4580176831712
 30
0.0
 10
296.3167160470932
 20
415.8146990810748
 30
0.0
 10
294.5908423641507
 20
416.9719135964146
 30
0.0
 10
293.533678282807
 20
417.8440693455465
 30
0.0
 10
292.0831755539114
 20
419.2980582392221
 30
0.0
 10
291.6223801764434
 20
419.8071915372557
 30
0.0
 10
290.9661299290234
 20
420.6085502464522
 30
0.0
 10
290.7526506220904
 20
420.8827497728566
 30
0.0
 10
290.3411902964427
 20
421.4391151730367
 30
0.0
 10
290.1430937639651
 20
421.7213268105858
 30
0.0
 10
289.1900653673893
 20
423.1521529033406
 30
0.0
 10
288.5464321729337
 20
424.3595094398129
 30
0.0
 10
287.8899563433771
 20
425.946852331857
 30
0.0
 10
287.7661308464563
 20
426.2682633089671
 30
0.0
 10
287.5336815358088
 20
426.919108522435
 30
0.0
 10
287.424855842636
 20
427.2493208919677
 30
0.0
 10
287.1246726918963
 20
428.2419830786128
 30
0.0
 10
286.9585236188216
 20
428.9088380402309
 30
0.0
 10
286.5591314120864
 20
430.924215155079
 30
0.0
 10
286.4239961029515
 20
432.2874078999599
 30
0.0
 10
286.4239312319439
 20
434.0166485168048
 30
0.0
 10
286.4325073433398
 20
434.3641643638731
 30
0.0
 10
286.4665643600369
 20
435.0541254602526
 30
0.0
 10
286.4920213975068
 20
435.3974948703805
 30
0.0
 10
286.593251873803
 20
436.4228511603549
 30
0.0
 10
286.7944012959264
 20
437.7773432480445
 30
0.0
 10
287.1262991724167
 20
439.1068423829313
 30
0.0
 10
287.5246623427649
 20
440.4236364793089
 30
0.0
 10
287.7586897480789
 20
441.0792293545613
 30
0.0
 10
288.5504112952017
 20
442.9926866841593
 30
0.0
 10
289.1956405942653
 20
444.200107778925
 30
0.0
 10
290.33594947783
 20
445.9110386512756
 30
0.0
 10
290.7450007946964
 20
446.4645301752591
 30
0.0
 10
291.6229412374789
 20
447.5367479202031
 30
0.0
 10
292.0870779992057
 20
448.0493730350427
 30
0.0
 10
293.5415314571893
 20
449.5062976641133
 30
0.0
 10
294.5978948429872
 20
450.376046839403
 30
0.0
 10
296.3140091910597
 20
451.5266397746501
 30
0.0
 10
296.9111465222542
 20
451.8856529696135
 30
0.0
 10
298.1261501228189
 20
452.5367341887597
 30
0.0
 10
298.7459571322569
 20
452.8304860716116
 30
0.0
 10
300.6415075715843
 20
453.6184066197849
 30
0.0
 10
301.9540598309516
 20
454.0203683586677
 30
0.0
 10
303.9946754069214
 20
454.4291131105132
 30
0.0
 10
304.67833101305
 20
454.5310840446281
 30
0.0
 10
305.7089172006652
 20
454.633348177183
 30
0.0
 10
306.0532979722659
 20
454.6589718206294
 30
0.0
 10
306.5711521619705
 20
454.6846613337174
 30
0.0
 10
306.7439841611077
 20
454.6910992139456
 30
0.0
 10
307.0900780422574
 20
454.6997044159748
 30
0.0
 10
307.265156469025
 20
454.7018716837654
 30
0.0
 10
307.4368175212568
 20
454.7018897873014
 30
0.0
  0
CIRCLE
  5
82
330
1F
100
AcDbEntity
  8
0
  6
CONTINUOUS
 62
     7
100
AcDbCircle
 10
417.6489167604
 20
433.671589896
 30
0.0
 40
9.299999999999955
  0
LINE
  5
83
330
1F
100
AcDbEntity
  8
0
  6
CONTINUOUS
 62
     7
100
AcDbLine
 10
307.4368175213
 20
415.6411338319
 30
0.0
 11
326.0653430773
 21
415.6411338319
 31
0.0
  0
CIRCLE
  5
84
330
1F
100
AcDbEntity
  8
0
  6
CONTINUOUS
 62
     7
100
AcDbCircle
 10
307.6489167604
 20
433.671589896
 30
0.0
 40
11.50000000000011
  0
CIRCLE
  5
85
330
1F
100
AcDbEntity
  8
0
  6
CONTINUOUS
 62
     7
100
AcDbCircle
 10
417.6489167604
 20
433.671589896
 30
0.0
 40
10.97819926235445
  0
LINE
  5
86
330
1F
100
AcDbEntity
  8
0
  6
CONTINUOUS
 62
     7
100
AcDbLine
 10
417.8610159996
 20
451.70204596
 30
0.0
 11
399.2324904436
 21
451.70204596
 31
0.0
  0
LINE
  5
87
330
1F
100
AcDbEntity
  8
0
  6
CONTINUOUS
 62
     7
100
AcDbLine
 10
399.2324904436
 20
415.6411338319
 30
0.0
 11
417.8610159996
 21
415.6411338319
 31
0.0
  0
CIRCLE
  5
88
330
1F
100
AcDbEntity
  8
0
  6
CONTINUOUS
 62
     7
100
AcDbCircle
 10
417.6489167604
 20
433.671589896
 30
0.0
 40
11.49999999999994
  0
LINE
  5
89
330
1F
100
AcDbEntity
  8
0
  6
CONTINUOUS
 62
     7
100
AcDbLine
 10
417.8610159996
 20
412.6412900047
 30
0.0
 11
401.0273547205
 21
412.6412900047
 31
0.0
  0
LINE
  5
8A
330
1F
100
AcDbEntity
  8
0
  6
CONTINUOUS
 62
     7
100
AcDbLine
 10
401.0273547205
 20
454.7018897873
 30
0.0
 11
417.8610159996
 21
454.7018897873
 31
0.0
  0
LINE
  5
8B
330
1F
100
AcDbEntity
  8
0
  6
CONTINUOUS
 62
     7
100
AcDbLine
 10
324.2704788004
 20
412.6412900047
 30
0.0
 11
307.4368175213
 21
412.6412900047
 31
0.0
  0
CIRCLE
  5
8C
330
1F
100
AcDbEntity
  8
0
  6
CONTINUOUS
 62
     7
100
AcDbCircle
 10
307.6489167604
 20
433.671589896
 30
0.0
 40
10.97819926235462
  0
SPLINE
  5
8D
330
1F
100
AcDbEntity
  8
0
  6
CONTINUOUS
 62
     7
100
AcDbSpline
210
0.0
220
0.0
230
1.0
 70
     8
 71
     3
 72
    42
 73
    38
 74
     0
 42
0.00000001
 43
0.00000001
 40
0.0
 40
0.0
 40
0.0
 40
0.0
 40
0.1250000000000009
 40
0.1250000000000009
 40
0.1875000000000011
 40
0.1875000000000011
 40
0.2500000000000013
 40
0.2500000000000013
 40
0.3750000000000014
 40
0.3750000000000014
 40
0.5000000000000014
 40
0.5000000000000014
 40
0.5625000000000016
 40
0.5625000000000016
 40
0.6250000000000016
 40
0.6250000000000016
 40
0.6875000000000016
 40
0.6875000000000016
 40
0.7500000000000016
 40
0.7500000000000016
 40
0.8125000000000016
 40
0.8125000000000016
 40
0.8437500000000014
 40
0.8437500000000014
 40
0.8750000000000013
 40
0.8750000000000013
 40
0.9062500000000012
 40
0.9062500000000012
 40
0.9218750000000011
 40
0.9218750000000011
 40
0.937500000000001
 40
0.937500000000001
 40
0.9687500000000006
 40
0.9687500000000006
 40
0.9843750000000003
 40
0.9843750000000003
 40
1.0
 40
1.0
 40
1.0
 40
1.0
 10
301.335159277735
 20
412.3496354200414
 30
0.0
 10
300.2583254828693
 20
412.4451411314286
 30
0.0
 10
299.1828737794137
 20
412.5993503256182
 30
0.0
 10
297.571894010848
 20
412.9240137520692
 30
0.0
 10
297.0352682318616
 20
413.0478432624221
 30
0.0
 10
295.96278917929
 20
413.3283139750307
 30
0.0
 10
295.4266137449309
 20
413.4850720502999
 30
0.0
 10
293.8235966315091
 20
414.0063786924216
 30
0.0
 10
292.7612283238327
 20
414.4216754572043
 30
0.0
 10
290.6512458255006
 20
415.4107097209944
 30
0.0
 10
289.6035850681054
 20
415.9839471515543
 30
0.0
 10
288.0461506696975
 20
416.9947550511631
 30
0.0
 10
287.529366471645
 20
417.3570409197751
 30
0.0
 10
286.5013903898005
 20
418.1416671066294
 30
0.0
 10
285.9897527753704
 20
418.5644360906816
 30
0.0
 10
284.9799418560866
 20
419.4777020755317
 30
0.0
 10
284.4810489176257
 20
419.968534200556
 30
0.0
 10
283.4985297339255
 20
421.0370351785117
 30
0.0
 10
283.0140376506627
 20
421.6158399264405
 30
0.0
 10
282.0769187464423
 20
422.8753023850554
 30
0.0
 10
281.6229732085764
 20
423.556444817264
 30
0.0
 10
280.9736152833026
 20
424.6891867055884
 30
0.0
 10
280.7624771191269
 20
425.0854634680935
 30
0.0
 10
280.3536908069468
 20
425.9254743646837
 30
0.0
 10
280.155340809688
 20
426.3711406568791
 30
0.0
 10
279.7836295472753
 20
427.3070009613461
 30
0.0
 10
279.609494585097
 20
427.7983090179133
 30
0.0
 10
279.3711792936033
 20
428.5809215381927
 30
0.0
 10
279.2952947366622
 20
428.8506369209057
 30
0.0
 10
279.1542816905994
 20
429.4008071440826
 30
0.0
 10
279.0891035012023
 20
429.6812038215768
 30
0.0
 10
278.9111609487245
 20
430.539930509473
 30
0.0
 10
278.8158034588955
 20
431.1356126154521
 30
0.0
 10
278.7167065054145
 20
432.0729367831954
 30
0.0
 10
278.6911384041179
 20
432.3936046421682
 30
0.0
 10
278.6573892345452
 20
433.0316920336654
 30
0.0
 10
278.6489167604495
 20
433.3513375397422
 30
0.0
 10
278.6489167604498
 20
433.6715898960027
 30
0.0
  0
SPLINE
  5
8E
330
1F
100
AcDbEntity
  8
0
  6
CONTINUOUS
 62
     7
100
AcDbSpline
210
0.0
220
0.0
230
1.0
 70
     8
 71
     3
 72
    40
 73
    36
 74
     0
 42
0.00000001
 43
0.00000001
 40
0.0
 40
0.0
 40
0.0
 40
0.0
 40
0.015625
 40
0.015625
 40
0.03125
 40
0.03125
 40
0.046875
 40
0.046875
 40
0.0625
 40
0.0625
 40
0.09375
 40
0.09375
 40
0.125
 40
0.125
 40
0.1875
 40
0.1875
 40
0.21875
 40
0.21875
 40
0.2500000000000001
 40
0.2500000000000001
 40
0.3124999999999999
 40
0.3124999999999999
 40
0.3749999999999997
 40
0.3749999999999997
 40
0.4999999999999996
 40
0.4999999999999996
 40
0.5624999999999997
 40
0.5624999999999997
 40
0.6249999999999999
 40
0.6249999999999999
 40
0.7499999999999998
 40
0.7499999999999998
 40
0.8749999999999999
 40
0.8749999999999999
 40
1.0
 40
1.0
 40
1.0
 40
1.0
 10
278.6489167604498
 20
433.6715898960027
 30
0.0
 10
278.64891676045
 20
433.9929706383587
 30
0.0
 10
278.6574488124711
 20
434.3149624982323
 30
0.0
 10
278.6918265879194
 20
434.9601863285487
 30
0.0
 10
278.7175318362396
 20
435.2795974341547
 30
0.0
 10
278.7839664201135
 20
435.9048356918032
 30
0.0
 10
278.8247628862815
 20
436.211957526551
 30
0.0
 10
278.9202327356479
 20
436.8161360502318
 30
0.0
 10
278.9751508000802
 20
437.1143212029235
 30
0.0
 10
279.157462162231
 20
437.9869718851351
 30
0.0
 10
279.3004613569537
 20
438.5329492558566
 30
0.0
 10
279.6185229149168
 20
439.5714266237433
 30
0.0
 10
279.7936830238448
 20
440.0637635932696
 30
0.0
 10
280.357641406357
 20
441.4765978950111
 30
0.0
 10
280.7707929443891
 20
442.302950542854
 30
0.0
 10
281.4239452005618
 20
443.4380908231596
 30
0.0
 10
281.6474624010729
 20
443.798398662544
 30
0.0
 10
282.1041331265884
 20
444.4889873315467
 30
0.0
 10
282.3377920707428
 20
444.8198951530403
 30
0.0
 10
283.0476028102769
 20
445.7693524018277
 30
0.0
 10
283.5298256854276
 20
446.3421391009301
 30
0.0
 10
284.5072516310594
 20
447.4010626415113
 30
0.0
 10
285.0025119958375
 20
447.8868170124223
 30
0.0
 10
286.5036448215748
 20
449.2415989754907
 30
0.0
 10
287.5246521898151
 20
450.0095928368253
 30
0.0
 10
289.0776602989375
 20
451.0180790928529
 30
0.0
 10
289.5989895032148
 20
451.329809793588
 30
0.0
 10
290.648130602944
 20
451.9099957085958
 30
0.0
 10
291.1762675538699
 20
452.1785410266157
 30
0.0
 10
292.7629988208101
 20
452.9223901443212
 30
0.0
 10
293.8259593428348
 20
453.337612789988
 30
0.0
 10
295.9605668618807
 20
454.0317077508201
 30
0.0
 10
297.0328721518393
 20
454.3104879584846
 30
0.0
 10
299.1824380776039
 20
454.7437897151038
 30
0.0
 10
300.2582938119057
 20
454.8980358516113
 30
0.0
 10
301.3351592777452
 20
454.9935443719357
 30
0.0
  0
LINE
  5
8F
330
1F
100
AcDbEntity
  8
0
  6
CONTINUOUS
 62
     7
100
AcDbLine
 10
304.5682581538
 20
455.1116839827
 30
0.0
 11
307.4368175213
 21
454.7018897873
 31
0.0
  0
LINE
  5
90
330
1F
100
AcDbEntity
  8
0
  6
CONTINUOUS
 62
     7
100
AcDbLine
 10
304.5682581538
 20
412.2314958093
 30
0.0
 11
307.4368175213
 21
412.6412900047
 31
0.0
  0
SPLINE
  5
91
330
1F
100
AcDbEntity
  8
0
  6
CONTINUOUS
 62
     7
100
AcDbSpline
210
0.0
220
0.0
230
1.0
 70
     8
 71
     3
 72
    42
 73
    38
 74
     0
 42
0.00000001
 43
0.00000001
 40
0.0
 40
0.0
 40
0.0
 40
0.0
 40
0.1249999999999994
 40
0.1249999999999994
 40
0.1874999999999992
 40
0.1874999999999992
 40
0.2499999999999991
 40
0.2499999999999991
 40
0.3749999999999994
 40
0.3749999999999994
 40
0.4999999999999998
 40
0.4999999999999998
 40
0.5624999999999997
 40
0.5624999999999997
 40
0.6249999999999996
 40
0.6249999999999996
 40
0.6874999999999994
 40
0.6874999999999994
 40
0.7499999999999993
 40
0.7499999999999993
 40
0.8124999999999994
 40
0.8124999999999994
 40
0.8437499999999991
 40
0.8437499999999991
 40
0.8749999999999989
 40
0.8749999999999989
 40
0.9062499999999986
 40
0.9062499999999986
 40
0.9218749999999988
 40
0.9218749999999988
 40
0.9374999999999989
 40
0.9374999999999989
 40
0.9687499999999991
 40
0.9687499999999991
 40
0.9843749999999997
 40
0.9843749999999997
 40
1.0
 40
1.0
 40
1.0
 40
1.0
 10
423.9626742431306
 20
454.9935443719379
 30
0.0
 10
425.0395080379978
 20
454.8980386605517
 30
0.0
 10
426.1149597414547
 20
454.7438294663631
 30
0.0
 10
427.7259395100227
 20
454.4191660399133
 30
0.0
 10
428.2625652890098
 20
454.2953365295609
 30
0.0
 10
429.3350443415828
 20
454.014865816953
 30
0.0
 10
429.8712197759427
 20
453.8581077416842
 30
0.0
 10
431.4742368893668
 20
453.3368010995633
 30
0.0
 10
432.5366051970445
 20
452.9215043347812
 30
0.0
 10
434.6465876953797
 20
451.9324700709919
 30
0.0
 10
435.6942484527763
 20
451.3592326404324
 30
0.0
 10
437.2516828511863
 20
450.3484247408238
 30
0.0
 10
437.7684670492397
 20
449.9861388722119
 30
0.0
 10
438.7964431310855
 20
449.2015126853576
 30
0.0
 10
439.3080807455164
 20
448.7787437013055
 30
0.0
 10
440.3178916648018
 20
447.8654777164551
 30
0.0
 10
440.8167846032633
 20
447.3746455914309
 30
0.0
 10
441.799303786965
 20
446.3061446134748
 30
0.0
 10
442.2837958702286
 20
445.727339865546
 30
0.0
 10
443.2209147744505
 20
444.4678774069305
 30
0.0
 10
443.6748603123172
 20
443.7867349747215
 30
0.0
 10
444.3242182375921
 20
442.6539930863966
 30
0.0
 10
444.5353564017682
 20
442.2577163238912
 30
0.0
 10
444.944142713949
 20
441.4177054273006
 30
0.0
 10
445.1424927112081
 20
440.972039135105
 30
0.0
 10
445.5142039736215
 20
440.0361788306372
 30
0.0
 10
445.6883389358003
 20
439.5448707740696
 30
0.0
 10
445.9266542272943
 20
438.7622582537894
 30
0.0
 10
446.0025387842356
 20
438.4925428710763
 30
0.0
 10
446.1435518302988
 20
437.9423726478987
 30
0.0
 10
446.2087300196961
 20
437.6619759704043
 30
0.0
 10
446.3866725721743
 20
436.803249282507
 30
0.0
 10
446.4820300620036
 20
436.2075671765274
 30
0.0
 10
446.5811270154848
 20
435.2702430087829
 30
0.0
 10
446.6066951167815
 20
434.9495751498098
 30
0.0
 10
446.6404442863542
 20
434.3114877583117
 30
0.0
 10
446.6489167604499
 20
433.9918422522345
 30
0.0
 10
446.6489167604497
 20
433.6715898959736
 30
0.0
  0
SPLINE
  5
92
330
1F
100
AcDbEntity
  8
0
  6
CONTINUOUS
 62
     7
100
AcDbSpline
210
0.0
220
0.0
230
1.0
 70
     8
 71
     3
 72
    40
 73
    36
 74
     0
 42
0.00000001
 43
0.00000001
 40
0.0
 40
0.0
 40
0.0
 40
0.0
 40
0.0156250000000004
 40
0.0156250000000004
 40
0.0312500000000008
 40
0.0312500000000008
 40
0.0468750000000012
 40
0.0468750000000012
 40
0.0625000000000017
 40
0.0625000000000017
 40
0.0937500000000019
 40
0.0937500000000019
 40
0.1250000000000022
 40
0.1250000000000022
 40
0.1875000000000026
 40
0.1875000000000026
 40
0.2187500000000028
 40
0.2187500000000028
 40
0.250000000000003
 40
0.250000000000003
 40
0.3125000000000027
 40
0.3125000000000027
 40
0.3750000000000023
 40
0.3750000000000023
 40
0.5000000000000014
 40
0.5000000000000014
 40
0.5625000000000014
 40
0.5625000000000014
 40
0.6250000000000014
 40
0.6250000000000014
 40
0.750000000000001
 40
0.750000000000001
 40
0.8750000000000006
 40
0.8750000000000006
 40
1.0
 40
1.0
 40
1.0
 40
1.0
 10
446.6489167604497
 20
433.6715898959736
 30
0.0
 10
446.6489167604495
 20
433.3502091536176
 30
0.0
 10
446.6403847084284
 20
433.0282172937444
 30
0.0
 10
446.6060069329801
 20
432.3829934634282
 30
0.0
 10
446.5803016846599
 20
432.0635823578223
 30
0.0
 10
446.5138671007861
 20
431.4383441001741
 30
0.0
 10
446.4730706346181
 20
431.1312222654266
 30
0.0
 10
446.3776007852518
 20
430.527043741746
 30
0.0
 10
446.3226827208196
 20
430.2288585890544
 30
0.0
 10
446.1403713586691
 20
429.356207906843
 30
0.0
 10
445.9973721639462
 20
428.8102305361218
 30
0.0
 10
445.6793106059835
 20
427.7717531682354
 30
0.0
 10
445.5041504970555
 20
427.2794161987092
 30
0.0
 10
444.9401921145438
 20
425.8665818969681
 30
0.0
 10
444.5270405765119
 20
425.0402292491253
 30
0.0
 10
443.8738883203397
 20
423.9050889688201
 30
0.0
 10
443.6503711198289
 20
423.5447811294356
 30
0.0
 10
443.1937003943136
 20
422.8541924604332
 30
0.0
 10
442.9600414501594
 20
422.5232846389396
 30
0.0
 10
442.2502307106256
 20
421.5738273901521
 30
0.0
 10
441.7680078354752
 20
421.0010406910499
 30
0.0
 10
440.7905818898441
 20
419.9421171504687
 30
0.0
 10
440.2953215250662
 20
419.4563627795578
 30
0.0
 10
438.7941886993295
 20
418.1015808164896
 30
0.0
 10
437.7731813310899
 20
417.3335869551549
 30
0.0
 10
436.2201732219683
 20
416.3251006991272
 30
0.0
 10
435.6988440176913
 20
416.0133699983921
 30
0.0
 10
434.6497029179625
 20
415.4331840833841
 30
0.0
 10
434.121565967037
 20
415.1646387653641
 30
0.0
 10
432.5348347000975
 20
414.4207896476584
 30
0.0
 10
431.4718741780733
 20
414.0055670019914
 30
0.0
 10
429.3372666590286
 20
413.3114720411589
 30
0.0
 10
428.2649613690706
 20
413.032691833494
 30
0.0
 10
426.1153954433071
 20
412.5993900768743
 30
0.0
 10
425.0395397090057
 20
412.4451439403664
 30
0.0
 10
423.9626742431668
 20
412.3496354200416
 30
0.0
  0
LINE
  5
93
330
1F
100
AcDbEntity
  8
0
  6
CONTINUOUS
 62
     7
100
AcDbLine
 10
420.7295753671
 20
412.2314958093
 30
0.0
 11
417.8610159996
 21
412.6412900047
 31
0.0
  0
LINE
  5
94
330
1F
100
AcDbEntity
  8
0
  6
CONTINUOUS
 62
     7
100
AcDbLine
 10
420.7295753671
 20
455.1116839827
 30
0.0
 11
417.8610159996
 21
454.7018897873
 31
0.0
  0
LINE
  5
95
330
1F
100
AcDbEntity
  8
0
  6
CONTINUOUS
 62
     7
100
AcDbLine
 10
278.6489167604
 20
456.671589896
 30
0.0
 11
278.6489167604
 21
433.671589896
 31
0.0
  0
LINE
  5
96
330
1F
100
AcDbEntity
  8
0
  6
CONTINUOUS
 62
     7
100
AcDbLine
 10
446.6489167604
 20
410.671589896
 30
0.0
 11
446.6489167604
 21
433.671589896
 31
0.0
  0
LINE
  5
97
330
1F
100
AcDbEntity
  8
0
  6
CONTINUOUS
 62
     7
100
AcDbLine
 10
446.6489167604
 20
433.671589896
 30
0.0
 11
446.6489167604
 21
456.671589896
 31
0.0
  0
LINE
  5
98
330
1F
100
AcDbEntity
  8
0
  6
CONTINUOUS
 62
     7
100
AcDbLine
 10
278.6489167604
 20
433.671589896
 30
0.0
 11
278.6489167604
 21
410.671589896
 31
0.0
  0
CIRCLE
  5
99
330
1F
100
AcDbEntity
  8
0
  6
CONTINUOUS
 62
     7
100
AcDbCircle
 10
432.6489167604
 20
484.671589896
 30
0.0
 40
7.5
  0
CIRCLE
  5
9A
330
1F
100
AcDbEntity
  8
0
  6
CONTINUOUS
 62
     7
100
AcDbCircle
 10
432.6489167604
 20
484.671589896
 30
0.0
 40
3.500000000000057
  0
CIRCLE
  5
9B
330
1F
100
AcDbEntity
  8
0
  6
CONTINUOUS
 62
     7
100
AcDbCircle
 10
292.6489167604
 20
484.671589896
 30
0.0
 40
3.499999999999943
  0
CIRCLE
  5
9C
330
1F
100
AcDbEntity
  8
0
  6
CONTINUOUS
 62
     7
100
AcDbCircle
 10
292.6489167604
 20
484.671589896
 30
0.0
 40
7.5
  0
CIRCLE
  5
9D
330
1F
100
AcDbEntity
  8
0
  6
CONTINUOUS
 62
     7
100
AcDbCircle
 10
292.6489167604
 20
382.671589896
 30
0.0
 40
7.500000000000057
  0
CIRCLE
  5
9E
330
1F
100
AcDbEntity
  8
0
  6
CONTINUOUS
 62
     7
100
AcDbCircle
 10
292.6489167604
 20
382.671589896
 30
0.0
 40
3.500000000000057
  0
CIRCLE
  5
9F
330
1F
100
AcDbEntity
  8
0
  6
CONTINUOUS
 62
     7
100
AcDbCircle
 10
432.6489167604
 20
382.671589896
 30
0.0
 40
3.499999999999943
  0
CIRCLE
  5
A0
330
1F
100
AcDbEntity
  8
0
  6
CONTINUOUS
 62
     7
100
AcDbCircle
 10
432.6489167604
 20
382.671589896
 30
0.0
 40
7.500000000000057
  0
LINE
  5
A1
330
1F
100
AcDbEntity
  8
0
  6
CONTINUOUS
 62
     7
100
AcDbLine
 10
459.9942162221
 20
369.8262904344
 30
0.0
 11
459.9942162221
 21
497.5168893576
 31
0.0
  0
LINE
  5
A2
330
1F
100
AcDbEntity
  8
0
  6
CONTINUOUS
 62
     7
100
AcDbLine
 10
265.3036172988
 20
369.8262904344
 30
0.0
 11
459.9942162221
 21
369.8262904344
 31
0.0
  0
LINE
  5
A3
330
1F
100
AcDbEntity
  8
0
  6
CONTINUOUS
 62
     7
100
AcDbLine
 10
265.3036172988
 20
497.5168893576
 30
0.0
 11
265.3036172988
 21
369.8262904344
 31
0.0
  0
LINE
  5
A4
330
1F
100
AcDbEntity
  8
0
  6
CONTINUOUS
 62
     7
100
AcDbLine
 10
459.9942162221
 20
497.5168893576
 30
0.0
 11
265.3036172988
 21
497.5168893576
 31
0.0
  0
LINE
  5
A5
330
1F
100
AcDbEntity
  8
0
  6
CONTINUOUS
 62
     7
100
AcDbLine
 10
459.9942162221
 20
497.5168893576
 30
0.0
 11
461.1489167604
 21
498.671589896
 31
0.0
  0
LINE
  5
A6
330
1F
100
AcDbEntity
  8
0
  6
CONTINUOUS
 62
     7
100
AcDbLine
 10
461.1489167604
 20
498.671589896
 30
0.0
 11
461.1489167604
 21
368.671589896
 31
0.0
  0
LINE
  5
A7
330
1F
100
AcDbEntity
  8
0
  6
CONTINUOUS
 62
     7
100
AcDbLine
 10
461.1489167604
 20
368.671589896
 30
0.0
 11
459.9942162221
 21
369.8262904344
 31
0.0
  0
LINE
  5
A8
330
1F
100
AcDbEntity
  8
0
  6
CONTINUOUS
 62
     7
100
AcDbLine
 10
265.3036172988
 20
497.5168893576
 30
0.0
 11
264.1489167604
 21
498.671589896
 31
0.0
  0
LINE
  5
A9
330
1F
100
AcDbEntity
  8
0
  6
CONTINUOUS
 62
     7
100
AcDbLine
 10
264.1489167604
 20
498.671589896
 30
0.0
 11
461.1489167604
 21
498.671589896
 31
0.0
  0
LINE
  5
AA
330
1F
100
AcDbEntity
  8
0
  6
CONTINUOUS
 62
     7
100
AcDbLine
 10
461.1489167604
 20
368.671589896
 30
0.0
 11
264.1489167604
 21
368.671589896
 31
0.0
  0
LINE
  5
AB
330
1F
100
AcDbEntity
  8
0
  6
CONTINUOUS
 62
     7
100
AcDbLine
 10
264.1489167604
 20
368.671589896
 30
0.0
 11
265.3036172988
 21
369.8262904344
 31
0.0
  0
LINE
  5
AC
330
1F
100
AcDbEntity
  8
0
  6
CONTINUOUS
 62
     7
100
AcDbLine
 10
264.1489167604
 20
368.671589896
 30
0.0
 11
264.1489167604
 21
498.671589896
 31
0.0
  0
LINE
  5
AD
330
1F
100
AcDbEntity
  8
0
  6
CONTINUOUS
 62
     7
100
AcDbLine
 10
298.6489167604
 20
499.371589896
 30
0.0
 11
298.6489167604
 21
498.671589896
 31
0.0
  0
LINE
  5
AE
330
1F
100
AcDbEntity
  8
0
  6
CONTINUOUS
 62
     7
100
AcDbLine
 10
426.6489167604
 20
499.371589896
 30
0.0
 11
298.6489167604
 21
499.371589896
 31
0.0
  0
LINE
  5
AF
330
1F
100
AcDbEntity
  8
0
  6
CONTINUOUS
 62
     7
100
AcDbLine
 10
426.6489167604
 20
498.671589896
 30
0.0
 11
426.6489167604
 21
499.371589896
 31
0.0
  0
LINE
  5
B0
330
1F
100
AcDbEntity
  8
0
  6
CONTINUOUS
 62
     7
100
AcDbLine
 10
182.3759004157
 20
390.171589896
 30
0.0
 11
181.8759004157
 21
390.171589896
 31
0.0
  0
LINE
  5
B1
330
1F
100
AcDbEntity
  8
0
  6
CONTINUOUS
 62
     7
100
AcDbLine
 10
181.8759004157
 20
375.171589896
 30
0.0
 11
182.3759004157
 21
375.171589896
 31
0.0
  0
LINE
  5
B2
330
1F
100
AcDbEntity
  8
0
  6
CONTINUOUS
 62
     7
100
AcDbLine
 10
182.3759004157
 20
492.171589896
 30
0.0
 11
181.8759004157
 21
492.171589896
 31
0.0
  0
LINE
  5
B3
330
1F
100
AcDbEntity
  8
0
  6
CONTINUOUS
 62
     7
100
AcDbLine
 10
181.8759004157
 20
477.171589896
 30
0.0
 11
182.3759004157
 21
477.171589896
 31
0.0
  0
LINE
  5
B4
330
1F
100
AcDbEntity
  8
0
  6
CONTINUOUS
 62
     7
100
AcDbLine
 10
103.6714569409
 20
474.7938730097
 30
0.0
 11
43.30609079
 21
473.7401916242
 31
0.0
  0
LINE
  5
B5
330
1F
100
AcDbEntity
  8
0
  6
CONTINUOUS
 62
     7
100
AcDbLine
 10
43.30609079
 20
393.6029881678
 30
0.0
 11
103.6714569409
 21
392.5493067822
 31
0.0
  0
ARC
  5
B6
330
1F
100
AcDbEntity
  8
0
  6
CONTINUOUS
 62
     7
100
AcDbCircle
 10
43.3759004157
 20
397.6023789485
 30
0.0
 40
4.000000000000007
100
AcDbArc
 50
180.0
 51
269.0
  0
ARC
  5
B7
330
1F
100
AcDbEntity
  8
0
  6
CONTINUOUS
 62
     7
100
AcDbCircle
 10
43.3759004157
 20
469.7408008435
 30
0.0
 40
4.000000000000048
100
AcDbArc
 50
91.0
 51
180.0
  0
LINE
  5
B8
330
1F
100
AcDbEntity
  8
0
  6
CONTINUOUS
 62
     7
100
AcDbLine
 10
184.3759004157
 20
498.671589896
 30
0.0
 11
184.3759004157
 21
368.671589896
 31
0.0
  0
LINE
  5
B9
330
1F
100
AcDbEntity
  8
0
  6
CONTINUOUS
 62
     7
100
AcDbLine
 10
184.3759004157
 20
498.671589896
 30
0.0
 11
189.3759004157
 21
498.671589896
 31
0.0
  0
LINE
  5
BA
330
1F
100
AcDbEntity
  8
0
  6
CONTINUOUS
 62
     7
100
AcDbLine
 10
184.3759004157
 20
368.671589896
 30
0.0
 11
189.3759004157
 21
368.671589896
 31
0.0
  0
LINE
  5
BB
330
1F
100
AcDbEntity
  8
0
  6
CONTINUOUS
 62
     7
100
AcDbLine
 10
189.3759004157
 20
368.671589896
 30
0.0
 11
189.3759004157
 21
498.671589896
 31
0.0
  0
LINE
  5
BC
330
1F
100
AcDbEntity
  8
0
  6
CONTINUOUS
 62
     7
100
AcDbLine
 10
182.3759004157
 20
369.8262904344
 30
0.0
 11
182.3759004157
 21
497.5168893576
 31
0.0
  0
LINE
  5
BD
330
1F
100
AcDbEntity
  8
0
  6
CONTINUOUS
 62
     7
100
AcDbLine
 10
182.3759004157
 20
497.5168893576
 30
0.0
 11
184.3759004157
 21
498.671589896
 31
0.0
  0
LINE
  5
BE
330
1F
100
AcDbEntity
  8
0
  6
CONTINUOUS
 62
     7
100
AcDbLine
 10
184.3759004157
 20
368.671589896
 30
0.0
 11
182.3759004157
 21
369.8262904344
 31
0.0
  0
SPLINE
  5
BF
330
1F
100
AcDbEntity
  8
0
  6
CONTINUOUS
 62
     7
100
AcDbSpline
210
0.0
220
0.0
230
1.0
 70
     8
 71
     3
 72
     8
 73
     4
 74
     0
 42
0.00000001
 43
0.00000001
 40
0.0
 40
0.0
 40
0.0
 40
0.0
 40
1.0
 40
1.0
 40
1.0
 40
1.0
 10
127.5051209093994
 20
455.1116839826582
 30
0.0
 10
129.6093231949274
 20
455.1331554345513
 30
0.0
 10
131.6863798044351
 20
455.1011293761363
 30
0.0
 10
133.7250963369772
 20
454.9935443719383
 30
0.0
  0
SPLINE
  5
C0
330
1F
100
AcDbEntity
  8
0
  6
CONTINUOUS
 62
     7
100
AcDbSpline
210
0.0
220
0.0
230
1.0
 70
     8
 71
     3
 72
    42
 73
    38
 74
     0
 42
0.00000001
 43
0.00000001
 40
0.0
 40
0.0
 40
0.0
 40
0.0
 40
0.1249999999999994
 40
0.1249999999999994
 40
0.1874999999999992
 40
0.1874999999999992
 40
0.2499999999999991
 40
0.2499999999999991
 40
0.3749999999999994
 40
0.3749999999999994
 40
0.4999999999999998
 40
0.4999999999999998
 40
0.5624999999999997
 40
0.5624999999999997
 40
0.6249999999999996
 40
0.6249999999999996
 40
0.6874999999999994
 40
0.6874999999999994
 40
0.7499999999999993
 40
0.7499999999999993
 40
0.8124999999999994
 40
0.8124999999999994
 40
0.8437499999999991
 40
0.8437499999999991
 40
0.8749999999999989
 40
0.8749999999999989
 40
0.9062499999999986
 40
0.9062499999999986
 40
0.9218749999999988
 40
0.9218749999999988
 40
0.9374999999999989
 40
0.9374999999999989
 40
0.9687499999999991
 40
0.9687499999999991
 40
0.9843749999999997
 40
0.9843749999999997
 40
1.0
 40
1.0
 40
1.0
 40
1.0
 10
133.7250963369752
 20
454.9935443719379
 30
0.0
 10
136.0343738623065
 20
454.8980386605517
 30
0.0
 10
138.3406874830438
 20
454.7438294663631
 30
0.0
 10
141.7954447455385
 20
454.4191660399133
 30
0.0
 10
142.9462424423002
 20
454.2953365295609
 30
0.0
 10
145.2461811926446
 20
454.014865816953
 30
0.0
 10
146.3960131222364
 20
453.8581077416842
 30
0.0
 10
149.8336944156694
 20
453.3368010995633
 30
0.0
 10
152.1119506036148
 20
452.9215043347812
 30
0.0
 10
156.6368226734483
 20
451.9324700709919
 30
0.0
 10
158.8835384180316
 20
451.3592326404324
 30
0.0
 10
162.2234672636617
 20
450.3484247408238
 30
0.0
 10
163.3317145527969
 20
449.9861388722119
 30
0.0
 10
165.5362163744337
 20
449.2015126853576
 30
0.0
 10
166.6334267793738
 20
448.7787437013055
 30
0.0
 10
168.7989732841872
 20
447.8654777164551
 30
0.0
 10
169.8688526433115
 20
447.3746455914309
 30
0.0
 10
171.9758718322933
 20
446.3061446134748
 30
0.0
 10
173.0148684577841
 20
445.727339865546
 30
0.0
 10
175.0245264332282
 20
444.4678774069305
 30
0.0
 10
175.9980157807177
 20
443.7867349747215
 30
0.0
 10
177.3905683453575
 20
442.6539930863966
 30
0.0
 10
177.8433555996169
 20
442.2577163238912
 30
0.0
 10
178.7200006750982
 20
441.4177054273006
 30
0.0
 10
179.1453636169036
 20
440.972039135105
 30
0.0
 10
179.9425009915804
 20
440.0361788306372
 30
0.0
 10
180.3159346230752
 20
439.5448707740696
 30
0.0
 10
180.8270034149475
 20
438.7622582537894
 30
0.0
 10
180.9897383724681
 20
438.4925428710763
 30
0.0
 10
181.2921418256327
 20
437.9423726478987
 30
0.0
 10
181.4319169038613
 20
437.6619759704043
 30
0.0
 10
181.813515939104
 20
436.803249282507
 30
0.0
 10
182.0180107359651
 20
436.2075671765274
 30
0.0
 10
182.2305248385071
 20
435.2702430087829
 30
0.0
 10
182.2853558086822
 20
434.9495751498098
 30
0.0
 10
182.3577311363924
 20
434.3114877583117
 30
0.0
 10
182.3759004157244
 20
433.9918422522345
 30
0.0
 10
182.3759004157239
 20
433.6715898959736
 30
0.0
  0
SPLINE
  5
C1
330
1F
100
AcDbEntity
  8
0
  6
CONTINUOUS
 62
     7
100
AcDbSpline
210
0.0
220
0.0
230
1.0
 70
     8
 71
     3
 72
    40
 73
    36
 74
     0
 42
0.00000001
 43
0.00000001
 40
0.0
 40
0.0
 40
0.0
 40
0.0
 40
0.0156250000000004
 40
0.0156250000000004
 40
0.0312500000000008
 40
0.0312500000000008
 40
0.0468750000000012
 40
0.0468750000000012
 40
0.0625000000000017
 40
0.0625000000000017
 40
0.0937500000000019
 40
0.0937500000000019
 40
0.1250000000000022
 40
0.1250000000000022
 40
0.1875000000000026
 40
0.1875000000000026
 40
0.2187500000000028
 40
0.2187500000000028
 40
0.250000000000003
 40
0.250000000000003
 40
0.3125000000000027
 40
0.3125000000000027
 40
0.3750000000000023
 40
0.3750000000000023
 40
0.5000000000000014
 40
0.5000000000000014
 40
0.5625000000000014
 40
0.5625000000000014
 40
0.6250000000000014
 40
0.6250000000000014
 40
0.750000000000001
 40
0.750000000000001
 40
0.8750000000000006
 40
0.8750000000000006
 40
1.0
 40
1.0
 40
1.0
 40
1.0
 10
182.3759004157239
 20
433.6715898959736
 30
0.0
 10
182.3759004157234
 20
433.3502091536176
 30
0.0
 10
182.3576033711181
 20
433.0282172937444
 30
0.0
 10
182.2838799937576
 20
432.3829934634282
 30
0.0
 10
182.2287549108416
 20
432.0635823578223
 30
0.0
 10
182.086285485963
 20
431.4383441001741
 30
0.0
 10
181.9987971819333
 20
431.1312222654266
 30
0.0
 10
181.7940614292673
 20
430.527043741746
 30
0.0
 10
181.6762892600313
 20
430.2288585890544
 30
0.0
 10
181.285321282212
 20
429.356207906843
 30
0.0
 10
180.9786585195017
 20
428.8102305361218
 30
0.0
 10
180.2965733073024
 20
427.7717531682354
 30
0.0
 10
179.9209412415095
 20
427.2794161987092
 30
0.0
 10
178.7115285873336
 20
425.8665818969681
 30
0.0
 10
177.825522254805
 20
425.0402292491253
 30
0.0
 10
176.4248327212973
 20
423.9050889688201
 30
0.0
 10
175.9454985379486
 20
423.5447811294356
 30
0.0
 10
174.966165006687
 20
422.8541924604332
 30
0.0
 10
174.4650817839095
 20
422.5232846389396
 30
0.0
 10
172.9428877407272
 20
421.5738273901521
 30
0.0
 10
171.9087574477392
 20
421.0010406910499
 30
0.0
 10
169.8126607430474
 20
419.9421171504687
 30
0.0
 10
168.7505714633272
 20
419.4563627795578
 30
0.0
 10
165.5313817299312
 20
418.1015808164896
 30
0.0
 10
163.3418243628499
 20
417.3335869551549
 30
0.0
 10
160.0113877252312
 20
416.3251006991272
 30
0.0
 10
158.8933936387954
 20
416.0133699983921
 30
0.0
 10
156.6435032898363
 20
415.4331840833841
 30
0.0
 10
155.5109099435997
 20
415.1646387653641
 30
0.0
 10
152.1081537606591
 20
414.4207896476584
 30
0.0
 10
149.82862756495
 20
414.0055670019914
 30
0.0
 10
145.2509469677866
 20
413.3114720411589
 30
0.0
 10
142.9513808525724
 20
413.032691833494
 30
0.0
 10
138.3416218486811
 20
412.5993900768743
 30
0.0
 10
136.034441781002
 20
412.4451439403664
 30
0.0
 10
133.7250963370527
 20
412.3496354200416
 30
0.0
  0
SPLINE
  5
C2
330
1F
100
AcDbEntity
  8
0
  6
CONTINUOUS
 62
     7
100
AcDbSpline
210
0.0
220
0.0
230
1.0
 70
     8
 71
     3
 72
     8
 73
     4
 74
     0
 42
0.00000001
 43
0.00000001
 40
0.0
 40
0.0
 40
0.0
 40
0.0
 40
1.0
 40
1.0
 40
1.0
 40
1.0
 10
133.7250963370516
 20
412.3496354200418
 30
0.0
 10
131.6860577373259
 20
412.2420334200513
 30
0.0
 10
129.6090267116504
 20
412.2100273827643
 30
0.0
 10
127.5051209093993
 20
412.2314958093179
 30
0.0
  0
LINE
  5
C3
330
1F
100
AcDbEntity
  8
0
  6
CONTINUOUS
 62
     7
100
AcDbLine
 10
127.5051209094
 20
412.2314958093
 30
0.0
 11
87.3452897644
 21
412.6412900047
 31
0.0
  0
SPLINE
  5
C4
330
1F
100
AcDbEntity
  8
0
  6
CONTINUOUS
 62
     7
100
AcDbSpline
210
0.0
220
0.0
230
1.0
 70
     8
 71
     3
 72
    71
 73
    67
 74
     0
 42
0.00000001
 43
0.00000001
 40
0.0
 40
0.0
 40
0.0
 40
0.0
 40
0.0078125000000008
 40
0.0078125000000008
 40
0.0156250000000015
 40
0.0156250000000015
 40
0.0312500000000018
 40
0.0312500000000018
 40
0.0625000000000011
 40
0.0625000000000011
 40
0.0937500000000004
 40
0.0937500000000004
 40
0.1249999999999997
 40
0.1249999999999997
 40
0.156249999999999
 40
0.156249999999999
 40
0.1874999999999984
 40
0.1874999999999984
 40
0.2499999999999956
 40
0.2499999999999956
 40
0.281249999999994
 40
0.281249999999994
 40
0.2968749999999936
 40
0.2968749999999936
 40
0.3124999999999932
 40
0.3124999999999932
 40
0.3749999999999916
 40
0.3749999999999916
 40
0.3906249999999919
 40
0.3906249999999919
 40
0.4062499999999922
 40
0.4062499999999922
 40
0.4374999999999921
 40
0.4374999999999921
 40
0.4999999999999915
 40
0.4999999999999915
 40
0.5156249999999918
 40
0.5156249999999918
 40
0.531249999999992
 40
0.531249999999992
 40
0.5624999999999919
 40
0.5937499999999918
 40
0.5937499999999918
 40
0.6249999999999917
 40
0.6249999999999917
 40
0.6874999999999925
 40
0.6874999999999925
 40
0.7187499999999928
 40
0.7187499999999928
 40
0.7499999999999931
 40
0.7499999999999931
 40
0.812499999999994
 40
0.812499999999994
 40
0.8437499999999944
 40
0.8437499999999944
 40
0.8749999999999949
 40
0.8749999999999949
 40
0.937499999999997
 40
0.937499999999997
 40
0.9687499999999986
 40
0.9687499999999986
 40
0.9843749999999999
 40
0.9843749999999999
 40
0.9921875
 40
0.9921875
 40
1.0
 40
1.0
 40
1.0
 40
1.0
 10
87.34528976442529
 20
454.7018897873014
 30
0.0
 10
87.34353964165926
 20
454.7018719289057
 30
0.0
 10
87.34175572323032
 20
454.6997044463173
 30
0.0
 10
87.33823135447236
 20
454.6911136515246
 30
0.0
 10
87.33647238850013
 20
454.6846901436215
 30
0.0
 10
87.33120509270657
 20
454.6590862316562
 30
0.0
 10
87.3277063594204
 20
454.6335763070916
 30
0.0
 10
87.31724833373958
 20
454.5319888037047
 30
0.0
 10
87.31032712951976
 20
454.4309131104516
 30
0.0
 10
87.29658729442768
 20
454.1620096554602
 30
0.0
 10
87.28975854655447
 20
453.9938814134866
 30
0.0
 10
87.27624972865935
 20
453.5901311298818
 30
0.0
 10
87.26964565052813
 20
453.3568899916824
 30
0.0
 10
87.25673059713198
 20
452.829335066729
 30
0.0
 10
87.25041963915054
 20
452.5350176329569
 30
0.0
 10
87.23809162265233
 20
451.885162108805
 30
0.0
 10
87.23205739271833
 20
451.5284807109015
 30
0.0
 10
87.21452270273925
 20
450.3712661955616
 30
0.0
 10
87.20379217038864
 20
449.4991104464297
 30
0.0
 10
87.1890810860564
 20
448.0451215527542
 30
0.0
 10
87.18440983857182
 20
447.5359882547206
 30
0.0
 10
87.1777599161548
 20
446.7346295455241
 30
0.0
 10
87.17559716547355
 20
446.4604300191198
 30
0.0
 10
87.17142952280774
 20
445.9040646189396
 30
0.0
 10
87.16942345691743
 20
445.6218529813904
 30
0.0
 10
87.159774265767
 20
444.1910268886356
 30
0.0
 10
87.15326371167083
 20
442.9836703521633
 30
0.0
 10
87.14662641683732
 20
441.3963274601192
 30
0.0
 10
87.14537467916335
 20
441.0749164830092
 30
0.0
 10
87.14302517358877
 20
440.4240712695413
 30
0.0
 10
87.14192536612347
 20
440.0938589000086
 30
0.0
 10
87.13889200471115
 20
439.1011967133634
 30
0.0
 10
87.13721352693365
 20
438.4343417517454
 30
0.0
 10
87.13317925801041
 20
436.4189646368972
 30
0.0
 10
87.13181491154877
 20
435.0557718920164
 30
0.0
 10
87.13181425649866
 20
433.3265312751716
 30
0.0
 10
87.1319008548811
 20
432.9790154281031
 30
0.0
 10
87.13224476070928
 20
432.2890543317236
 30
0.0
 10
87.13250182719086
 20
431.9456849215958
 30
0.0
 10
87.13352411038213
 20
430.9203286316213
 30
0.0
 10
87.13555551244647
 20
429.5658364117392
 30
0.0
 10
87.13890843926961
 20
428.2363374090449
 30
0.0
 10
87.142933915445
 20
426.9195433126675
 30
0.0
 10
87.14529924399983
 20
426.263950437415
 30
0.0
 10
87.15330394805055
 20
424.3504931078169
 30
0.0
 10
87.1598306956552
 20
423.1430720130513
 30
0.0
 10
87.17137608527896
 20
421.4321411407007
 30
0.0
 10
87.17551917056652
 20
420.8786496167171
 30
0.0
 10
87.18441552127496
 20
419.8064318717732
 30
0.0
 10
87.18912064937197
 20
419.2938067569336
 30
0.0
 10
87.20387184902906
 20
417.8368821278629
 30
0.0
 10
87.21459435199566
 20
416.9671329525732
 30
0.0
 10
87.23202989293785
 20
415.8165400173261
 30
0.0
 10
87.23809928195828
 20
415.4575268223628
 30
0.0
 10
87.25045386102273
 20
414.8064456032166
 30
0.0
 10
87.25675874388293
 20
414.5126937203647
 30
0.0
 10
87.27604789174003
 20
413.7247731721914
 30
0.0
 10
87.28941366509895
 20
413.3228114333086
 30
0.0
 10
87.31020396185673
 20
412.9140666814631
 30
0.0
 10
87.31717089346657
 20
412.8120957473482
 30
0.0
 10
87.32767510202835
 20
412.7098316147932
 30
0.0
 10
87.33118548900124
 20
412.6842079713467
 30
0.0
 10
87.33646450492883
 20
412.6585184582589
 30
0.0
 10
87.33822641710971
 20
412.6520805780306
 30
0.0
 10
87.34175472679249
 20
412.6434753760014
 30
0.0
 10
87.34353964177696
 20
412.6413078630692
 30
0.0
 10
87.34528976442529
 20
412.6412900046749
 30
0.0
  0
LINE
  5
C5
330
1F
100
AcDbEntity
  8
0
  6
CONTINUOUS
 62
     7
100
AcDbLine
 10
127.5051209094
 20
455.1116839827
 30
0.0
 11
87.3452897644
 21
454.7018897873
 31
0.0
  0
LINE
  5
C6
330
1F
100
AcDbEntity
  8
0
  6
CONTINUOUS
 62
     7
100
AcDbLine
 10
133.7250963371
 20
412.34963542
 30
0.0
 11
182.3759004157
 21
410.671589896
 31
0.0
  0
LINE
  5
C7
330
1F
100
AcDbEntity
  8
0
  6
CONTINUOUS
 62
     7
100
AcDbLine
 10
133.725096337
 20
454.9935443719
 30
0.0
 11
182.3759004157
 21
456.671589896
 31
0.0
  0
LINE
  5
C8
330
1F
100
AcDbEntity
  8
0
  6
CONTINUOUS
 62
     7
100
AcDbLine
 10
77.4105478899
 20
397.1798135859
 30
0.0
 11
181.8759004157
 21
378.7597533863
 31
0.0
  0
ELLIPSE
  5
C9
330
1F
100
AcDbEntity
  8
0
  6
CONTINUOUS
 62
     7
100
AcDbEllipse
 10
-25.8732782279
 20
432.3171100876
 30
0.0
 11
109.5274506480661
 21
-29.13411005054672
 31
0.0
210
0.0
220
0.0
230
0.9999999999999999
 40
0.2344776771
 41
6.000743258271716
 42
6.622008539563432
  0
LINE
  5
CA
330
1F
100
AcDbEntity
  8
0
  6
CONTINUOUS
 62
     7
100
AcDbLine
 10
85.3022029667
 20
413.4732364889
 30
0.0
 11
79.697717588
 21
413.3754098328
 31
0.0
  0
LINE
  5
CB
330
1F
100
AcDbEntity
  8
0
  6
CONTINUOUS
 62
     7
100
AcDbLine
 10
77.4105478899
 20
470.1633662061
 30
0.0
 11
181.8759004157
 21
488.5834264056
 31
0.0
  0
LINE
  5
CC
330
1F
100
AcDbEntity
  8
0
  6
CONTINUOUS
 62
     7
100
AcDbLine
 10
79.697717588
 20
453.9677699592
 30
0.0
 11
85.3022029667
 21
453.869943303
 31
0.0
  0
ELLIPSE
  5
CD
330
1F
100
AcDbEntity
  8
0
  6
CONTINUOUS
 62
     7
100
AcDbEllipse
 10
-25.8732782279
 20
435.0260697044
 30
0.0
 11
109.5274506480662
 21
29.13411005054667
 31
0.0
210
0.0
220
0.0
230
1.0
 40
0.2344776771
 41
5.94436207479585
 42
6.56562735608757
  0
LINE
  5
CE
330
1F
100
AcDbEntity
  8
0
  6
CONTINUOUS
 62
     7
100
AcDbLine
 10
181.8759004157
 20
375.171589896
 30
0.0
 11
181.8759004157
 21
390.171589896
 31
0.0
  0
LINE
  5
CF
330
1F
100
AcDbEntity
  8
0
  6
CONTINUOUS
 62
     7
100
AcDbLine
 10
181.8759004157
 20
477.171589896
 30
0.0
 11
181.8759004157
 21
492.171589896
 31
0.0
  0
ARC
  5
D0
330
1F
100
AcDbEntity
  8
0
  6
CONTINUOUS
 62
     7
100
AcDbCircle
 10
87.3759004157
 20
415.6411338319
 30
0.0
 40
3.0
100
AcDbArc
 50
180.0
 51
269.4153694793
  0
SPLINE
  5
D1
330
1F
100
AcDbEntity
  8
0
  6
CONTINUOUS
 62
     7
100
AcDbSpline
210
0.0
220
0.0
230
1.0
 70
    24
 71
     3
 72
    53
 73
    49
 74
     0
 42
0.00000001
 43
0.00000001
 40
0.0
 40
0.0
 40
0.0
 40
0.0
 40
0.0624999999999991
 40
0.0624999999999991
 40
0.0937499999999986
 40
0.0937499999999986
 40
0.1249999999999982
 40
0.1249999999999982
 40
0.1874999999999973
 40
0.1874999999999973
 40
0.2187499999999968
 40
0.2187499999999968
 40
0.2499999999999964
 40
0.2499999999999964
 40
0.3124999999999968
 40
0.3124999999999968
 40
0.3437499999999965
 40
0.3437499999999965
 40
0.3749999999999961
 40
0.4062499999999958
 40
0.4062499999999958
 40
0.4374999999999954
 40
0.4374999999999954
 40
0.4999999999999941
 40
0.4999999999999941
 40
0.5312499999999938
 40
0.5312499999999938
 40
0.5624999999999934
 40
0.5624999999999934
 40
0.6249999999999928
 40
0.6249999999999928
 40
0.6562499999999925
 40
0.6562499999999925
 40
0.6874999999999921
 40
0.6874999999999921
 40
0.7499999999999922
 40
0.7499999999999922
 40
0.7812499999999929
 40
0.7812499999999929
 40
0.8124999999999936
 40
0.8124999999999936
 40
0.8437499999999942
 40
0.8437499999999942
 40
0.8749999999999949
 40
0.8749999999999949
 40
0.9374999999999974
 40
0.9374999999999974
 40
1.0
 40
1.0
 40
1.0
 40
1.0
 10
84.37590041572399
 20
415.6411338319477
 30
0.0
 10
84.37590041572399
 20
415.6411338319477
 30
0.0
 10
84.37590041572399
 20
415.7580456734722
 30
0.0
 10
84.37590041572393
 20
416.1016009848124
 30
0.0
 10
84.37590041572395
 20
416.2443591869351
 30
0.0
 10
84.37590041572398
 20
416.5876429372564
 30
0.0
 10
84.37590041572395
 20
416.7891312845619
 30
0.0
 10
84.37590041572395
 20
417.4679868053361
 30
0.0
 10
84.37590041572395
 20
418.0218670836038
 30
0.0
 10
84.37590041572395
 20
419.0032790965404
 30
0.0
 10
84.37590041572398
 20
419.3570290849892
 30
0.0
 10
84.3759004157239
 20
420.1111081041178
 30
0.0
 10
84.3759004157239
 20
420.5078741313194
 30
0.0
 10
84.37590041572389
 20
421.7555028815276
 30
0.0
 10
84.37590041572395
 20
422.6631537088248
 30
0.0
 10
84.37590041572395
 20
424.1411890472913
 30
0.0
 10
84.37590041572398
 20
424.653216118607
 30
0.0
 10
84.37590041572398
 20
425.69390887154
 30
0.0
 10
84.37590041572395
 20
426.7566844230856
 30
0.0
 10
84.37590041572399
 20
427.8629589976146
 30
0.0
 10
84.3759004157239
 20
428.9912795698587
 30
0.0
 10
84.37590041572402
 20
429.5695776456429
 30
0.0
 10
84.37590041572402
 20
431.3145097048771
 30
0.0
 10
84.37590041572393
 20
432.4839977031007
 30
0.0
 10
84.3759004157239
 20
434.2472827012025
 30
0.0
 10
84.37590041572395
 20
434.8365640530422
 30
0.0
 10
84.37590041572395
 20
436.0182586973129
 30
0.0
 10
84.37590041572398
 20
436.6069995667606
 30
0.0
 10
84.37590041572398
 20
438.3408939261058
 30
0.0
 10
84.37590041572398
 20
439.464604312729
 30
0.0
 10
84.37590041572395
 20
441.1015646065325
 30
0.0
 10
84.37590041572398
 20
441.641909590535
 30
0.0
 10
84.37590041572398
 20
442.6865577311548
 30
0.0
 10
84.37590041572399
 20
443.1917917227746
 30
0.0
 10
84.37590041572398
 20
444.6574509648644
 30
0.0
 10
84.37590041572398
 20
445.5683219149127
 30
0.0
 10
84.37590041572399
 20
446.8313890286109
 30
0.0
 10
84.37590041572402
 20
447.2295988427512
 30
0.0
 10
84.37590041572402
 20
447.977158463793
 30
0.0
 10
84.37590041572398
 20
448.3273131176792
 30
0.0
 10
84.37590041572399
 20
448.9807473987283
 30
0.0
 10
84.37590041572395
 20
449.2840284789034
 30
0.0
 10
84.37590041572393
 20
449.8427317419962
 30
0.0
 10
84.37590041572395
 20
450.0989079862948
 30
0.0
 10
84.37590041572399
 20
450.7787969449318
 30
0.0
 10
84.37590041572395
 20
451.1203007756449
 30
0.0
 10
84.37590041572399
 20
451.5825844734559
 30
0.0
 10
84.37590041572402
 20
451.7020459600284
 30
0.0
 10
84.37590041572399
 20
451.7020459600285
 30
0.0
  0
ARC
  5
D2
330
1F
100
AcDbEntity
  8
0
  6
CONTINUOUS
 62
     7
100
AcDbCircle
 10
87.3759004157
 20
451.70204596
 30
0.0
 40
3.0
100
AcDbArc
 50
90.5846305207
 51
180.0
  0
LINE
  5
D3
330
1F
100
AcDbEntity
  8
0
  6
CONTINUOUS
 62
     7
100
AcDbLine
 10
189.3759004157
 20
498.671589896
 30
0.0
 11
189.3759004157
 21
499.371589896
 31
0.0
  0
LINE
  5
D4
330
1F
100
AcDbEntity
  8
0
  6
CONTINUOUS
 62
     7
100
AcDbLine
 10
194.3759004157
 20
499.371589896
 30
0.0
 11
189.3759004157
 21
499.371589896
 31
0.0
  0
LINE
  5
D5
330
1F
100
AcDbEntity
  8
0
  6
CONTINUOUS
 62
     7
100
AcDbLine
 10
194.3759004157
 20
494.871589896
 30
0.0
 11
194.3759004157
 21
499.371589896
 31
0.0
  0
LINE
  5
D6
330
1F
100
AcDbEntity
  8
0
  6
CONTINUOUS
 62
     7
100
AcDbLine
 10
194.3759004157
 20
494.871589896
 30
0.0
 11
189.3759004157
 21
494.871589896
 31
0.0
  0
LINE
  5
D7
330
1F
100
AcDbEntity
  8
0
  6
CONTINUOUS
 62
     7
100
AcDbLine
 10
39.3759004157
 20
397.6023789485
 30
0.0
 11
39.3759004157
 21
469.7408008435
 31
0.0
  0
LINE
  5
D8
330
1F
100
AcDbEntity
  8
0
  6
CONTINUOUS
 62
     7
100
AcDbLine
 10
43.30609079
 20
473.7401916242
 30
0.0
 11
43.30609079
 21
393.6029881678
 31
0.0
  0
LINE
  5
D9
330
1F
100
AcDbEntity
  8
0
  6
CONTINUOUS
 62
     7
100
AcDbLine
 10
300.1489167604
 20
650.7554383358
 30
0.0
 11
300.1489167604
 21
651.2554383358
 31
0.0
  0
LINE
  5
DA
330
1F
100
AcDbEntity
  8
0
  6
CONTINUOUS
 62
     7
100
AcDbLine
 10
285.1489167604
 20
651.2554383358
 30
0.0
 11
285.1489167604
 21
650.7554383358
 31
0.0
  0
LINE
  5
DB
330
1F
100
AcDbEntity
  8
0
  6
CONTINUOUS
 62
     7
100
AcDbLine
 10
440.1489167604
 20
650.7554383358
 30
0.0
 11
440.1489167604
 21
651.2554383358
 31
0.0
  0
LINE
  5
DC
330
1F
100
AcDbEntity
  8
0
  6
CONTINUOUS
 62
     7
100
AcDbLine
 10
425.1489167604
 20
651.2554383358
 30
0.0
 11
425.1489167604
 21
650.7554383358
 31
0.0
  0
LINE
  5
DD
330
1F
100
AcDbEntity
  8
0
  6
CONTINUOUS
 62
     7
100
AcDbLine
 10
403.4343946822
 20
748.7554383358
 30
0.0
 11
402.7175184886
 21
789.8252479616
 31
0.0
  0
LINE
  5
DE
330
1F
100
AcDbEntity
  8
0
  6
CONTINUOUS
 62
     7
100
AcDbLine
 10
322.5803150323
 20
789.8252479616
 30
0.0
 11
321.8634388387
 21
748.7554383358
 31
0.0
  0
ARC
  5
DF
330
1F
100
AcDbEntity
  8
0
  6
CONTINUOUS
 62
     7
100
AcDbCircle
 10
326.5797058129
 20
789.7554383358
 30
0.0
 40
4.000000000000049
100
AcDbArc
 50
90.0
 51
179.0
  0
ARC
  5
E0
330
1F
100
AcDbEntity
  8
0
  6
CONTINUOUS
 62
     7
100
AcDbCircle
 10
398.718127708
 20
789.7554383358
 30
0.0
 40
3.999999999999992
100
AcDbArc
 50
1.0
 51
90.0
  0
LINE
  5
E1
330
1F
100
AcDbEntity
  8
0
  6
CONTINUOUS
 62
     7
100
AcDbLine
 10
446.6489167604
 20
650.7554383358
 30
0.0
 11
438.8737040873
 21
746.0017935825
 31
0.0
  0
LINE
  5
E2
330
1F
100
AcDbEntity
  8
0
  6
CONTINUOUS
 62
     7
100
AcDbLine
 10
286.4241294336
 20
746.0017935825
 30
0.0
 11
278.6489167604
 21
650.7554383358
 31
0.0
  0
ARC
  5
E3
330
1F
100
AcDbEntity
  8
0
  6
CONTINUOUS
 62
     7
100
AcDbCircle
 10
289.4140025386
 20
745.7554387542
 30
0.0
 40
2.99999958158861
100
AcDbArc
 50
89.999845858
 51
175.2190449047
  0
ARC
  5
E4
330
1F
100
AcDbEntity
  8
0
  6
CONTINUOUS
 62
     7
100
AcDbCircle
 10
435.8838309819
 20
745.7554387536
 30
0.0
 40
2.999999582198198
100
AcDbArc
 50
4.7401655633
 51
90.0001541357
  0
LINE
  5
E5
330
1F
100
AcDbEntity
  8
0
  6
CONTINUOUS
 62
     7
100
AcDbLine
 10
264.1489167604
 20
648.7554383358
 30
0.0
 11
264.1489167604
 21
643.7554383358
 31
0.0
  0
LINE
  5
E6
330
1F
100
AcDbEntity
  8
0
  6
CONTINUOUS
 62
     7
100
AcDbLine
 10
461.1489167604
 20
648.7554383358
 30
0.0
 11
264.1489167604
 21
648.7554383358
 31
0.0
  0
LINE
  5
E7
330
1F
100
AcDbEntity
  8
0
  6
CONTINUOUS
 62
     7
100
AcDbLine
 10
461.1489167604
 20
648.7554383358
 30
0.0
 11
461.1489167604
 21
643.7554383358
 31
0.0
  0
LINE
  5
E8
330
1F
100
AcDbEntity
  8
0
  6
CONTINUOUS
 62
     7
100
AcDbLine
 10
264.1489167604
 20
643.7554383358
 30
0.0
 11
461.1489167604
 21
643.7554383358
 31
0.0
  0
LINE
  5
E9
330
1F
100
AcDbEntity
  8
0
  6
CONTINUOUS
 62
     7
100
AcDbLine
 10
264.1489167604
 20
648.7554383358
 30
0.0
 11
265.3036172988
 21
650.7554383358
 31
0.0
  0
LINE
  5
EA
330
1F
100
AcDbEntity
  8
0
  6
CONTINUOUS
 62
     7
100
AcDbLine
 10
265.3036172988
 20
650.7554383358
 30
0.0
 11
459.9942162221
 21
650.7554383358
 31
0.0
  0
LINE
  5
EB
330
1F
100
AcDbEntity
  8
0
  6
CONTINUOUS
 62
     7
100
AcDbLine
 10
461.1489167604
 20
648.7554383358
 30
0.0
 11
459.9942162221
 21
650.7554383358
 31
0.0
  0
LINE
  5
EC
330
1F
100
AcDbEntity
  8
0
  6
CONTINUOUS
 62
     7
100
AcDbLine
 10
292.6489167604
 20
651.2554383358
 30
0.0
 11
300.1489167604
 21
651.2554383358
 31
0.0
  0
LINE
  5
ED
330
1F
100
AcDbEntity
  8
0
  6
CONTINUOUS
 62
     7
100
AcDbLine
 10
285.1489167604
 20
651.2554383358
 30
0.0
 11
292.6489167604
 21
651.2554383358
 31
0.0
  0
LINE
  5
EE
330
1F
100
AcDbEntity
  8
0
  6
CONTINUOUS
 62
     7
100
AcDbLine
 10
432.6489167604
 20
651.2554383358
 30
0.0
 11
440.1489167604
 21
651.2554383358
 31
0.0
  0
LINE
  5
EF
330
1F
100
AcDbEntity
  8
0
  6
CONTINUOUS
 62
     7
100
AcDbLine
 10
425.1489167604
 20
651.2554383358
 30
0.0
 11
432.6489167604
 21
651.2554383358
 31
0.0
  0
LINE
  5
F0
330
1F
100
AcDbEntity
  8
0
  6
CONTINUOUS
 62
     7
100
AcDbLine
 10
344.7072668761
 20
755.7207908616
 30
0.0
 11
310.6489167604
 21
650.7554383358
 31
0.0
  0
ELLIPSE
  5
F1
330
1F
100
AcDbEntity
  8
0
  6
CONTINUOUS
 62
     7
100
AcDbEllipse
 10
362.6489167604
 20
941.6688250006
 30
0.0
 11
0.0
 21
212.2089431899254
 31
0.0
210
0.0
220
0.0
230
1.0
 40
0.1754608926
 41
2.638819676248406
 42
3.644365630931242
  0
LINE
  5
F2
330
1F
100
AcDbEntity
  8
0
  6
CONTINUOUS
 62
     7
100
AcDbLine
 10
380.5905666448
 20
755.7207908616
 30
0.0
 11
414.6489167604
 21
650.7554383358
 31
0.0
  0
ELLIPSE
  5
F3
330
1F
100
AcDbEntity
  8
0
  6
CONTINUOUS
 62
     7
100
AcDbEllipse
 10
361.2944369521
 20
859.0046169795
 30
0.0
 11
29.13411005054672
 21
109.5274506480664
 31
0.0
210
0.0
220
0.0
230
1.0
 40
0.2344776771
 41
2.927349348610732
 42
3.548614629902502
  0
LINE
  5
F4
330
1F
100
AcDbEntity
  8
0
  6
CONTINUOUS
 62
     7
100
AcDbLine
 10
301.3351592777
 20
699.4062424145
 30
0.0
 11
278.6489167604
 21
650.7554383358
 31
0.0
  0
SPLINE
  5
F5
330
1F
100
AcDbEntity
  8
0
  6
CONTINUOUS
 62
     7
100
AcDbSpline
210
0.0
220
0.0
230
1.0
 70
     8
 71
     3
 72
     8
 73
     4
 74
     0
 42
0.00000001
 43
0.00000001
 40
0.0
 40
0.0
 40
0.0
 40
0.0
 40
1.0
 40
1.0
 40
1.0
 40
1.0
 10
304.5682581537587
 20
705.6262178421346
 30
0.0
 10
303.5359465993214
 20
703.5220155565826
 30
0.0
 10
302.4637320697973
 20
701.4449589470516
 30
0.0
 10
301.3351592777335
 20
699.4062424144871
 30
0.0
  0
LINE
  5
F6
330
1F
100
AcDbEntity
  8
0
  6
CONTINUOUS
 62
     7
100
AcDbLine
 10
304.5682581538
 20
705.6262178421
 30
0.0
 11
324.2704788004
 21
745.7860489871
 31
0.0
  0
ELLIPSE
  5
F7
330
1F
100
AcDbEntity
  8
0
  6
CONTINUOUS
 62
     7
100
AcDbEllipse
 10
321.2553051808
 20
745.7554383358
 30
0.0
 11
3.030163944713877
 21
2.36496345715193
 31
0.0
210
0.0
220
0.0
230
1.0
 40
0.6091392951
 41
5.385313489649056
 42
6.138302972927403
  0
LINE
  5
F8
330
1F
100
AcDbEntity
  8
0
  6
CONTINUOUS
 62
     7
100
AcDbLine
 10
327.3662576729
 20
753.4336211635
 30
0.0
 11
324.4617087297
 21
747.8291357848
 31
0.0
  0
SPLINE
  5
F9
330
1F
100
AcDbEntity
  8
0
  6
CONTINUOUS
 62
     7
100
AcDbSpline
210
0.0
220
0.0
230
1.0
 70
     8
 71
     3
 72
     8
 73
     4
 74
     0
 42
0.00000001
 43
0.00000001
 40
0.0
 40
0.0
 40
0.0
 40
0.0
 40
1.0
 40
1.0
 40
1.0
 40
1.0
 10
423.9626742431686
 20
699.4062424144821
 30
0.0
 10
422.8339231643102
 20
701.4452810142078
 30
0.0
 10
421.7617414682918
 20
703.5223120398833
 30
0.0
 10
420.7295753671408
 20
705.6262178421345
 30
0.0
  0
LINE
  5
FA
330
1F
100
AcDbEntity
  8
0
  6
CONTINUOUS
 62
     7
100
AcDbLine
 10
423.9626742432
 20
699.4062424145
 30
0.0
 11
446.6489167604
 21
650.7554383358
 31
0.0
  0
ELLIPSE
  5
FB
330
1F
100
AcDbEntity
  8
0
  6
CONTINUOUS
 62
     7
100
AcDbEllipse
 10
364.0033965688
 20
859.0046169794
 30
0.0
 11
-29.13411005054672
 21
109.5274506480663
 31
0.0
210
0.0
220
0.0
230
1.0
 40
0.2344776771
 41
2.734570677277134
 42
3.355835958568909
  0
LINE
  5
FC
330
1F
100
AcDbEntity
  8
0
  6
CONTINUOUS
 62
     7
100
AcDbLine
 10
400.8361247912
 20
747.8291357848
 30
0.0
 11
397.931575848
 21
753.4336211635
 31
0.0
  0
ELLIPSE
  5
FD
330
1F
100
AcDbEntity
  8
0
  6
CONTINUOUS
 62
     7
100
AcDbEllipse
 10
404.0425283401
 20
745.7554383358
 30
0.0
 11
3.030163944713877
 21
-2.36496345715193
 31
0.0
210
0.0
220
0.0
230
1.0
 40
0.6091392951
 41
3.286474987842022
 42
4.039464471120352
  0
LINE
  5
FE
330
1F
100
AcDbEntity
  8
0
  6
CONTINUOUS
 62
     7
100
AcDbLine
 10
401.0273547205
 20
745.7860489871
 30
0.0
 11
420.7295753671
 21
705.6262178421
 31
0.0
  0
LINE
  5
FF
330
1F
100
AcDbEntity
  8
0
  6
CONTINUOUS
 62
     7
100
AcDbLine
 10
362.6489167604
 20
793.7554383358
 30
0.0
 11
398.718127708
 21
793.7554383358
 31
0.0
  0
LINE
  5
100
330
1F
100
AcDbEntity
  8
0
  6
CONTINUOUS
 62
     7
100
AcDbLine
 10
326.5797058129
 20
793.7554383358
 30
0.0
 11
362.6489167604
 21
793.7554383358
 31
0.0
  0
LINE
  5
101
330
1F
100
AcDbEntity
  8
0
  6
CONTINUOUS
 62
     7
100
AcDbLine
 10
420.7295753671
 20
705.6262178421
 30
0.0
 11
417.8610159996
 21
745.7860489871
 31
0.0
  0
LINE
  5
102
330
1F
100
AcDbEntity
  8
0
  6
CONTINUOUS
 62
     7
100
AcDbLine
 10
304.5682581538
 20
705.6262178421
 30
0.0
 11
307.4368175213
 21
745.7860489871
 31
0.0
  0
SPLINE
  5
103
330
1F
100
AcDbEntity
  8
0
  6
CONTINUOUS
 62
     7
100
AcDbSpline
210
0.0
220
0.0
230
1.0
 70
    24
 71
     3
 72
    17
 73
    13
 74
     0
 42
0.00000001
 43
0.00000001
 40
0.0
 40
0.0
 40
0.0
 40
0.0
 40
0.0732908766843515
 40
0.1792486109629695
 40
0.2882795926507695
 40
0.3942276350103326
 40
0.5032500571861152
 40
0.609163993492818
 40
0.7181519203355851
 40
0.8240221165338817
 40
0.9329645484039047
 40
1.0
 40
1.0
 40
1.0
 40
1.0
 10
289.4720973715274
 20
748.7554383358097
 30
0.0
 10
289.4724817948118
 20
748.7554383358097
 30
0.0
 10
289.4734219846808
 20
748.7554383358097
 30
0.0
 10
290.0643902955698
 20
748.7554383358097
 30
0.0
 10
291.1405910235053
 20
748.7554383358098
 30
0.0
 10
292.7118258345698
 20
748.7554383358097
 30
0.0
 10
294.6799783146437
 20
748.7554383358097
 30
0.0
 10
297.0314472756563
 20
748.7554383358097
 30
0.0
 10
299.6551623199471
 20
748.7554383358098
 30
0.0
 10
302.5243116671778
 20
748.7554383358097
 30
0.0
 10
305.1459538350403
 20
748.7554383358097
 30
0.0
 10
306.8048806700905
 20
748.7554383358097
 30
0.0
 10
307.4368175212568
 20
748.7554383358097
 30
0.0
  0
LINE
  5
104
330
1F
100
AcDbEntity
  8
0
  6
CONTINUOUS
 62
     7
100
AcDbLine
 10
307.4368175213
 20
748.7554383358
 30
0.0
 11
307.4368175213
 21
745.7860489871
 31
0.0
  0
LINE
  5
105
330
1F
100
AcDbEntity
  8
0
  6
CONTINUOUS
 62
     7
100
AcDbLine
 10
417.8610159996
 20
745.7860489871
 30
0.0
 11
417.8610159996
 21
748.7554383358
 31
0.0
  0
SPLINE
  5
106
330
1F
100
AcDbEntity
  8
0
  6
CONTINUOUS
 62
     7
100
AcDbSpline
210
0.0
220
0.0
230
1.0
 70
    24
 71
     3
 72
    17
 73
    13
 74
     0
 42
0.00000001
 43
0.00000001
 40
0.0
 40
0.0
 40
0.0
 40
0.0
 40
0.1083483445139854
 40
0.2166967612155983
 40
0.3250441254539267
 40
0.4333916732605235
 40
0.5417598718971475
 40
0.6501282842707092
 40
0.7585402485466383
 40
0.8669523635968244
 40
0.9754051866189234
 40
1.0
 40
1.0
 40
1.0
 40
1.0
 10
417.8610159996427
 20
748.7554383358097
 30
0.0
 10
418.8738800723517
 20
748.7554383358097
 30
0.0
 10
420.8996088925957
 20
748.7554383358097
 30
0.0
 10
423.8536824504114
 20
748.7554383358097
 30
0.0
 10
426.6341811281086
 20
748.7554383358097
 30
0.0
 10
429.1707433567661
 20
748.7554383358097
 30
0.0
 10
431.3807084481958
 20
748.7554383358097
 30
0.0
 10
433.2122620906502
 20
748.7554383358097
 30
0.0
 10
434.6107756448166
 20
748.7554383358098
 30
0.0
 10
435.5014702148011
 20
748.7554383358097
 30
0.0
 10
435.9008774694853
 20
748.7554383358097
 30
0.0
 10
435.845723613623
 20
748.7554383358097
 30
0.0
 10
435.8355280263216
 20
748.7554383358097
 30
0.0
  0
LINE
  5
107
330
1F
100
AcDbEntity
  8
0
  6
CONTINUOUS
 62
     7
100
AcDbLine
 10
417.8610159996
 20
745.7860489871
 30
0.0
 11
401.0273547205
 21
745.7860489871
 31
0.0
  0
LINE
  5
108
330
1F
100
AcDbEntity
  8
0
  6
CONTINUOUS
 62
     7
100
AcDbLine
 10
324.2704788004
 20
745.7860489871
 30
0.0
 11
307.4368175213
 21
745.7860489871
 31
0.0
  0
LINE
  5
109
330
1F
100
AcDbEntity
  8
0
  6
CONTINUOUS
 62
     7
100
AcDbLine
 10
400.356064462
 20
748.7554383358
 30
0.0
 11
417.8610159996
 21
748.7554383358
 31
0.0
  0
LINE
  5
10A
330
1F
100
AcDbEntity
  8
0
  6
CONTINUOUS
 62
     7
100
AcDbLine
 10
307.4368175213
 20
748.7554383358
 30
0.0
 11
324.9417690589
 21
748.7554383358
 31
0.0
  0
LINE
  5
10B
330
1F
100
AcDbEntity
  8
0
  6
CONTINUOUS
 62
     7
100
AcDbLine
 10
424.8290655891
 20
638.7554383358
 30
0.0
 11
426.6489167604
 21
643.7554383358
 31
0.0
  0
LINE
  5
10C
330
1F
100
AcDbEntity
  8
0
  6
CONTINUOUS
 62
     7
100
AcDbLine
 10
300.4687679318
 20
638.7554383358
 30
0.0
 11
424.8290655891
 21
638.7554383358
 31
0.0
  0
LINE
  5
10D
330
1F
100
AcDbEntity
  8
0
  6
CONTINUOUS
 62
     7
100
AcDbLine
 10
300.4687679318
 20
638.7554383358
 30
0.0
 11
298.6489167604
 21
643.7554383358
 31
0.0
  0
LINE
  5
10E
330
1F
100
AcDbEntity
  8
0
  6
CONTINUOUS
 62
     7
100
AcDbLine
 10
362.6489167604
 20
789.8252479616
 30
0.0
 11
322.5803150323
 21
789.8252479616
 31
0.0
  0
LINE
  5
10F
330
1F
100
AcDbEntity
  8
0
  6
CONTINUOUS
 62
     7
100
AcDbLine
 10
402.7175184886
 20
789.8252479616
 30
0.0
 11
362.6489167604
 21
789.8252479616
 31
0.0
  0
LWPOLYLINE
  5
110
330
1F
100
AcDbEntity
  8
0
  6
CONTINUOUS
 62
     7
100
AcDbPolyline
 90
       13
 70
   128
 43
0.0
 10
438.8419557252
 20
745.9992018794
 10
438.8696033428
 20
745.9994810854
 10
438.5092096428
 20
745.9958413799
 10
437.5431345081
 20
745.9860795778
 10
436.0524306704
 20
745.9710024211
 10
433.9940002121
 20
745.9501567688
 10
431.5417861984
 20
745.925287037
 10
428.6242010133
 20
745.8956529714
 10
425.4885064775
 20
745.8637587916
 10
422.0424663088
 20
745.8286670404
 10
417.8610759965
 20
745.7860495988
 10
417.8610159996
 20
745.7860489871
 10
417.8610159996
 20
745.7860489871
  0
SPLINE
  5
111
330
1F
100
AcDbEntity
  8
0
  6
CONTINUOUS
 62
     7
100
AcDbSpline
210
0.0
220
0.0
230
1.0
 70
     8
 71
     3
 72
    18
 73
    14
 74
     0
 42
0.00000001
 43
0.00000001
 40
0.0
 40
0.0
 40
0.0
 40
0.0
 40
0.0000018189331133
 40
0.0911825321533146
 40
0.1843035078532996
 40
0.2754841171072028
 40
0.3686038017588106
 40
0.4743809332472102
 40
0.5832222695246184
 40
0.6890596143512473
 40
0.7979624235712596
 40
0.9038667333548273
 40
1.0
 40
1.0
 40
1.0
 40
1.0
 10
307.4368175212568
 20
745.7860489871084
 30
0.0
 10
307.4367975222964
 20
745.786049191002
 30
0.0
 10
306.4342560697124
 20
745.7962703094785
 30
0.0
 10
304.4049217363672
 20
745.8169568300619
 30
0.0
 10
301.4366759761797
 20
745.8471960916214
 30
0.0
 10
298.5736793898906
 20
745.8763370848085
 30
0.0
 10
295.7746577357541
 20
745.904795040193
 30
0.0
 10
293.0941851886525
 20
745.9320099439187
 30
0.0
 10
290.7085167958153
 20
745.9561938682772
 30
0.0
 10
288.7733826004279
 20
745.9757816990411
 30
0.0
 10
287.3976153725993
 20
745.9896902751038
 30
0.0
 10
286.5585652015471
 20
745.9981651420098
 30
0.0
 10
286.488985243967
 20
745.9988676249043
 30
0.0
 10
286.4558777956722
 20
745.9992018794356
 30
0.0
  0
LINE
  5
112
330
1F
100
AcDbEntity
  8
0
  6
CONTINUOUS
 62
     7
100
AcDbLine
 10
425.1489167604
 20
228.0909509658
 30
0.0
 11
425.1489167604
 21
227.5909509658
 31
0.0
  0
LINE
  5
113
330
1F
100
AcDbEntity
  8
0
  6
CONTINUOUS
 62
     7
100
AcDbLine
 10
440.1489167604
 20
227.5909509658
 30
0.0
 11
440.1489167604
 21
228.0909509658
 31
0.0
  0
LINE
  5
114
330
1F
100
AcDbEntity
  8
0
  6
CONTINUOUS
 62
     7
100
AcDbLine
 10
285.1489167604
 20
228.0909509658
 30
0.0
 11
285.1489167604
 21
227.5909509658
 31
0.0
  0
LINE
  5
115
330
1F
100
AcDbEntity
  8
0
  6
CONTINUOUS
 62
     7
100
AcDbLine
 10
300.1489167604
 20
227.5909509658
 30
0.0
 11
300.1489167604
 21
228.0909509658
 31
0.0
  0
LINE
  5
116
330
1F
100
AcDbEntity
  8
0
  6
CONTINUOUS
 62
     7
100
AcDbLine
 10
321.8634388387
 20
130.0909509658
 30
0.0
 11
322.5803150323
 21
89.0211413401
 31
0.0
  0
LINE
  5
117
330
1F
100
AcDbEntity
  8
0
  6
CONTINUOUS
 62
     7
100
AcDbLine
 10
402.7175184886
 20
89.0211413401
 30
0.0
 11
403.4343946822
 21
130.0909509658
 31
0.0
  0
ARC
  5
118
330
1F
100
AcDbEntity
  8
0
  6
CONTINUOUS
 62
     7
100
AcDbCircle
 10
398.718127708
 20
89.0909509658
 30
0.0
 40
4.000000000000014
100
AcDbArc
 50
270.0
 51
359.0
  0
ARC
  5
119
330
1F
100
AcDbEntity
  8
0
  6
CONTINUOUS
 62
     7
100
AcDbCircle
 10
326.5797058129
 20
89.0909509658
 30
0.0
 40
4.000000000000048
100
AcDbArc
 50
181.0
 51
270.0
  0
LINE
  5
11A
330
1F
100
AcDbEntity
  8
0
  6
CONTINUOUS
 62
     7
100
AcDbLine
 10
278.6489167604
 20
228.0909509658
 30
0.0
 11
286.4241294336
 21
132.8445957192
 31
0.0
  0
LINE
  5
11B
330
1F
100
AcDbEntity
  8
0
  6
CONTINUOUS
 62
     7
100
AcDbLine
 10
438.8737040873
 20
132.8445957192
 30
0.0
 11
446.6489167604
 21
228.0909509658
 31
0.0
  0
ARC
  5
11C
330
1F
100
AcDbEntity
  8
0
  6
CONTINUOUS
 62
     7
100
AcDbCircle
 10
289.414002539
 20
133.090950548
 30
0.0
 40
2.999999582198084
100
AcDbArc
 50
184.7401655633
 51
270.0001541357
  0
ARC
  5
11D
330
1F
100
AcDbEntity
  8
0
  6
CONTINUOUS
 62
     7
100
AcDbCircle
 10
435.8838309823
 20
133.0909505474
 30
0.0
 40
2.999999581588558
100
AcDbArc
 50
269.999845858
 51
355.2190449047
  0
LINE
  5
11E
330
1F
100
AcDbEntity
  8
0
  6
CONTINUOUS
 62
     7
100
AcDbLine
 10
300.4687679318
 20
240.0909509658
 30
0.0
 11
298.6489167604
 21
235.0909509658
 31
0.0
  0
LINE
  5
11F
330
1F
100
AcDbEntity
  8
0
  6
CONTINUOUS
 62
     7
100
AcDbLine
 10
424.8290655891
 20
240.0909509658
 30
0.0
 11
426.6489167604
 21
235.0909509658
 31
0.0
  0
LINE
  5
120
330
1F
100
AcDbEntity
  8
0
  6
CONTINUOUS
 62
     7
100
AcDbLine
 10
426.6489167604
 20
235.0909509658
 30
0.0
 11
298.6489167604
 21
235.0909509658
 31
0.0
  0
LINE
  5
121
330
1F
100
AcDbEntity
  8
0
  6
CONTINUOUS
 62
     7
100
AcDbLine
 10
424.8290655891
 20
240.0909509658
 30
0.0
 11
300.4687679318
 21
240.0909509658
 31
0.0
  0
LINE
  5
122
330
1F
100
AcDbEntity
  8
0
  6
CONTINUOUS
 62
     7
100
AcDbLine
 10
264.1489167604
 20
230.0909509658
 30
0.0
 11
461.1489167604
 21
230.0909509658
 31
0.0
  0
LINE
  5
123
330
1F
100
AcDbEntity
  8
0
  6
CONTINUOUS
 62
     7
100
AcDbLine
 10
264.1489167604
 20
230.0909509658
 30
0.0
 11
264.1489167604
 21
235.0909509658
 31
0.0
  0
LINE
  5
124
330
1F
100
AcDbEntity
  8
0
  6
CONTINUOUS
 62
     7
100
AcDbLine
 10
461.1489167604
 20
230.0909509658
 30
0.0
 11
461.1489167604
 21
235.0909509658
 31
0.0
  0
LINE
  5
125
330
1F
100
AcDbEntity
  8
0
  6
CONTINUOUS
 62
     7
100
AcDbLine
 10
461.1489167604
 20
235.0909509658
 30
0.0
 11
426.6489167604
 21
235.0909509658
 31
0.0
  0
LINE
  5
126
330
1F
100
AcDbEntity
  8
0
  6
CONTINUOUS
 62
     7
100
AcDbLine
 10
298.6489167604
 20
235.0909509658
 30
0.0
 11
264.1489167604
 21
235.0909509658
 31
0.0
  0
LINE
  5
127
330
1F
100
AcDbEntity
  8
0
  6
CONTINUOUS
 62
     7
100
AcDbLine
 10
459.9942162221
 20
228.0909509658
 30
0.0
 11
265.3036172988
 21
228.0909509658
 31
0.0
  0
LINE
  5
128
330
1F
100
AcDbEntity
  8
0
  6
CONTINUOUS
 62
     7
100
AcDbLine
 10
265.3036172988
 20
228.0909509658
 30
0.0
 11
264.1489167604
 21
230.0909509658
 31
0.0
  0
LINE
  5
129
330
1F
100
AcDbEntity
  8
0
  6
CONTINUOUS
 62
     7
100
AcDbLine
 10
459.9942162221
 20
228.0909509658
 30
0.0
 11
461.1489167604
 21
230.0909509658
 31
0.0
  0
LINE
  5
12A
330
1F
100
AcDbEntity
  8
0
  6
CONTINUOUS
 62
     7
100
AcDbLine
 10
440.1489167604
 20
227.5909509658
 30
0.0
 11
425.1489167604
 21
227.5909509658
 31
0.0
  0
LINE
  5
12B
330
1F
100
AcDbEntity
  8
0
  6
CONTINUOUS
 62
     7
100
AcDbLine
 10
300.1489167604
 20
227.5909509658
 30
0.0
 11
285.1489167604
 21
227.5909509658
 31
0.0
  0
LINE
  5
12C
330
1F
100
AcDbEntity
  8
0
  6
CONTINUOUS
 62
     7
100
AcDbLine
 10
380.5905666448
 20
123.12559844
 30
0.0
 11
414.6489167604
 21
228.0909509658
 31
0.0
  0
ELLIPSE
  5
12D
330
1F
100
AcDbEntity
  8
0
  6
CONTINUOUS
 62
     7
100
AcDbEllipse
 10
362.6489167604
 20
-62.8224356989
 30
0.0
 11
0.0
 21
212.2089431899254
 31
0.0
210
0.0
220
0.0
230
1.0
 40
0.1754608926
 41
5.78041232983826
 42
6.78595828452104
  0
LINE
  5
12E
330
1F
100
AcDbEntity
  8
0
  6
CONTINUOUS
 62
     7
100
AcDbLine
 10
344.7072668761
 20
123.12559844
 30
0.0
 11
310.6489167604
 21
228.0909509658
 31
0.0
  0
SPLINE
  5
12F
330
1F
100
AcDbEntity
  8
0
  6
CONTINUOUS
 62
     7
100
AcDbSpline
210
0.0
220
0.0
230
1.0
 70
     8
 71
     3
 72
     8
 73
     4
 74
     0
 42
0.00000001
 43
0.00000001
 40
0.0
 40
0.0
 40
0.0
 40
0.0
 40
1.0
 40
1.0
 40
1.0
 40
1.0
 10
301.3351592777452
 20
179.4401468871264
 30
0.0
 10
302.4639103565982
 20
177.4011082874091
 30
0.0
 10
303.536092052612
 20
175.3240772617421
 30
0.0
 10
304.5682581537587
 20
173.2201714594999
 30
0.0
  0
LINE
  5
130
330
1F
100
AcDbEntity
  8
0
  6
CONTINUOUS
 62
     7
100
AcDbLine
 10
301.3351592777
 20
179.4401468871
 30
0.0
 11
278.6489167604
 21
228.0909509658
 31
0.0
  0
ELLIPSE
  5
131
330
1F
100
AcDbEntity
  8
0
  6
CONTINUOUS
 62
     7
100
AcDbEllipse
 10
361.2944369521
 20
19.8417723222
 30
0.0
 11
-29.13411005054679
 21
109.5274506480663
 31
0.0
210
0.0
220
0.0
230
0.9999999999999998
 40
0.2344776771
 41
5.876163330866981
 42
6.497428612158701
  0
LINE
  5
132
330
1F
100
AcDbEntity
  8
0
  6
CONTINUOUS
 62
     7
100
AcDbLine
 10
324.4617087297
 20
131.0172535168
 30
0.0
 11
327.3662576729
 21
125.4127681381
 31
0.0
  0
ELLIPSE
  5
133
330
1F
100
AcDbEntity
  8
0
  6
CONTINUOUS
 62
     7
100
AcDbEllipse
 10
321.2553051808
 20
133.0909509658
 30
0.0
 11
3.030163944713876
 21
-2.364963457151902
 31
0.0
210
0.0
220
0.0
230
1.0
 40
0.6091392951
 41
0.1448823342522275
 42
0.8978718175305584
  0
LINE
  5
134
330
1F
100
AcDbEntity
  8
0
  6
CONTINUOUS
 62
     7
100
AcDbLine
 10
324.2704788004
 20
133.0603403145
 30
0.0
 11
304.5682581538
 21
173.2201714595
 31
0.0
  0
LINE
  5
135
330
1F
100
AcDbEntity
  8
0
  6
CONTINUOUS
 62
     7
100
AcDbLine
 10
423.9626742431
 20
179.4401468871
 30
0.0
 11
446.6489167604
 21
228.0909509658
 31
0.0
  0
SPLINE
  5
136
330
1F
100
AcDbEntity
  8
0
  6
CONTINUOUS
 62
     7
100
AcDbSpline
210
0.0
220
0.0
230
1.0
 70
     8
 71
     3
 72
     8
 73
     4
 74
     0
 42
0.00000001
 43
0.00000001
 40
0.0
 40
0.0
 40
0.0
 40
0.0
 40
1.0
 40
1.0
 40
1.0
 40
1.0
 10
420.7295753671408
 20
173.2201714595001
 30
0.0
 10
421.7618869215663
 20
175.3243737450281
 30
0.0
 10
422.8341014510778
 20
177.4014303545358
 30
0.0
 10
423.9626742431274
 20
179.4401468870779
 30
0.0
  0
LINE
  5
137
330
1F
100
AcDbEntity
  8
0
  6
CONTINUOUS
 62
     7
100
AcDbLine
 10
420.7295753671
 20
173.2201714595
 30
0.0
 11
401.0273547205
 21
133.0603403145
 31
0.0
  0
ELLIPSE
  5
138
330
1F
100
AcDbEntity
  8
0
  6
CONTINUOUS
 62
     7
100
AcDbEllipse
 10
404.0425283401
 20
133.0909509658
 30
0.0
 11
3.030163944713876
 21
2.364963457151902
 31
0.0
210
0.0
220
0.0
230
0.9999999999999998
 40
0.6091392951
 41
2.243720836059251
 42
2.996710319337571
  0
LINE
  5
139
330
1F
100
AcDbEntity
  8
0
  6
CONTINUOUS
 62
     7
100
AcDbLine
 10
397.931575848
 20
125.4127681381
 30
0.0
 11
400.8361247912
 21
131.0172535168
 31
0.0
  0
ELLIPSE
  5
13A
330
1F
100
AcDbEntity
  8
0
  6
CONTINUOUS
 62
     7
100
AcDbEllipse
 10
364.0033965688
 20
19.8417723222
 30
0.0
 11
29.13411005054672
 21
109.5274506480661
 31
0.0
210
0.0
220
0.0
230
1.0
 40
0.2344776771
 41
6.068942002200586
 42
6.690207283492296
  0
LINE
  5
13B
330
1F
100
AcDbEntity
  8
0
  6
CONTINUOUS
 62
     7
100
AcDbLine
 10
398.718127708
 20
85.0909509658
 30
0.0
 11
326.5797058129
 21
85.0909509658
 31
0.0
  0
LINE
  5
13C
330
1F
100
AcDbEntity
  8
0
  6
CONTINUOUS
 62
     7
100
AcDbLine
 10
304.5682581538
 20
173.2201714595
 30
0.0
 11
307.4368175213
 21
133.0603403145
 31
0.0
  0
LINE
  5
13D
330
1F
100
AcDbEntity
  8
0
  6
CONTINUOUS
 62
     7
100
AcDbLine
 10
420.7295753671
 20
173.2201714595
 30
0.0
 11
417.8610159996
 21
133.0603403145
 31
0.0
  0
SPLINE
  5
13E
330
1F
100
AcDbEntity
  8
0
  6
CONTINUOUS
 62
     7
100
AcDbSpline
210
0.0
220
0.0
230
1.0
 70
    24
 71
     3
 72
    17
 73
    13
 74
     0
 42
0.00000001
 43
0.00000001
 40
0.0
 40
0.0
 40
0.0
 40
0.0
 40
0.1057526107400782
 40
0.2145725306088976
 40
0.3203250057067473
 40
0.4291432158057765
 40
0.5349166746537232
 40
0.6437551766226944
 40
0.7495712539498787
 40
0.8584537439263027
 40
0.9643090913344439
 40
1.0
 40
1.0
 40
1.0
 40
1.0
 10
307.4368175212568
 20
130.0909509658247
 30
0.0
 10
306.4382902848778
 20
130.0909509658247
 30
0.0
 10
304.4122739577884
 20
130.0909509658247
 30
0.0
 10
301.4719780811939
 20
130.0909509658247
 30
0.0
 10
298.6749312117367
 20
130.0909509658247
 30
0.0
 10
296.1507139885101
 20
130.0909509658247
 30
0.0
 10
293.9244145776267
 20
130.0909509658247
 30
0.0
 10
292.102128901211
 20
130.0909509658247
 30
0.0
 10
290.6904758439079
 20
130.0909509658247
 30
0.0
 10
289.8009078168668
 20
130.0909509658248
 30
0.0
 10
289.3904575104326
 20
130.0909509658247
 30
0.0
 10
289.4556572483169
 20
130.0909509658248
 30
0.0
 10
289.4720973715274
 20
130.0909509658248
 30
0.0
  0
LINE
  5
13F
330
1F
100
AcDbEntity
  8
0
  6
CONTINUOUS
 62
     7
100
AcDbLine
 10
307.4368175213
 20
130.0909509658
 30
0.0
 11
307.4368175213
 21
133.0603403145
 31
0.0
  0
SPLINE
  5
140
330
1F
100
AcDbEntity
  8
0
  6
CONTINUOUS
 62
     7
100
AcDbSpline
210
0.0
220
0.0
230
1.0
 70
    24
 71
     3
 72
    17
 73
    13
 74
     0
 42
0.00000001
 43
0.00000001
 40
0.0
 40
0.0
 40
0.0
 40
0.0
 40
0.0732951214269846
 40
0.1807886672536043
 40
0.2882820986106363
 40
0.3957665556176469
 40
0.5032508104071077
 40
0.6107009618129707
 40
0.7181509113562505
 40
0.8255564001338292
 40
0.9329617764834752
 40
0.9999999999999999
 40
0.9999999999999999
 40
0.9999999999999999
 40
0.9999999999999999
 10
435.8270062511651
 20
130.0909509658248
 30
0.0
 10
435.8262102687061
 20
130.0909509658248
 30
0.0
 10
435.8242469100933
 20
130.0909509658248
 30
0.0
 10
435.2263155140931
 20
130.0909509658247
 30
0.0
 10
434.1461353206689
 20
130.0909509658247
 30
0.0
 10
432.5744288770351
 20
130.0909509658247
 30
0.0
 10
430.5985663645637
 20
130.0909509658247
 30
0.0
 10
428.2521092199277
 20
130.0909509658247
 30
0.0
 10
425.6173303604408
 20
130.0909509658247
 30
0.0
 10
422.7581933665664
 20
130.0909509658247
 30
0.0
 10
420.1374931911805
 20
130.0909509658247
 30
0.0
 10
418.4929931176667
 20
130.0909509658247
 30
0.0
 10
417.8610159996427
 20
130.0909509658247
 30
0.0
  0
LINE
  5
141
330
1F
100
AcDbEntity
  8
0
  6
CONTINUOUS
 62
     7
100
AcDbLine
 10
417.8610159996
 20
133.0603403145
 30
0.0
 11
417.8610159996
 21
130.0909509658
 31
0.0
  0
LINE
  5
142
330
1F
100
AcDbEntity
  8
0
  6
CONTINUOUS
 62
     7
100
AcDbLine
 10
307.4368175213
 20
133.0603403145
 30
0.0
 11
324.2704788004
 21
133.0603403145
 31
0.0
  0
LINE
  5
143
330
1F
100
AcDbEntity
  8
0
  6
CONTINUOUS
 62
     7
100
AcDbLine
 10
401.0273547205
 20
133.0603403145
 30
0.0
 11
417.8610159996
 21
133.0603403145
 31
0.0
  0
LINE
  5
144
330
1F
100
AcDbEntity
  8
0
  6
CONTINUOUS
 62
     7
100
AcDbLine
 10
324.9417690589
 20
130.0909509658
 30
0.0
 11
307.4368175213
 21
130.0909509658
 31
0.0
  0
LINE
  5
145
330
1F
100
AcDbEntity
  8
0
  6
CONTINUOUS
 62
     7
100
AcDbLine
 10
417.8610159996
 20
130.0909509658
 30
0.0
 11
400.356064462
 21
130.0909509658
 31
0.0
  0
LINE
  5
146
330
1F
100
AcDbEntity
  8
0
  6
CONTINUOUS
 62
     7
100
AcDbLine
 10
322.5803150323
 20
89.0211413401
 30
0.0
 11
402.7175184886
 21
89.0211413401
 31
0.0
  0
LWPOLYLINE
  5
147
330
1F
100
AcDbEntity
  8
0
  6
CONTINUOUS
 62
     7
100
AcDbPolyline
 90
       13
 70
   128
 43
0.0
 10
286.4558777957
 20
132.8471874222
 10
286.4282301781
 20
132.8469082163
 10
286.7886238781
 20
132.8505479217
 10
287.7546990128
 20
132.8603097238
 10
289.2454028505
 20
132.8753868806
 10
291.3038333088
 20
132.8962325328
 10
293.7560473225
 20
132.9211022646
 10
296.6736325076
 20
132.9507363302
 10
299.8093270434
 20
132.9826305101
 10
303.2553672121
 20
133.0177222612
 10
307.4367575244
 20
133.0603397028
 10
307.4368175213
 20
133.0603403145
 10
307.4368175213
 20
133.0603403145
  0
SPLINE
  5
148
330
1F
100
AcDbEntity
  8
0
  6
CONTINUOUS
 62
     7
100
AcDbSpline
210
0.0
220
0.0
230
1.0
 70
     8
 71
     3
 72
    18
 73
    14
 74
     0
 42
0.00000001
 43
0.00000001
 40
0.0
 40
0.0
 40
0.0
 40
0.0
 40
0.0000018189331137
 40
0.0911825321533153
 40
0.1843035078533001
 40
0.2754841171072019
 40
0.3686038017588118
 40
0.4743809332472124
 40
0.5832222695246194
 40
0.6890596143512481
 40
0.7979624235712601
 40
0.9038667333548276
 40
1.0
 40
1.0
 40
1.0
 40
1.0
 10
417.8610159996427
 20
133.060340314526
 30
0.0
 10
417.861035998603
 20
133.0603401106324
 30
0.0
 10
418.8635774513879
 20
133.050118990763
 30
0.0
 10
420.892911784437
 20
133.0294324722337
 30
0.0
 10
423.8611575447448
 20
132.9991932098386
 30
0.0
 10
426.724154131002
 20
132.9700522168732
 30
0.0
 10
429.5231757851475
 20
132.9415942614268
 30
0.0
 10
432.2036483322464
 20
132.91437935772
 30
0.0
 10
434.5893167250843
 20
132.8901954333562
 30
0.0
 10
436.5244509204716
 20
132.8706076025938
 30
0.0
 10
437.9002181483003
 20
132.8566990265305
 30
0.0
 10
438.7392683193523
 20
132.8482241596247
 30
0.0
 10
438.8088482769325
 20
132.8475216767302
 30
0.0
 10
438.8419557252273
 20
132.8471874221989
 30
0.0
  0
LINE
  5
149
330
1F
100
AcDbEntity
  8
0
  6
CONTINUOUS
 62
     7
100
AcDbLine
 10
572.6307592567
 20
375.171589896
 30
0.0
 11
573.1307592567
 21
375.171589896
 31
0.0
  0
LINE
  5
14A
330
1F
100
AcDbEntity
  8
0
  6
CONTINUOUS
 62
     7
100
AcDbLine
 10
573.1307592567
 20
390.171589896
 30
0.0
 11
572.6307592567
 21
390.171589896
 31
0.0
  0
LINE
  5
14B
330
1F
100
AcDbEntity
  8
0
  6
CONTINUOUS
 62
     7
100
AcDbLine
 10
572.6307592567
 20
477.171589896
 30
0.0
 11
573.1307592567
 21
477.171589896
 31
0.0
  0
LINE
  5
14C
330
1F
100
AcDbEntity
  8
0
  6
CONTINUOUS
 62
     7
100
AcDbLine
 10
573.1307592567
 20
492.171589896
 30
0.0
 11
572.6307592567
 21
492.171589896
 31
0.0
  0
LINE
  5
14D
330
1F
100
AcDbEntity
  8
0
  6
CONTINUOUS
 62
     7
100
AcDbLine
 10
651.3352027316
 20
392.5493067822
 30
0.0
 11
711.7005688825
 21
393.6029881678
 31
0.0
  0
LINE
  5
14E
330
1F
100
AcDbEntity
  8
0
  6
CONTINUOUS
 62
     7
100
AcDbLine
 10
711.7005688825
 20
473.7401916242
 30
0.0
 11
651.3352027316
 21
474.7938730097
 31
0.0
  0
ARC
  5
14F
330
1F
100
AcDbEntity
  8
0
  6
CONTINUOUS
 62
     7
100
AcDbCircle
 10
711.6307592567
 20
469.7408008435
 30
0.0
 40
4.000000000000049
100
AcDbArc
 50
0.0
 51
89.0
  0
ARC
  5
150
330
1F
100
AcDbEntity
  8
0
  6
CONTINUOUS
 62
     7
100
AcDbCircle
 10
711.6307592567
 20
397.6023789485
 30
0.0
 40
4.0
100
AcDbArc
 50
271.0
 51
0.0
  0
LINE
  5
151
330
1F
100
AcDbEntity
  8
0
  6
CONTINUOUS
 62
     7
100
AcDbLine
 10
570.6307592567
 20
498.671589896
 30
0.0
 11
565.6307592567
 21
498.671589896
 31
0.0
  0
LINE
  5
152
330
1F
100
AcDbEntity
  8
0
  6
CONTINUOUS
 62
     7
100
AcDbLine
 10
570.6307592567
 20
368.671589896
 30
0.0
 11
570.6307592567
 21
498.671589896
 31
0.0
  0
LINE
  5
153
330
1F
100
AcDbEntity
  8
0
  6
CONTINUOUS
 62
     7
100
AcDbLine
 10
570.6307592567
 20
368.671589896
 30
0.0
 11
565.6307592567
 21
368.671589896
 31
0.0
  0
LINE
  5
154
330
1F
100
AcDbEntity
  8
0
  6
CONTINUOUS
 62
     7
100
AcDbLine
 10
565.6307592567
 20
498.671589896
 30
0.0
 11
565.6307592567
 21
368.671589896
 31
0.0
  0
LINE
  5
155
330
1F
100
AcDbEntity
  8
0
  6
CONTINUOUS
 62
     7
100
AcDbLine
 10
572.6307592567
 20
497.5168893576
 30
0.0
 11
572.6307592567
 21
369.8262904344
 31
0.0
  0
LINE
  5
156
330
1F
100
AcDbEntity
  8
0
  6
CONTINUOUS
 62
     7
100
AcDbLine
 10
572.6307592567
 20
497.5168893576
 30
0.0
 11
570.6307592567
 21
498.671589896
 31
0.0
  0
LINE
  5
157
330
1F
100
AcDbEntity
  8
0
  6
CONTINUOUS
 62
     7
100
AcDbLine
 10
570.6307592567
 20
368.671589896
 30
0.0
 11
572.6307592567
 21
369.8262904344
 31
0.0
  0
SPLINE
  5
158
330
1F
100
AcDbEntity
  8
0
  6
CONTINUOUS
 62
     7
100
AcDbSpline
210
0.0
220
0.0
230
1.0
 70
     8
 71
     3
 72
     8
 73
     4
 74
     0
 42
0.00000001
 43
0.00000001
 40
0.0
 40
0.0
 40
0.0
 40
0.0
 40
1.0
 40
1.0
 40
1.0
 40
1.0
 10
627.5015387630608
 20
412.2314958093179
 30
0.0
 10
625.3973364775087
 20
412.2100243574245
 30
0.0
 10
623.3202798679778
 20
412.2420504158406
 30
0.0
 10
621.2815633354132
 20
412.3496354200415
 30
0.0
  0
SPLINE
  5
159
330
1F
100
AcDbEntity
  8
0
  6
CONTINUOUS
 62
     7
100
AcDbSpline
210
0.0
220
0.0
230
1.0
 70
     8
 71
     3
 72
    42
 73
    38
 74
     0
 42
0.00000001
 43
0.00000001
 40
0.0
 40
0.0
 40
0.0
 40
0.0
 40
0.1250000000000009
 40
0.1250000000000009
 40
0.1875000000000011
 40
0.1875000000000011
 40
0.2500000000000013
 40
0.2500000000000013
 40
0.3750000000000014
 40
0.3750000000000014
 40
0.5000000000000014
 40
0.5000000000000014
 40
0.5625000000000016
 40
0.5625000000000016
 40
0.6250000000000016
 40
0.6250000000000016
 40
0.6875000000000016
 40
0.6875000000000016
 40
0.7500000000000016
 40
0.7500000000000016
 40
0.8125000000000016
 40
0.8125000000000016
 40
0.8437500000000014
 40
0.8437500000000014
 40
0.8750000000000013
 40
0.8750000000000013
 40
0.9062500000000012
 40
0.9062500000000012
 40
0.9218750000000011
 40
0.9218750000000011
 40
0.937500000000001
 40
0.937500000000001
 40
0.9687500000000006
 40
0.9687500000000006
 40
0.9843750000000003
 40
0.9843750000000003
 40
1.0
 40
1.0
 40
1.0
 40
1.0
 10
621.2815633354123
 20
412.3496354200414
 30
0.0
 10
618.9722858100843
 20
412.4451411314286
 30
0.0
 10
616.6659721893499
 20
412.5993503256182
 30
0.0
 10
613.2112149268597
 20
412.9240137520692
 30
0.0
 10
612.0604172300997
 20
413.0478432624221
 30
0.0
 10
609.7604784797584
 20
413.3283139750307
 30
0.0
 10
608.6106465501681
 20
413.4850720502999
 30
0.0
 10
605.1729652567399
 20
414.0063786924216
 30
0.0
 10
602.8947090687977
 20
414.4216754572043
 30
0.0
 10
598.3698369989704
 20
415.4107097209944
 30
0.0
 10
596.1231212543902
 20
415.9839471515543
 30
0.0
 10
592.7831924087648
 20
416.9947550511631
 30
0.0
 10
591.6749451196312
 20
417.3570409197751
 30
0.0
 10
589.4704432979976
 20
418.1416671066294
 30
0.0
 10
588.373232893059
 20
418.5644360906816
 30
0.0
 10
586.2076863882488
 20
419.4777020755317
 30
0.0
 10
585.1378070291262
 20
419.968534200556
 30
0.0
 10
583.0307878401476
 20
421.0370351785117
 30
0.0
 10
581.9917912146585
 20
421.6158399264405
 30
0.0
 10
579.9821332392177
 20
422.8753023850554
 30
0.0
 10
579.0086438917298
 20
423.556444817264
 30
0.0
 10
577.6160913270922
 20
424.6891867055884
 30
0.0
 10
577.1633040728337
 20
425.0854634680935
 30
0.0
 10
576.2866589973539
 20
425.9254743646837
 30
0.0
 10
575.8612960555494
 20
426.3711406568791
 30
0.0
 10
575.0641586808741
 20
427.3070009613461
 30
0.0
 10
574.6907250493799
 20
427.7983090179133
 30
0.0
 10
574.1796562575088
 20
428.5809215381927
 30
0.0
 10
574.0169212999886
 20
428.8506369209057
 30
0.0
 10
573.7145178468247
 20
429.4008071440826
 30
0.0
 10
573.5747427685965
 20
429.6812038215768
 30
0.0
 10
573.1931437333546
 20
430.539930509473
 30
0.0
 10
572.988648936494
 20
431.1356126154521
 30
0.0
 10
572.7761348339525
 20
432.0729367831954
 30
0.0
 10
572.7213038637776
 20
432.3936046421682
 30
0.0
 10
572.6489285360676
 20
433.0316920336654
 30
0.0
 10
572.6307592567354
 20
433.3513375397422
 30
0.0
 10
572.6307592567359
 20
433.6715898960027
 30
0.0
  0
SPLINE
  5
15A
330
1F
100
AcDbEntity
  8
0
  6
CONTINUOUS
 62
     7
100
AcDbSpline
210
0.0
220
0.0
230
1.0
 70
     8
 71
     3
 72
    40
 73
    36
 74
     0
 42
0.00000001
 43
0.00000001
 40
0.0
 40
0.0
 40
0.0
 40
0.0
 40
0.015625
 40
0.015625
 40
0.03125
 40
0.03125
 40
0.046875
 40
0.046875
 40
0.0625
 40
0.0625
 40
0.09375
 40
0.09375
 40
0.125
 40
0.125
 40
0.1875
 40
0.1875
 40
0.21875
 40
0.21875
 40
0.2500000000000001
 40
0.2500000000000001
 40
0.3124999999999999
 40
0.3124999999999999
 40
0.3749999999999997
 40
0.3749999999999997
 40
0.4999999999999996
 40
0.4999999999999996
 40
0.5624999999999997
 40
0.5624999999999997
 40
0.6249999999999999
 40
0.6249999999999999
 40
0.7499999999999998
 40
0.7499999999999998
 40
0.8749999999999999
 40
0.8749999999999999
 40
1.0
 40
1.0
 40
1.0
 40
1.0
 10
572.6307592567359
 20
433.6715898960027
 30
0.0
 10
572.6307592567366
 20
433.9929706383587
 30
0.0
 10
572.649056301342
 20
434.3149624982323
 30
0.0
 10
572.7227796787026
 20
434.9601863285487
 30
0.0
 10
572.7779047616187
 20
435.2795974341547
 30
0.0
 10
572.9203741864974
 20
435.9048356918032
 30
0.0
 10
573.0078624905271
 20
436.211957526551
 30
0.0
 10
573.2125982431934
 20
436.8161360502318
 30
0.0
 10
573.3303704124294
 20
437.1143212029235
 30
0.0
 10
573.7213383902491
 20
437.9869718851351
 30
0.0
 10
574.0280011529595
 20
438.5329492558566
 30
0.0
 10
574.7100863651594
 20
439.5714266237433
 30
0.0
 10
575.0857184309526
 20
440.0637635932696
 30
0.0
 10
576.2951310851296
 20
441.4765978950111
 30
0.0
 10
577.1811374176586
 20
442.302950542854
 30
0.0
 10
578.5818269511672
 20
443.4380908231596
 30
0.0
 10
579.061161134516
 20
443.798398662544
 30
0.0
 10
580.0404946657783
 20
444.4889873315467
 30
0.0
 10
580.5415778885563
 20
444.8198951530403
 30
0.0
 10
582.0637719317393
 20
445.7693524018277
 30
0.0
 10
583.0979022247279
 20
446.3421391009301
 30
0.0
 10
585.1939989294208
 20
447.4010626415113
 30
0.0
 10
586.2560882091416
 20
447.8868170124223
 30
0.0
 10
589.4752779425394
 20
449.2415989754907
 30
0.0
 10
591.6648353096219
 20
450.0095928368253
 30
0.0
 10
594.9952719472424
 20
451.0180790928529
 30
0.0
 10
596.1132660336787
 20
451.329809793588
 30
0.0
 10
598.3631563826391
 20
451.9099957085958
 30
0.0
 10
599.4957497288763
 20
452.1785410266157
 30
0.0
 10
602.8985059118186
 20
452.9223901443212
 30
0.0
 10
605.1780321075289
 20
453.337612789988
 30
0.0
 10
609.7557127046946
 20
454.0317077508201
 30
0.0
 10
612.0552788199099
 20
454.3104879584846
 30
0.0
 10
616.6650378238036
 20
454.7437897151038
 30
0.0
 10
618.9722178914838
 20
454.8980358516113
 30
0.0
 10
621.2815633354342
 20
454.9935443719357
 30
0.0
  0
SPLINE
  5
15B
330
1F
100
AcDbEntity
  8
0
  6
CONTINUOUS
 62
     7
100
AcDbSpline
210
0.0
220
0.0
230
1.0
 70
     8
 71
     3
 72
     8
 73
     4
 74
     0
 42
0.00000001
 43
0.00000001
 40
0.0
 40
0.0
 40
0.0
 40
0.0
 40
1.0
 40
1.0
 40
1.0
 40
1.0
 10
621.2815633354343
 20
454.9935443719357
 30
0.0
 10
623.3206019351514
 20
455.1011463719252
 30
0.0
 10
625.3976329608184
 20
455.1331524092118
 30
0.0
 10
627.5015387630607
 20
455.1116839826582
 30
0.0
  0
LINE
  5
15C
330
1F
100
AcDbEntity
  8
0
  6
CONTINUOUS
 62
     7
100
AcDbLine
 10
627.5015387631
 20
455.1116839827
 30
0.0
 11
667.661369908
 21
454.7018897873
 31
0.0
  0
SPLINE
  5
15D
330
1F
100
AcDbEntity
  8
0
  6
CONTINUOUS
 62
     7
100
AcDbSpline
210
0.0
220
0.0
230
1.0
 70
     8
 71
     3
 72
    71
 73
    67
 74
     0
 42
0.00000001
 43
0.00000001
 40
0.0
 40
0.0
 40
0.0
 40
0.0
 40
0.0078124999999998
 40
0.0078124999999998
 40
0.0156249999999997
 40
0.0156249999999997
 40
0.0312499999999997
 40
0.0312499999999997
 40
0.0624999999999997
 40
0.0624999999999997
 40
0.0937499999999997
 40
0.0937499999999997
 40
0.1249999999999997
 40
0.1249999999999997
 40
0.1562499999999997
 40
0.1562499999999997
 40
0.1874999999999996
 40
0.1874999999999996
 40
0.2499999999999998
 40
0.2499999999999998
 40
0.2812500000000001
 40
0.2812500000000001
 40
0.2968750000000001
 40
0.2968750000000001
 40
0.3125000000000002
 40
0.3125000000000002
 40
0.3750000000000004
 40
0.3750000000000004
 40
0.3906250000000006
 40
0.3906250000000006
 40
0.4062500000000007
 40
0.4062500000000007
 40
0.4375000000000011
 40
0.4375000000000011
 40
0.500000000000002
 40
0.500000000000002
 40
0.5156250000000021
 40
0.5156250000000021
 40
0.5312500000000022
 40
0.5312500000000022
 40
0.5625000000000018
 40
0.5937500000000012
 40
0.5937500000000012
 40
0.6250000000000008
 40
0.6250000000000008
 40
0.6874999999999999
 40
0.6874999999999999
 40
0.7187499999999998
 40
0.7187499999999998
 40
0.7499999999999996
 40
0.7499999999999996
 40
0.8124999999999993
 40
0.8124999999999993
 40
0.8437499999999994
 40
0.8437499999999994
 40
0.8749999999999994
 40
0.8749999999999994
 40
0.9374999999999998
 40
0.9374999999999998
 40
0.96875
 40
0.96875
 40
0.9843749999999999
 40
0.9843749999999999
 40
0.9921874999999999
 40
0.9921874999999999
 40
1.0
 40
1.0
 40
1.0
 40
1.0
 10
667.6613699080345
 20
412.6412900046749
 30
0.0
 10
667.6631200281162
 20
412.6413081082505
 30
0.0
 10
667.6649039492296
 20
412.6434753456589
 30
0.0
 10
667.6684283179875
 20
412.6520661404516
 30
0.0
 10
667.6701872839598
 20
412.6584896483548
 30
0.0
 10
667.6754545797533
 20
412.6840935603199
 30
0.0
 10
667.6789533130394
 20
412.7096034848847
 30
0.0
 10
667.6894113387203
 20
412.8111909882716
 30
0.0
 10
667.69633254294
 20
412.9122666815246
 30
0.0
 10
667.7100723780322
 20
413.181170136516
 30
0.0
 10
667.7169011259055
 20
413.3492983784896
 30
0.0
 10
667.7304099438006
 20
413.7530486620944
 30
0.0
 10
667.7370140219318
 20
413.9862898002938
 30
0.0
 10
667.7499290753279
 20
414.5138447252472
 30
0.0
 10
667.7562400333094
 20
414.8081621590194
 30
0.0
 10
667.7685680498076
 20
415.4580176831712
 30
0.0
 10
667.7746022797415
 20
415.8146990810748
 30
0.0
 10
667.7921369697207
 20
416.9719135964146
 30
0.0
 10
667.8028675020714
 20
417.8440693455465
 30
0.0
 10
667.8175785864036
 20
419.2980582392221
 30
0.0
 10
667.822249833888
 20
419.8071915372557
 30
0.0
 10
667.8288997563051
 20
420.6085502464522
 30
0.0
 10
667.8310625069863
 20
420.8827497728566
 30
0.0
 10
667.835230149652
 20
421.4391151730367
 30
0.0
 10
667.8372362155424
 20
421.7213268105858
 30
0.0
 10
667.846885406693
 20
423.1521529033406
 30
0.0
 10
667.8533959607889
 20
424.3595094398129
 30
0.0
 10
667.8600332556225
 20
425.946852331857
 30
0.0
 10
667.8612849932966
 20
426.2682633089671
 30
0.0
 10
667.8636344988712
 20
426.919108522435
 30
0.0
 10
667.8647343063365
 20
427.2493208919677
 30
0.0
 10
667.8677676677487
 20
428.2419830786128
 30
0.0
 10
667.8694461455262
 20
428.9088380402309
 30
0.0
 10
667.8734804144494
 20
430.924215155079
 30
0.0
 10
667.8748447609111
 20
432.2874078999599
 30
0.0
 10
667.8748454159612
 20
434.0166485168048
 30
0.0
 10
667.8747588175788
 20
434.3641643638731
 30
0.0
 10
667.8744149117506
 20
435.0541254602526
 30
0.0
 10
667.8741578452689
 20
435.3974948703805
 30
0.0
 10
667.8731355620777
 20
436.4228511603549
 30
0.0
 10
667.8711041528095
 20
437.7773432480445
 30
0.0
 10
667.8677512331902
 20
439.1068423829313
 30
0.0
 10
667.8637257570149
 20
440.4236364793089
 30
0.0
 10
667.86136042846
 20
441.0792293545613
 30
0.0
 10
667.8533557244093
 20
442.9926866841593
 30
0.0
 10
667.8468289768047
 20
444.200107778925
 30
0.0
 10
667.8352835871809
 20
445.9110386512756
 30
0.0
 10
667.8311405018934
 20
446.4645301752591
 30
0.0
 10
667.822244151185
 20
447.5367479202031
 30
0.0
 10
667.817539023088
 20
448.0493730350427
 30
0.0
 10
667.8027878234309
 20
449.5062976641133
 30
0.0
 10
667.7920653204642
 20
450.376046839403
 30
0.0
 10
667.774629779522
 20
451.5266397746501
 30
0.0
 10
667.7685603905014
 20
451.8856529696135
 30
0.0
 10
667.7562058114371
 20
452.5367341887597
 30
0.0
 10
667.749900928577
 20
452.8304860716116
 30
0.0
 10
667.7306117807199
 20
453.6184066197849
 30
0.0
 10
667.7172460073609
 20
454.0203683586677
 30
0.0
 10
667.6964557106032
 20
454.4291131105132
 30
0.0
 10
667.6894887789933
 20
454.5310840446281
 30
0.0
 10
667.6789845704316
 20
454.633348177183
 30
0.0
 10
667.6754741834586
 20
454.6589718206294
 30
0.0
 10
667.670195167531
 20
454.6846613337174
 30
0.0
 10
667.6684332553502
 20
454.6910992139456
 30
0.0
 10
667.6649049456674
 20
454.6997044159748
 30
0.0
 10
667.6631200281162
 20
454.7018716837654
 30
0.0
 10
667.6613699080345
 20
454.7018897873014
 30
0.0
  0
LINE
  5
15E
330
1F
100
AcDbEntity
  8
0
  6
CONTINUOUS
 62
     7
100
AcDbLine
 10
627.5015387631
 20
412.2314958093
 30
0.0
 11
667.661369908
 21
412.6412900047
 31
0.0
  0
LINE
  5
15F
330
1F
100
AcDbEntity
  8
0
  6
CONTINUOUS
 62
     7
100
AcDbLine
 10
621.2815633354
 20
454.9935443719
 30
0.0
 11
572.6307592567
 21
456.671589896
 31
0.0
  0
LINE
  5
160
330
1F
100
AcDbEntity
  8
0
  6
CONTINUOUS
 62
     7
100
AcDbLine
 10
621.2815633354
 20
412.34963542
 30
0.0
 11
572.6307592567
 21
410.671589896
 31
0.0
  0
LINE
  5
161
330
1F
100
AcDbEntity
  8
0
  6
CONTINUOUS
 62
     7
100
AcDbLine
 10
677.5961117825
 20
470.1633662061
 30
0.0
 11
573.1307592567
 21
488.5834264056
 31
0.0
  0
ELLIPSE
  5
162
330
1F
100
AcDbEntity
  8
0
  6
CONTINUOUS
 62
     7
100
AcDbEllipse
 10
780.8799379004
 20
435.0260697044
 30
0.0
 11
109.5274506480662
 21
-29.13411005054672
 31
0.0
210
0.0
220
0.0
230
1.0
 40
0.2344776771
 41
2.859150604681869
 42
3.480415885973637
  0
LINE
  5
163
330
1F
100
AcDbEntity
  8
0
  6
CONTINUOUS
 62
     7
100
AcDbLine
 10
669.7044567058
 20
453.869943303
 30
0.0
 11
675.3089420844
 21
453.9677699592
 31
0.0
  0
ELLIPSE
  5
164
330
1F
100
AcDbEntity
  8
0
  6
CONTINUOUS
 62
     7
100
AcDbEllipse
 10
780.8799379004
 20
432.3171100876
 30
0.0
 11
109.5274506480663
 21
29.13411005054672
 31
0.0
210
0.0
220
0.0
230
1.0
 40
0.2344776771
 41
2.802769421206001
 42
3.424034702497774
  0
LINE
  5
165
330
1F
100
AcDbEntity
  8
0
  6
CONTINUOUS
 62
     7
100
AcDbLine
 10
677.5961117825
 20
397.1798135859
 30
0.0
 11
573.1307592567
 21
378.7597533863
 31
0.0
  0
LINE
  5
166
330
1F
100
AcDbEntity
  8
0
  6
CONTINUOUS
 62
     7
100
AcDbLine
 10
675.3089420844
 20
413.3754098328
 30
0.0
 11
669.7044567058
 21
413.4732364889
 31
0.0
  0
LINE
  5
167
330
1F
100
AcDbEntity
  8
0
  6
CONTINUOUS
 62
     7
100
AcDbLine
 10
573.1307592567
 20
390.171589896
 30
0.0
 11
573.1307592567
 21
375.171589896
 31
0.0
  0
LINE
  5
168
330
1F
100
AcDbEntity
  8
0
  6
CONTINUOUS
 62
     7
100
AcDbLine
 10
573.1307592567
 20
492.171589896
 30
0.0
 11
573.1307592567
 21
477.171589896
 31
0.0
  0
SPLINE
  5
169
330
1F
100
AcDbEntity
  8
0
  6
CONTINUOUS
 62
     7
100
AcDbSpline
210
0.0
220
0.0
230
1.0
 70
    24
 71
     3
 72
    53
 73
    49
 74
     0
 42
0.00000001
 43
0.00000001
 40
0.0
 40
0.0
 40
0.0
 40
0.0
 40
0.0625000000000006
 40
0.0625000000000006
 40
0.093750000000001
 40
0.093750000000001
 40
0.1250000000000013
 40
0.1250000000000013
 40
0.1875000000000021
 40
0.1875000000000021
 40
0.2187500000000021
 40
0.2187500000000021
 40
0.2500000000000021
 40
0.2500000000000021
 40
0.3125000000000021
 40
0.3125000000000021
 40
0.3437500000000022
 40
0.3437500000000022
 40
0.3750000000000022
 40
0.4062500000000022
 40
0.4062500000000022
 40
0.4375000000000022
 40
0.4375000000000022
 40
0.5000000000000014
 40
0.5000000000000014
 40
0.5312500000000016
 40
0.5312500000000016
 40
0.5625000000000016
 40
0.5625000000000016
 40
0.6250000000000019
 40
0.6250000000000019
 40
0.656250000000002
 40
0.656250000000002
 40
0.6875000000000021
 40
0.6875000000000021
 40
0.750000000000002
 40
0.750000000000002
 40
0.7812500000000019
 40
0.7812500000000019
 40
0.8125000000000017
 40
0.8125000000000017
 40
0.8437500000000016
 40
0.8437500000000016
 40
0.8750000000000013
 40
0.8750000000000013
 40
0.9375000000000008
 40
0.9375000000000008
 40
1.0
 40
1.0
 40
1.0
 40
1.0
 10
670.6307592567358
 20
451.7020459600285
 30
0.0
 10
670.6307592567358
 20
451.7020459600285
 30
0.0
 10
670.6307592567358
 20
451.5851341185039
 30
0.0
 10
670.6307592567359
 20
451.2415788071638
 30
0.0
 10
670.6307592567359
 20
451.0988206050412
 30
0.0
 10
670.6307592567359
 20
450.7555368547197
 30
0.0
 10
670.6307592567359
 20
450.5540485074143
 30
0.0
 10
670.6307592567358
 20
449.8751929866402
 30
0.0
 10
670.6307592567358
 20
449.3213127083724
 30
0.0
 10
670.6307592567358
 20
448.3399006954358
 30
0.0
 10
670.6307592567359
 20
447.9861507069871
 30
0.0
 10
670.6307592567359
 20
447.2320716878584
 30
0.0
 10
670.6307592567359
 20
446.8353056606568
 30
0.0
 10
670.6307592567359
 20
445.5876769104487
 30
0.0
 10
670.6307592567359
 20
444.6800260831515
 30
0.0
 10
670.6307592567359
 20
443.2019907446849
 30
0.0
 10
670.6307592567359
 20
442.6899636733693
 30
0.0
 10
670.6307592567359
 20
441.6492709204363
 30
0.0
 10
670.6307592567359
 20
440.5864953688906
 30
0.0
 10
670.6307592567359
 20
439.4802207943616
 30
0.0
 10
670.6307592567359
 20
438.3519002221175
 30
0.0
 10
670.6307592567359
 20
437.7736021463332
 30
0.0
 10
670.6307592567359
 20
436.0286700870992
 30
0.0
 10
670.6307592567359
 20
434.8591820888755
 30
0.0
 10
670.6307592567359
 20
433.0958970907737
 30
0.0
 10
670.6307592567359
 20
432.506615738934
 30
0.0
 10
670.6307592567359
 20
431.3249210946634
 30
0.0
 10
670.6307592567359
 20
430.7361802252157
 30
0.0
 10
670.6307592567359
 20
429.0022858658705
 30
0.0
 10
670.6307592567359
 20
427.8785754792473
 30
0.0
 10
670.6307592567359
 20
426.2416151854437
 30
0.0
 10
670.6307592567358
 20
425.7012702014413
 30
0.0
 10
670.6307592567358
 20
424.6566220608215
 30
0.0
 10
670.6307592567359
 20
424.1513880692017
 30
0.0
 10
670.6307592567359
 20
422.6857288271119
 30
0.0
 10
670.6307592567359
 20
421.7748578770635
 30
0.0
 10
670.6307592567358
 20
420.5117907633653
 30
0.0
 10
670.630759256736
 20
420.113580949225
 30
0.0
 10
670.6307592567359
 20
419.3660213281831
 30
0.0
 10
670.6307592567358
 20
419.015866674297
 30
0.0
 10
670.6307592567359
 20
418.362432393248
 30
0.0
 10
670.6307592567359
 20
418.0591513130728
 30
0.0
 10
670.6307592567358
 20
417.50044804998
 30
0.0
 10
670.6307592567358
 20
417.2442718056815
 30
0.0
 10
670.6307592567358
 20
416.5643828470444
 30
0.0
 10
670.6307592567359
 20
416.2228790163313
 30
0.0
 10
670.6307592567358
 20
415.7605953185202
 30
0.0
 10
670.6307592567358
 20
415.6411338319477
 30
0.0
 10
670.6307592567358
 20
415.6411338319477
 30
0.0
  0
ARC
  5
16A
330
1F
100
AcDbEntity
  8
0
  6
CONTINUOUS
 62
     7
100
AcDbCircle
 10
667.6307592567
 20
415.6411338319
 30
0.0
 40
3.0
100
AcDbArc
 50
270.5846305207
 51
0.0
  0
ARC
  5
16B
330
1F
100
AcDbEntity
  8
0
  6
CONTINUOUS
 62
     7
100
AcDbCircle
 10
667.6307592567
 20
451.70204596
 30
0.0
 40
3.0
100
AcDbArc
 50
0.0
 51
89.4153694793
  0
LINE
  5
16C
330
1F
100
AcDbEntity
  8
0
  6
CONTINUOUS
 62
     7
100
AcDbLine
 10
560.6307592567
 20
494.871589896
 30
0.0
 11
565.6307592567
 21
494.871589896
 31
0.0
  0
LINE
  5
16D
330
1F
100
AcDbEntity
  8
0
  6
CONTINUOUS
 62
     7
100
AcDbLine
 10
560.6307592567
 20
499.371589896
 30
0.0
 11
560.6307592567
 21
494.871589896
 31
0.0
  0
LINE
  5
16E
330
1F
100
AcDbEntity
  8
0
  6
CONTINUOUS
 62
     7
100
AcDbLine
 10
560.6307592567
 20
499.371589896
 30
0.0
 11
565.6307592567
 21
499.371589896
 31
0.0
  0
LINE
  5
16F
330
1F
100
AcDbEntity
  8
0
  6
CONTINUOUS
 62
     7
100
AcDbLine
 10
565.6307592567
 20
499.371589896
 30
0.0
 11
565.6307592567
 21
498.671589896
 31
0.0
  0
LINE
  5
170
330
1F
100
AcDbEntity
  8
0
  6
CONTINUOUS
 62
     7
100
AcDbLine
 10
715.6307592567
 20
469.7408008108
 30
0.0
 11
715.6307592567
 21
397.6023789485
 31
0.0
  0
LINE
  5
171
330
1F
100
AcDbEntity
  8
0
  6
CONTINUOUS
 62
     7
100
AcDbLine
 10
711.7005688825
 20
393.6029881678
 30
0.0
 11
711.7005688825
 21
473.7401916242
 31
0.0
  0
ENDSEC
  0
SECTION
  2
OBJECTS
  0
DICTIONARY
  5
C
330
0
100
AcDbDictionary
  3
ACAD_GROUP
350
D
  3
ACAD_LAYOUT
350
1A
  3
ACAD_MLEADERSTYLE
350
193
  3
ACAD_MLINESTYLE
350
17
  3
ACAD_PLOTSETTINGS
350
19
  3
ACAD_TABLESTYLE
350
192
  3
ACAD_VISUALSTYLE
350
2A
  3
ACDBHEADERROUNDTRIPXREC
350
172
  3
ACDBVARIABLEDICTIONARY
350
194
  0
DICTIONARY
  5
D
102
{ACAD_REACTORS
330
C
102
}
330
C
100
AcDbDictionary
  0
DICTIONARY
  5
1A
102
{ACAD_REACTORS
330
C
102
}
330
C
100
AcDbDictionary
  0
DICTIONARY
  5
193
102
{ACAD_REACTORS
330
C
102
}
330
C
100
AcDbDictionary
  0
DICTIONARY
  5
17
102
{ACAD_REACTORS
330
C
102
}
330
C
100
AcDbDictionary
  3
STANDARD
350
18
  0
DICTIONARY
  5
19
102
{ACAD_REACTORS
330
C
102
}
330
C
100
AcDbDictionary
  0
DICTIONARY
  5
192
102
{ACAD_REACTORS
330
C
102
}
330
C
100
AcDbDictionary
  0
DICTIONARY
  5
2A
102
{ACAD_REACTORS
330
C
102
}
330
C
100
AcDbDictionary
  3
2DWIREFRAME
350
2F
  3
3D_HIDDEN
350
31
  3
3DWIREFRAME
350
30
  3
BASIC
350
32
  3
BRIGHTEN
350
36
  3
COLORCHANGE
350
3A
  3
CONCEPTUAL
350
34
  3
DIM
350
35
  3
FACEPATTERN
350
39
  3
FLAT
350
2B
  3
FLATWITHEDGES
350
2C
  3
GOURAUD
350
2D
  3
GOURAUDWITHEDGES
350
2E
  3
LINEPATTERN
350
38
  3
REALISTIC
350
33
  3
THICKEN
350
37
  0
DICTIONARY
  5
172
102
{ACAD_REACTORS
330
C
102
}
330
C
100
AcDbDictionary
  3
CEPSNTYPE
350
17B
  3
DIMSTYLEDATA
350
191
  3
FINGERPRINTGUID
350
17C
  3
HYPERLINKBASE
350
175
  3
INSUNITS
350
17A
  3
LAYOUTDICT
350
177
  3
LWETCUNION
350
179
  3
PLOTSETDICT
350
178
  3
PSVPSCALE
350
17E
  3
PUCSBASE
350
181
  3
PUCSORGBACK
350
187
  3
PUCSORGBOTTOM
350
183
  3
PUCSORGFRONT
350
186
  3
PUCSORGLEFT
350
184
  3
PUCSORGRIGHT
350
185
  3
PUCSORGTOP
350
182
  3
PUCSORTHOREF
350
17F
  3
PUCSORTHOVIEW
350
180
  3
STYLESHEET
350
176
  3
TSTACKALIGN
350
173
  3
TSTACKSIZE
350
174
  3
UCSBASE
350
18A
  3
UCSORGBACK
350
190
  3
UCSORGBOTTOM
350
18C
  3
UCSORGFRONT
350
18F
  3
UCSORGLEFT
350
18D
  3
UCSORGRIGHT
350
18E
  3
UCSORGTOP
350
18B
  3
UCSORTHOREF
350
188
  3
UCSORTHOVIEW
350
189
  3
VERSIONGUID
350
17D
  0
DICTIONARY
  5
194
102
{ACAD_REACTORS
330
C
102
}
330
C
100
AcDbDictionary
  3
PSOLHEIGHT
350
196
  3
PSOLWIDTH
350
195
  0
MLINESTYLE
  5
18
102
{ACAD_REACTORS
330
17
102
}
330
17
100
AcDbMlineStyle
  2
Standard
 70
     0
  3

 62
   256
 51
90.0
 52
90.0
 71
     2
 49
0.5
 62
   256
  6
BYLAYER
 49
-0.5
 62
   256
  6
BYLAYER
  0
VISUALSTYLE
  5
2F
102
{ACAD_REACTORS
330
2A
102
}
330
2A
100
AcDbVisualStyle
  2
2dWireframe
 70
     4
 71
     0
 72
     2
 73
     0
 90
        0
 40
-0.6
 41
-30.0
 62
     5
 63
     7
 74
     1
 91
        4
 64
     7
 65
   257
 75
     1
175
     1
 42
1.0
 92
        0
 66
   257
 43
1.0
 76
     1
 77
     6
 78
     2
 67
     7
 79
     5
170
     0
171
     0
290
     0
174
     0
 93
        1
 44
0.0
173
     0
291
     0
 45
0.0
1001
ACAD
1000
AcDbSavedByObjectVersion
1070
     0
  0
VISUALSTYLE
  5
31
102
{ACAD_REACTORS
330
2A
102
}
330
2A
100
AcDbVisualStyle
  2
3D Hidden
 70
     6
 71
     1
 72
     2
 73
     2
 90
        0
 40
-0.6
 41
-30.0
 62
     5
 63
     7
 74
     2
 91
        2
 64
     7
 65
   257
 75
     2
175
     1
 42
40.0
 92
        0
 66
   257
 43
1.0
 76
     1
 77
     6
 78
     2
 67
     7
 79
     3
170
     0
171
     0
290
     0
174
     0
 93
        1
 44
0.0
173
     0
291
     0
 45
0.0
1001
ACAD
1000
AcDbSavedByObjectVersion
1070
     0
  0
VISUALSTYLE
  5
30
102
{ACAD_REACTORS
330
2A
102
}
330
2A
100
AcDbVisualStyle
  2
3dWireframe
 70
     5
 71
     0
 72
     2
 73
     0
 90
        0
 40
-0.6
 41
-30.0
 62
     5
 63
     7
 74
     1
 91
        4
 64
     7
 65
   257
 75
     1
175
     1
 42
1.0
 92
        0
 66
   257
 43
1.0
 76
     1
 77
     6
 78
     2
 67
     7
 79
     5
170
     0
171
     0
290
     0
174
     0
 93
        1
 44
0.0
173
     0
291
     0
 45
0.0
1001
ACAD
1000
AcDbSavedByObjectVersion
1070
     0
  0
VISUALSTYLE
  5
32
102
{ACAD_REACTORS
330
2A
102
}
330
2A
100
AcDbVisualStyle
  2
Basic
 70
     7
 71
     1
 72
     0
 73
     1
 90
        0
 40
-0.6
 41
-30.0
 62
     5
 63
     7
 74
     0
 91
        4
 64
     7
 65
   257
 75
     1
175
     1
 42
1.0
 92
        8
 66
     7
 43
1.0
 76
     1
 77
     6
 78
     2
 67
     7
 79
     5
170
     0
171
     0
290
     0
174
     0
 93
        1
 44
0.0
173
     0
291
     1
 45
0.0
1001
ACAD
1000
AcDbSavedByObjectVersion
1070
     0
  0
VISUALSTYLE
  5
36
102
{ACAD_REACTORS
330
2A
102
}
330
2A
100
AcDbVisualStyle
  2
Brighten
 70
    12
 71
     2
 72
     2
 73
     0
 90
        0
 40
-0.6
 41
-30.0
 62
     5
 63
     7
 74
     1
 91
        4
 64
     7
 65
   257
 75
     1
175
     1
 42
1.0
 92
        8
 66
     7
 43
1.0
 76
     1
 77
     6
 78
     2
 67
     7
 79
     5
170
     0
171
     0
290
     0
174
     0
 93
        1
 44
50.0
173
     0
291
     1
 45
0.0
1001
ACAD
1000
AcDbSavedByObjectVersion
1070
     0
  0
VISUALSTYLE
  5
3A
102
{ACAD_REACTORS
330
2A
102
}
330
2A
100
AcDbVisualStyle
  2
ColorChange
 70
    16
 71
     2
 72
     2
 73
     3
 90
        0
 40
-0.6
 41
-30.0
 62
     5
 63
     8
 74
     1
 91
        4
 64
     7
 65
   257
 75
     1
175
     1
 42
1.0
 92
        8
 66
     8
 43
1.0
 76
     1
 77
     6
 78
     2
 67
     7
 79
     5
170
     0
171
     0
290
     0
174
     0
 93
        1
 44
0.0
173
     0
291
     1
 45
0.0
1001
ACAD
1000
AcDbSavedByObjectVersion
1070
     0
  0
VISUALSTYLE
  5
34
102
{ACAD_REACTORS
330
2A
102
}
330
2A
100
AcDbVisualStyle
  2
Conceptual
 70
     9
 71
     3
 72
     2
 73
     0
 90
        0
 40
-0.6
 41
-30.0
 62
     5
 63
     7
 74
     2
 91
        2
 64
     7
 65
   257
 75
     1
175
     1
 42
40.0
 92
        8
 66
     7
 43
1.0
 76
     1
 77
     6
 78
     2
 67
     7
 79
     3
170
     0
171
     0
290
     0
174
     0
 93
        1
 44
0.0
173
     0
291
     0
 45
0.0
1001
ACAD
1000
AcDbSavedByObjectVersion
1070
     0
  0
VISUALSTYLE
  5
35
102
{ACAD_REACTORS
330
2A
102
}
330
2A
100
AcDbVisualStyle
  2
Dim
 70
    11
 71
     2
 72
     2
 73
     0
 90
        0
 40
-0.6
 41
-30.0
 62
     5
 63
     7
 74
     1
 91
        4
 64
     7
 65
   257
 75
     1
175
     1
 42
1.0
 92
        8
 66
     7
 43
1.0
 76
     1
 77
     6
 78
     2
 67
     7
 79
     5
170
     0
171
     0
290
     0
174
     0
 93
        1
 44
-50.0
173
     0
291
     1
 45
0.0
1001
ACAD
1000
AcDbSavedByObjectVersion
1070
     0
  0
VISUALSTYLE
  5
39
102
{ACAD_REACTORS
330
2A
102
}
330
2A
100
AcDbVisualStyle
  2
Facepattern
 70
    15
 71
     2
 72
     2
 73
     0
 90
        0
 40
-0.6
 41
-30.0
 62
     5
 63
     7
 74
     1
 91
        4
 64
     7
 65
   257
 75
     1
175
     1
 42
1.0
 92
        8
 66
     7
 43
1.0
 76
     1
 77
     6
 78
     2
 67
     7
 79
     5
170
     0
171
     0
290
     0
174
     0
 93
        1
 44
0.0
173
     0
291
     1
 45
0.0
1001
ACAD
1000
AcDbSavedByObjectVersion
1070
     0
  0
VISUALSTYLE
  5
2B
102
{ACAD_REACTORS
330
2A
102
}
330
2A
100
AcDbVisualStyle
  2
Flat
 70
     0
 71
     2
 72
     1
 73
     1
 90
        2
 40
-0.6
 41
30.0
 62
     5
 63
     7
 74
     0
 91
        4
 64
     7
 65
   257
 75
     1
175
     1
 42
1.0
 92
        8
 66
     7
 43
1.0
 76
     1
 77
     6
 78
     2
 67
     7
 79
     5
170
     0
171
     0
290
     0
174
     0
 93
       13
 44
0.0
173
     0
291
     1
 45
0.0
1001
ACAD
1000
AcDbSavedByObjectVersion
1070
     0
  0
VISUALSTYLE
  5
2C
102
{ACAD_REACTORS
330
2A
102
}
330
2A
100
AcDbVisualStyle
  2
FlatWithEdges
 70
     1
 71
     2
 72
     1
 73
     1
 90
        2
 40
-0.6
 41
30.0
 62
     5
 63
     7
 74
     1
 91
        4
 64
     7
 65
   257
 75
     1
175
     1
 42
1.0
 92
        0
 66
   257
 43
1.0
 76
     1
 77
     6
 78
     2
 67
     7
 79
     5
170
     0
171
     0
290
     0
174
     0
 93
       13
 44
0.0
173
     0
291
     1
 45
0.0
1001
ACAD
1000
AcDbSavedByObjectVersion
1070
     0
  0
VISUALSTYLE
  5
2D
102
{ACAD_REACTORS
330
2A
102
}
330
2A
100
AcDbVisualStyle
  2
Gouraud
 70
     2
 71
     2
 72
     2
 73
     1
 90
        2
 40
-0.6
 41
30.0
 62
     5
 63
     7
 74
     0
 91
        4
 64
     7
 65
   257
 75
     1
175
     1
 42
1.0
 92
        0
 66
     7
 43
1.0
 76
     1
 77
     6
 78
     2
 67
     7
 79
     5
170
     0
171
     0
290
     0
174
     0
 93
       13
 44
0.0
173
     0
291
     1
 45
0.0
1001
ACAD
1000
AcDbSavedByObjectVersion
1070
     0
  0
VISUALSTYLE
  5
2E
102
{ACAD_REACTORS
330
2A
102
}
330
2A
100
AcDbVisualStyle
  2
GouraudWithEdges
 70
     3
 71
     2
 72
     2
 73
     1
 90
        2
 40
-0.6
 41
30.0
 62
     5
 63
     7
 74
     1
 91
        4
 64
     7
 65
   257
 75
     1
175
     1
 42
1.0
 92
        0
 66
   257
 43
1.0
 76
     1
 77
     6
 78
     2
 67
     7
 79
     5
170
     0
171
     0
290
     0
174
     0
 93
       13
 44
0.0
173
     0
291
     1
 45
0.0
1001
ACAD
1000
AcDbSavedByObjectVersion
1070
     0
  0
VISUALSTYLE
  5
38
102
{ACAD_REACTORS
330
2A
102
}
330
2A
100
AcDbVisualStyle
  2
Linepattern
 70
    14
 71
     2
 72
     2
 73
     0
 90
        0
 40
-0.6
 41
-30.0
 62
     5
 63
     7
 74
     1
 91
        4
 64
     7
 65
   257
 75
     7
175
     7
 42
1.0
 92
        8
 66
     7
 43
1.0
 76
     1
 77
     6
 78
     2
 67
     7
 79
     5
170
     0
171
     0
290
     0
174
     0
 93
        1
 44
0.0
173
     0
291
     1
 45
0.0
1001
ACAD
1000
AcDbSavedByObjectVersion
1070
     0
  0
VISUALSTYLE
  5
33
102
{ACAD_REACTORS
330
2A
102
}
330
2A
100
AcDbVisualStyle
  2
Realistic
 70
     8
 71
     2
 72
     2
 73
     0
 90
        0
 40
-0.6
 41
-30.0
 62
     5
 63
     7
 74
     1
 91
        0
 64
     7
 65
   257
 75
     1
175
     1
 42
1.0
 92
        8
 66
     8
 43
1.0
 76
     1
 77
     6
 78
     2
 67
     7
 79
     5
170
     0
171
     0
290
     0
174
     0
 93
       13
 44
0.0
173
     0
291
     0
 45
0.0
1001
ACAD
1000
AcDbSavedByObjectVersion
1070
     0
  0
VISUALSTYLE
  5
37
102
{ACAD_REACTORS
330
2A
102
}
330
2A
100
AcDbVisualStyle
  2
Thicken
 70
    13
 71
     2
 72
     2
 73
     0
 90
        0
 40
-0.6
 41
-30.0
 62
     5
 63
     7
 74
     1
 91
        4
 64
     7
 65
   257
 75
     1
175
     1
 42
1.0
 92
       12
 66
     7
 43
1.0
 76
     1
 77
     6
 78
     2
 67
     7
 79
     5
170
     0
171
     0
290
     0
174
     0
 93
        1
 44
0.0
173
     0
291
     1
 45
0.0
1001
ACAD
1000
AcDbSavedByObjectVersion
1070
     0
  0
XRECORD
  5
17B
102
{ACAD_REACTORS
330
172
102
}
330
172
100
AcDbXrecord
 90
        0
  0
XRECORD
  5
191
102
{ACAD_REACTORS
330
172
102
}
330
172
100
AcDbXrecord
1000
DSTYLE
1002
{
1070
   179
 70
     2
1070
   143
 40
0.0393700787
1070
    41
 40
18.0
1070
    44
 40
3.0
1070
    42
 40
3.0
1070
   147
 40
4.572
1070
    73
 70
     1
1070
    74
 70
     1
1070
   340
340
11
1070
   140
 40
10.5
1070
   284
 70
     0
1070
    78
 70
     0
1002
}
  0
XRECORD
  5
17C
102
{ACAD_REACTORS
330
172
102
}
330
172
100
AcDbXrecord
  1
{F234B19B-E289-468C-93EF-A0DEF766348F}
  0
XRECORD
  5
175
102
{ACAD_REACTORS
330
172
102
}
330
172
100
AcDbXrecord
  1

  0
XRECORD
  5
17A
102
{ACAD_REACTORS
330
172
102
}
330
172
100
AcDbXrecord
 90
        4
  0
XRECORD
  5
177
102
{ACAD_REACTORS
330
172
102
}
330
172
100
AcDbXrecord
340
1A
  0
XRECORD
  5
179
102
{ACAD_REACTORS
330
172
102
}
330
172
100
AcDbXrecord
 90
    10269
  0
XRECORD
  5
178
102
{ACAD_REACTORS
330
172
102
}
330
172
100
AcDbXrecord
340
19
  0
XRECORD
  5
17E
102
{ACAD_REACTORS
330
172
102
}
330
172
100
AcDbXrecord
 40
0.0
  0
XRECORD
  5
181
102
{ACAD_REACTORS
330
172
102
}
330
172
100
AcDbXrecord
340
0
  0
XRECORD
  5
187
102
{ACAD_REACTORS
330
172
102
}
330
172
100
AcDbXrecord
 10
0.0
 20
0.0
 30
0.0
  0
XRECORD
  5
183
102
{ACAD_REACTORS
330
172
102
}
330
172
100
AcDbXrecord
 10
0.0
 20
0.0
 30
0.0
  0
XRECORD
  5
186
102
{ACAD_REACTORS
330
172
102
}
330
172
100
AcDbXrecord
 10
0.0
 20
0.0
 30
0.0
  0
XRECORD
  5
184
102
{ACAD_REACTORS
330
172
102
}
330
172
100
AcDbXrecord
 10
0.0
 20
0.0
 30
0.0
  0
XRECORD
  5
185
102
{ACAD_REACTORS
330
172
102
}
330
172
100
AcDbXrecord
 10
0.0
 20
0.0
 30
0.0
  0
XRECORD
  5
182
102
{ACAD_REACTORS
330
172
102
}
330
172
100
AcDbXrecord
 10
0.0
 20
0.0
 30
0.0
  0
XRECORD
  5
17F
102
{ACAD_REACTORS
330
172
102
}
330
172
100
AcDbXrecord
340
0
  0
XRECORD
  5
180
102
{ACAD_REACTORS
330
172
102
}
330
172
100
AcDbXrecord
 70
     0
  0
XRECORD
  5
176
102
{ACAD_REACTORS
330
172
102
}
330
172
100
AcDbXrecord
  1

  0
XRECORD
  5
173
102
{ACAD_REACTORS
330
172
102
}
330
172
100
AcDbXrecord
 90
        1
  0
XRECORD
  5
174
102
{ACAD_REACTORS
330
172
102
}
330
172
100
AcDbXrecord
 90
       70
  0
XRECORD
  5
18A
102
{ACAD_REACTORS
330
172
102
}
330
172
100
AcDbXrecord
340
0
  0
XRECORD
  5
190
102
{ACAD_REACTORS
330
172
102
}
330
172
100
AcDbXrecord
 10
0.0
 20
0.0
 30
0.0
  0
XRECORD
  5
18C
102
{ACAD_REACTORS
330
172
102
}
330
172
100
AcDbXrecord
 10
0.0
 20
0.0
 30
0.0
  0
XRECORD
  5
18F
102
{ACAD_REACTORS
330
172
102
}
330
172
100
AcDbXrecord
 10
0.0
 20
0.0
 30
0.0
  0
XRECORD
  5
18D
102
{ACAD_REACTORS
330
172
102
}
330
172
100
AcDbXrecord
 10
0.0
 20
0.0
 30
0.0
  0
XRECORD
  5
18E
102
{ACAD_REACTORS
330
172
102
}
330
172
100
AcDbXrecord
 10
0.0
 20
0.0
 30
0.0
  0
XRECORD
  5
18B
102
{ACAD_REACTORS
330
172
102
}
330
172
100
AcDbXrecord
 10
0.0
 20
0.0
 30
0.0
  0
XRECORD
  5
188
102
{ACAD_REACTORS
330
172
102
}
330
172
100
AcDbXrecord
340
0
  0
XRECORD
  5
189
102
{ACAD_REACTORS
330
172
102
}
330
172
100
AcDbXrecord
 70
     0
  0
XRECORD
  5
17D
102
{ACAD_REACTORS
330
172
102
}
330
172
100
AcDbXrecord
  1
{FAEB1C32-E019-11D5-929B-00C0DF256EC4}
  0
DICTIONARYVAR
  5
196
102
{ACAD_REACTORS
330
194
102
}
330
194
100
DictionaryVariables
280
     0
  1
80.000000
  0
DICTIONARYVAR
  5
195
102
{ACAD_REACTORS
330
194
102
}
330
194
100
DictionaryVariables
280
     0
  1
5.000000
  0
ENDSEC
  0
EOF
