  0
SECTION
  2
HEADER
  9
$ACADVER
  1
AC1014
  9
$ACADMAINTVER
 70
     9
  9
$DWGCODEPAGE
  3
ANSI_1252
  9
$INSBASE
 10
0.0
 20
0.0
 30
0.0
  9
$EXTMIN
 10
0.0
 20
0.0
 30
0.0
  9
$EXTMAX
 10
2100.0
 20
1485.0
 30
0.0
  9
$LIMMIN
 10
0.0
 20
0.0
  9
$LIMMAX
 10
2100.0
 20
1485.0
  9
$ORTHOMODE
 70
     0
  9
$REGENMODE
 70
     1
  9
$FILLMODE
 70
     1
  9
$QTEXTMODE
 70
     0
  9
$MIRRTEXT
 70
     1
  9
$DRAGMODE
 70
     2
  9
$LTSCALE
 40
1.0
  9
$OSMODE
 70
    37
  9
$ATTMODE
 70
     1
  9
$TEXTSIZE
 40
17.5
  9
$TRACEWID
 40
1.0
  9
$TEXTSTYLE
  7
STANDARD
  9
$CLAYER
  8
0
  9
$CELTYPE
  6
BYLAYER
  9
$CECOLOR
 62
   256
  9
$CELTSCALE
 40
1.0
  9
$DELOBJ
 70
     1
  9
$DISPSILH
 70
     0
  9
$DIMSCALE
 40
1.0
  9
$DIMASZ
 40
30.0
  9
$DIMEXO
 40
5.0
  9
$DIMDLI
 40
3.75
  9
$DIMRND
 40
0.0
  9
$DIMDLE
 40
0.0
  9
$DIMEXE
 40
5.0
  9
$DIMTP
 40
0.0
  9
$DIMTM
 40
0.0
  9
$DIMTXT
 40
17.5
  9
$DIMCEN
 40
2.5
  9
$DIMTSZ
 40
0.0
  9
$DIMTOL
 70
     0
  9
$DIMLIM
 70
     0
  9
$DIMTIH
 70
     1
  9
$DIMTOH
 70
     1
  9
$DIMSE1
 70
     0
  9
$DIMSE2
 70
     0
  9
$DIMTAD
 70
     1
  9
$DIMZIN
 70
     0
  9
$DIMBLK
  1

  9
$DIMASO
 70
     1
  9
$DIMSHO
 70
     1
  9
$DIMPOST
  1

  9
$DIMAPOST
  1

  9
$DIMALT
 70
     0
  9
$DIMALTD
 70
     3
  9
$DIMALTF
 40
0.0393700787
  9
$DIMLFAC
 40
1.0
  9
$DIMTOFL
 70
     1
  9
$DIMTVP
 40
0.0
  9
$DIMTIX
 70
     0
  9
$DIMSOXD
 70
     0
  9
$DIMSAH
 70
     0
  9
$DIMBLK1
  1

  9
$DIMBLK2
  1

  9
$DIMSTYLE
  2
ISO-25
  9
$DIMCLRD
 70
     0
  9
$DIMCLRE
 70
     0
  9
$DIMCLRT
 70
     0
  9
$DIMTFAC
 40
1.0
  9
$DIMGAP
 40
7.62
  9
$DIMJUST
 70
     0
  9
$DIMSD1
 70
     0
  9
$DIMSD2
 70
     0
  9
$DIMTOLJ
 70
     0
  9
$DIMTZIN
 70
     0
  9
$DIMALTZ
 70
     0
  9
$DIMALTTZ
 70
     0
  9
$DIMFIT
 70
     3
  9
$DIMUPT
 70
     0
  9
$DIMUNIT
 70
     2
  9
$DIMDEC
 70
     2
  9
$DIMTDEC
 70
     2
  9
$DIMALTU
 70
     2
  9
$DIMALTTD
 70
     3
  9
$DIMTXSTY
  7
STANDARD
  9
$DIMAUNIT
 70
     0
  9
$LUNITS
 70
     2
  9
$LUPREC
 70
     2
  9
$SKETCHINC
 40
1.0
  9
$FILLETRAD
 40
10.0
  9
$AUNITS
 70
     0
  9
$AUPREC
 70
     2
  9
$MENU
  1
.
  9
$ELEVATION
 40
0.0
  9
$PELEVATION
 40
0.0
  9
$THICKNESS
 40
0.0
  9
$LIMCHECK
 70
     0
  9
$CHAMFERA
 40
10.0
  9
$CHAMFERB
 40
10.0
  9
$CHAMFERC
 40
20.0
  9
$CHAMFERD
 40
0.0
  9
$SKPOLY
 70
     0
  9
$TDCREATE
 40
2455260.613824144
  9
$TDUPDATE
 40
2455260.613824155
  9
$TDINDWG
 40
0.0000000116
  9
$TDUSRTIMER
 40
0.0000000116
  9
$USRTIMER
 70
     1
  9
$ANGBASE
 50
0.0
  9
$ANGDIR
 70
     0
  9
$PDMODE
 70
     0
  9
$PDSIZE
 40
-1.0
  9
$PLINEWID
 40
0.0
  9
$COORDS
 70
     1
  9
$SPLFRAME
 70
     0
  9
$SPLINETYPE
 70
     6
  9
$SPLINESEGS
 70
     8
  9
$ATTDIA
 70
     0
  9
$ATTREQ
 70
     1
  9
$HANDLING
 70
     1
  9
$HANDSEED
  5
389
  9
$SURFTAB1
 70
     6
  9
$SURFTAB2
 70
     6
  9
$SURFTYPE
 70
     6
  9
$SURFU
 70
     6
  9
$SURFV
 70
     6
  9
$UCSNAME
  2

  9
$UCSORG
 10
0.0
 20
0.0
 30
0.0
  9
$UCSXDIR
 10
1.0
 20
0.0
 30
0.0
  9
$UCSYDIR
 10
0.0
 20
1.0
 30
0.0
  9
$PUCSNAME
  2

  9
$PUCSORG
 10
0.0
 20
0.0
 30
0.0
  9
$PUCSXDIR
 10
1.0
 20
0.0
 30
0.0
  9
$PUCSYDIR
 10
0.0
 20
1.0
 30
0.0
  9
$USERI1
 70
     0
  9
$USERI2
 70
     0
  9
$USERI3
 70
     0
  9
$USERI4
 70
     0
  9
$USERI5
 70
     0
  9
$USERR1
 40
0.0
  9
$USERR2
 40
0.0
  9
$USERR3
 40
0.0
  9
$USERR4
 40
0.0
  9
$USERR5
 40
0.0
  9
$WORLDVIEW
 70
     1
  9
$SHADEDGE
 70
     3
  9
$SHADEDIF
 70
    70
  9
$TILEMODE
 70
     1
  9
$MAXACTVP
 70
    64
  9
$PINSBASE
 10
0.0
 20
0.0
 30
0.0
  9
$PLIMCHECK
 70
     0
  9
$PEXTMIN
 10
1.0000000000E+20
 20
1.0000000000E+20
 30
1.0000000000E+20
  9
$PEXTMAX
 10
-1.0000000000E+20
 20
-1.0000000000E+20
 30
-1.0000000000E+20
  9
$PLIMMIN
 10
0.0
 20
0.0
  9
$PLIMMAX
 10
420.0
 20
297.0
  9
$UNITMODE
 70
     0
  9
$VISRETAIN
 70
     1
  9
$PLINEGEN
 70
     0
  9
$PSLTSCALE
 70
     1
  9
$TREEDEPTH
 70
  3020
  9
$PICKSTYLE
 70
     1
  9
$CMLSTYLE
  2
STANDARD
  9
$CMLJUST
 70
     0
  9
$CMLSCALE
 40
20.0
  9
$PROXYGRAPHICS
 70
     1
  9
$MEASUREMENT
 70
     1
  0
ENDSEC
  0
SECTION
  2
CLASSES
  0
CLASS
  1
ACDBDICTIONARYWDFLT
  2
AcDbDictionaryWithDefault
  3
ObjectDBX Classes
 90
        0
280
     0
281
     0
  0
CLASS
  1
VISUALSTYLE
  2
AcDbVisualStyle
  3
ObjectDBX Classes
 90
     4095
280
     0
281
     0
  0
CLASS
  1
DICTIONARYVAR
  2
AcDbDictionaryVar
  3
ObjectDBX Classes
 90
        0
280
     0
281
     0
  0
CLASS
  1
XRECORD
  2
AcDbXrecord
  3
AutoCAD 2000
 90
        0
280
     0
281
     0
  0
CLASS
  1
LWPOLYLINE
  2
AcDbPolyline
  3
AutoCAD 2000
 90
        0
280
     0
281
     1
  0
CLASS
  1
HATCH
  2
AcDbHatch
  3
AutoCAD 2000
 90
        0
280
     0
281
     1
  0
CLASS
  1
ACDBPLACEHOLDER
  2
AcDbPlaceHolder
  3
ObjectDBX Classes
 90
        0
280
     0
281
     0
  0
CLASS
  1
LAYOUT
  2
AcDbLayout
  3
ObjectDBX Classes
 90
        0
280
     0
281
     0
  0
ENDSEC
  0
SECTION
  2
TABLES
  0
TABLE
  2
VPORT
  5
8
330
0
100
AcDbSymbolTable
 70
     1
  0
VPORT
  5
29
330
8
100
AcDbSymbolTableRecord
100
AcDbViewportTableRecord
  2
*ACTIVE
 70
     0
 10
0.0
 20
0.0
 11
1.0
 21
1.0
 12
1050.0
 22
742.5
 13
0.0
 23
0.0
 14
10.0
 24
10.0
 15
10.0
 25
10.0
 16
0.0
 26
0.0
 36
1.0
 17
0.0
 27
0.0
 37
0.0
 40
1485.0
 41
1.4141414141
 42
50.0
 43
0.0
 44
0.0
 50
0.0
 51
0.0
 71
     0
 72
  2000
 73
     1
 74
     3
 75
     0
 76
     0
 77
     0
 78
     0
  0
ENDTAB
  0
TABLE
  2
LTYPE
  5
5
330
0
100
AcDbSymbolTable
 70
     6
  0
LTYPE
  5
14
330
5
100
AcDbSymbolTableRecord
100
AcDbLinetypeTableRecord
  2
BYBLOCK
 70
     0
  3

 72
    65
 73
     0
 40
0.0
  0
LTYPE
  5
15
330
5
100
AcDbSymbolTableRecord
100
AcDbLinetypeTableRecord
  2
BYLAYER
 70
     0
  3

 72
    65
 73
     0
 40
0.0
  0
LTYPE
  5
16
330
5
100
AcDbSymbolTableRecord
100
AcDbLinetypeTableRecord
  2
CONTINUOUS
 70
     0
  3
Solid line
 72
    65
 73
     0
 40
0.0
  0
LTYPE
  5
3B
330
5
100
AcDbSymbolTableRecord
100
AcDbLinetypeTableRecord
  2
HIDDEN
 70
     0
  3
Hidden __ __ __ __ __ __ __ __ __ __ __ __ __ __
 72
    65
 73
     2
 40
1.905
 49
1.27
 74
     0
 49
-0.635
 74
     0
  0
LTYPE
  5
3C
330
5
100
AcDbSymbolTableRecord
100
AcDbLinetypeTableRecord
  2
PHANTOM
 70
     0
  3
Phantom ______  __  __  ______  __  __  ______
 72
    65
 73
     6
 40
12.7
 49
6.35
 74
     0
 49
-1.27
 74
     0
 49
1.27
 74
     0
 49
-1.27
 74
     0
 49
1.27
 74
     0
 49
-1.27
 74
     0
  0
LTYPE
  5
3D
330
5
100
AcDbSymbolTableRecord
100
AcDbLinetypeTableRecord
  2
CENTER
 70
     0
  3
Center ____ _ ____ _ ____ _ ____ _ ____ _ ____
 72
    65
 73
     4
 40
10.16
 49
6.35
 74
     0
 49
-1.27
 74
     0
 49
1.27
 74
     0
 49
-1.27
 74
     0
  0
LTYPE
  5
3E
330
5
100
AcDbSymbolTableRecord
100
AcDbLinetypeTableRecord
  2
CENTERX2
 70
     0
  3
Center (2x) ________  __  ________  __  _____
 72
    65
 73
     4
 40
20.32
 49
12.7
 74
     0
 49
-2.54
 74
     0
 49
2.54
 74
     0
 49
-2.54
 74
     0
  0
LTYPE
  5
3F
330
5
100
AcDbSymbolTableRecord
100
AcDbLinetypeTableRecord
  2
DOT2
 70
     0
  3
Dot (.5x) ........................................
 72
    65
 73
     2
 40
0.635
 49
0.0
 74
     0
 49
-0.635
 74
     0
  0
ENDTAB
  0
TABLE
  2
LAYER
  5
2
330
0
100
AcDbSymbolTable
 70
     1
  0
LAYER
  5
10
330
2
100
AcDbSymbolTableRecord
100
AcDbLayerTableRecord
  2
0
 70
     0
 62
     7
  6
CONTINUOUS
  0
ENDTAB
  0
TABLE
  2
STYLE
  5
3
330
0
100
AcDbSymbolTable
 70
     1
  0
STYLE
  5
11
330
3
100
AcDbSymbolTableRecord
100
AcDbTextStyleTableRecord
  2
STANDARD
 70
     0
 40
0.0
 41
1.0
 50
0.0
 71
     0
 42
2.5
  3
txt
  4

  0
ENDTAB
  0
TABLE
  2
VIEW
  5
6
330
0
100
AcDbSymbolTable
 70
     0
  0
ENDTAB
  0
TABLE
  2
UCS
  5
7
330
0
100
AcDbSymbolTable
 70
     0
  0
ENDTAB
  0
TABLE
  2
APPID
  5
9
330
0
100
AcDbSymbolTable
 70
     1
  0
APPID
  5
12
330
9
100
AcDbSymbolTableRecord
100
AcDbRegAppTableRecord
  2
ACAD
 70
     0
  0
ENDTAB
  0
TABLE
  2
DIMSTYLE
  5
A
330
0
100
AcDbSymbolTable
 70
     1
  0
DIMSTYLE
105
27
330
A
100
AcDbSymbolTableRecord
100
AcDbDimStyleTableRecord
  2
ISO-25
 70
     0
  3

  4

  5

  6

  7

 40
1.0
 41
2.5
 42
0.625
 43
3.75
 44
1.25
 45
0.0
 46
0.0
 47
0.0
 48
0.0
140
2.5
141
2.5
142
0.0
143
0.0393700787
144
1.0
145
0.0
146
1.0
147
0.625
 71
     0
 72
     0
 73
     0
 74
     0
 75
     0
 76
     0
 77
     1
 78
     8
170
     0
171
     3
172
     1
173
     0
174
     0
175
     0
176
     0
177
     0
178
     0
270
     2
271
     2
272
     2
273
     2
274
     3
340
11
275
     0
280
     0
281
     0
282
     0
283
     0
284
     8
285
     0
286
     0
287
     3
288
     0
  0
ENDTAB
  0
TABLE
  2
BLOCK_RECORD
  5
1
330
0
100
AcDbSymbolTable
 70
     1
  0
BLOCK_RECORD
  5
1F
330
1
100
AcDbSymbolTableRecord
100
AcDbBlockTableRecord
  2
*MODEL_SPACE
  0
BLOCK_RECORD
  5
1B
330
1
100
AcDbSymbolTableRecord
100
AcDbBlockTableRecord
  2
*PAPER_SPACE
  0
ENDTAB
  0
ENDSEC
  0
SECTION
  2
BLOCKS
  0
BLOCK
  5
20
330
1F
100
AcDbEntity
  8
0
100
AcDbBlockBegin
  2
*MODEL_SPACE
 70
     0
 10
0.0
 20
0.0
 30
0.0
  3
*MODEL_SPACE
  1

  0
ENDBLK
  5
21
330
1F
100
AcDbEntity
  8
0
100
AcDbBlockEnd
  0
BLOCK
  5
1C
330
1B
100
AcDbEntity
 67
     1
  8
0
100
AcDbBlockBegin
  2
*PAPER_SPACE
 70
     0
 10
0.0
 20
0.0
 30
0.0
  3
*PAPER_SPACE
  1

  0
ENDBLK
  5
1D
330
1B
100
AcDbEntity
 67
     1
  8
0
100
AcDbBlockEnd
  0
ENDSEC
  0
SECTION
  2
ENTITIES
  0
LINE
  5
40
330
1F
100
AcDbEntity
  8
0
  6
CONTINUOUS
 62
     7
100
AcDbLine
 10
536.2002996032
 20
894.8360307106
 30
0.0
 11
536.2002996032
 21
894.6360347756
 31
0.0
  0
LINE
  5
41
330
1F
100
AcDbEntity
  8
0
  6
CONTINUOUS
 62
     7
100
AcDbLine
 10
536.2002996032
 20
864.6360335835
 30
0.0
 11
536.2002996032
 21
864.436030198
 31
0.0
  0
LINE
  5
42
330
1F
100
AcDbEntity
  8
0
  6
CONTINUOUS
 62
     7
100
AcDbLine
 10
541.2002948349
 20
864.436030198
 30
0.0
 11
541.2002948349
 21
864.6360335835
 31
0.0
  0
LINE
  5
43
330
1F
100
AcDbEntity
  8
0
  6
CONTINUOUS
 62
     7
100
AcDbLine
 10
541.2002948349
 20
894.6360347756
 30
0.0
 11
541.2002948349
 21
894.8360307106
 31
0.0
  0
LINE
  5
44
330
1F
100
AcDbEntity
  8
0
  6
CONTINUOUS
 62
     7
100
AcDbLine
 10
541.2002948349
 20
664.4360346683
 30
0.0
 11
541.2002948349
 21
664.6360306033
 31
0.0
  0
LINE
  5
45
330
1F
100
AcDbEntity
  8
0
  6
CONTINUOUS
 62
     7
100
AcDbLine
 10
541.2002948349
 20
694.6360317954
 30
0.0
 11
541.2002948349
 21
694.8360351809
 31
0.0
  0
LINE
  5
46
330
1F
100
AcDbEntity
  8
0
  6
CONTINUOUS
 62
     7
100
AcDbLine
 10
536.2002996032
 20
694.8360351809
 30
0.0
 11
536.2002996032
 21
694.6360317954
 31
0.0
  0
LINE
  5
47
330
1F
100
AcDbEntity
  8
0
  6
CONTINUOUS
 62
     7
100
AcDbLine
 10
536.2002996032
 20
664.6360306033
 30
0.0
 11
536.2002996032
 21
664.4360346683
 31
0.0
  0
LINE
  5
48
330
1F
100
AcDbEntity
  8
0
  6
CONTINUOUS
 62
     7
100
AcDbLine
 10
897.1619156425
 20
927.0860327371
 30
0.0
 11
897.1619156425
 21
632.1860326418
 31
0.0
  0
SPLINE
  5
49
330
1F
100
AcDbEntity
  8
0
  6
CONTINUOUS
 62
     7
100
AcDbSpline
210
0.0
220
0.0
230
1.0
 70
     8
 71
     3
 72
    11
 73
     7
 74
     0
 42
0.00000001
 43
0.00000001
 40
0.0
 40
0.0
 40
0.0
 40
0.0
 40
0.2480806708614667
 40
0.4985991590056015
 40
0.7490821118366366
 40
1.0
 40
1.0
 40
1.0
 40
1.0
 10
897.1619156425012
 20
632.1860326417665
 30
0.0
 10
897.1164865422481
 20
631.769351491185
 30
0.0
 10
897.0251819230615
 20
630.9318945843974
 30
0.0
 10
896.2842112070147
 20
629.8775517298251
 30
0.0
 10
895.2309675962995
 20
629.1308280271128
 30
0.0
 10
894.3920734185348
 20
629.0343292964759
 30
0.0
 10
893.9722624843133
 20
628.9860380777102
 30
0.0
  0
LINE
  5
4A
330
1F
100
AcDbEntity
  8
0
  6
CONTINUOUS
 62
     7
100
AcDbLine
 10
553.4325984542
 20
628.9860380777
 30
0.0
 11
893.9722624843
 21
628.9860380777
 31
0.0
  0
SPLINE
  5
4B
330
1F
100
AcDbEntity
  8
0
  6
CONTINUOUS
 62
     7
100
AcDbSpline
210
0.0
220
0.0
230
1.0
 70
     8
 71
     3
 72
    11
 73
     7
 74
     0
 42
0.00000001
 43
0.00000001
 40
0.0
 40
0.0
 40
0.0
 40
0.0
 40
0.248155361518775
 40
0.4986662700623602
 40
0.7491087140947804
 40
1.0
 40
1.0
 40
1.0
 40
1.0
 10
553.4325984542382
 20
628.9860380777102
 30
0.0
 10
553.017116954575
 20
629.0316467882601
 30
0.0
 10
552.1822101105363
 20
629.123297137594
 30
0.0
 10
551.1313259300449
 20
629.8668485578561
 30
0.0
 10
550.3872210892525
 20
630.9234663809669
 30
0.0
 10
550.2910559917393
 20
631.7649261031098
 30
0.0
 10
550.2429303948892
 20
632.1860326417665
 30
0.0
  0
LINE
  5
4C
330
1F
100
AcDbEntity
  8
0
  6
CONTINUOUS
 62
     7
100
AcDbLine
 10
550.2429303949
 20
632.1860326418
 30
0.0
 11
550.2429303949
 21
927.0860327371
 31
0.0
  0
SPLINE
  5
4D
330
1F
100
AcDbEntity
  8
0
  6
CONTINUOUS
 62
     7
100
AcDbSpline
210
0.0
220
0.0
230
1.0
 70
     8
 71
     3
 72
    11
 73
     7
 74
     0
 42
0.00000001
 43
0.00000001
 40
0.0
 40
0.0
 40
0.0
 40
0.0
 40
0.2480800586529777
 40
0.498597928572627
 40
0.7490827310467536
 40
1.0
 40
1.0
 40
1.0
 40
1.0
 10
550.2429303948892
 20
927.086032737134
 30
0.0
 10
550.2883596083088
 20
927.5027137185798
 30
0.0
 10
550.3796644549408
 20
928.3401702854342
 30
0.0
 10
551.1206358934328
 20
929.3945191820449
 30
0.0
 10
552.1738910320722
 20
930.141234015841
 30
0.0
 10
553.0127881265902
 20
930.2377351282092
 30
0.0
 10
553.4325984542382
 20
930.2860273011904
 30
0.0
  0
SPLINE
  5
4E
330
1F
100
AcDbEntity
  8
0
  6
CONTINUOUS
 62
     7
100
AcDbSpline
210
0.0
220
0.0
230
1.0
 70
     8
 71
     3
 72
    11
 73
     7
 74
     0
 42
0.00000001
 43
0.00000001
 40
0.0
 40
0.0
 40
0.0
 40
0.0
 40
0.2481528999566261
 40
0.4986642700616415
 40
0.7491088339024005
 40
1.0
 40
1.0
 40
1.0
 40
1.0
 10
893.9722624843133
 20
930.2860273011904
 30
0.0
 10
894.3877391785189
 20
930.2404180050497
 30
0.0
 10
895.2226412992674
 20
930.1487659374252
 30
0.0
 10
896.2735174234189
 20
929.4052123316765
 30
0.0
 10
897.0176460640486
 20
928.3486055859379
 30
0.0
 10
897.1137972317383
 20
927.5071402194493
 30
0.0
 10
897.1619156425012
 20
927.086032737134
 30
0.0
  0
LINE
  5
4F
330
1F
100
AcDbEntity
  8
0
  6
CONTINUOUS
 62
     7
100
AcDbLine
 10
553.4325984542
 20
930.2860273012
 30
0.0
 11
893.9722624843
 21
930.2860273012
 31
0.0
  0
LINE
  5
50
330
1F
100
AcDbEntity
  8
0
  6
CONTINUOUS
 62
     7
100
AcDbLine
 10
908.807128412
 20
623.1315059551
 30
0.0
 11
908.807128412
 21
664.4360346683
 31
0.0
  0
ELLIPSE
  5
51
330
1F
100
AcDbEntity
  8
0
  6
CONTINUOUS
 62
     7
100
AcDbEllipse
 10
723.702424532
 20
697.5818730109
 30
0.0
 11
2140.0
 21
0.0
 31
0.0
210
0.0
220
0.0
230
1.0
 40
0.0349207695
 41
4.625602930778514
 42
4.798994730912133
  0
LINE
  5
52
330
1F
100
AcDbEntity
  8
0
  6
CONTINUOUS
 62
     7
100
AcDbLine
 10
538.2133272712
 20
664.4360346683
 30
0.0
 11
538.2133272712
 21
623.1326831468
 31
0.0
  0
LINE
  5
53
330
1F
100
AcDbEntity
  8
0
  6
CONTINUOUS
 62
     7
100
AcDbLine
 10
543.0643108909
 20
664.4360346683
 30
0.0
 11
538.2133272712
 21
664.4360346683
 31
0.0
  0
LINE
  5
54
330
1F
100
AcDbEntity
  8
0
  6
CONTINUOUS
 62
     7
100
AcDbLine
 10
543.0643108909
 20
664.4360346683
 30
0.0
 11
543.0643108909
 21
694.8360351809
 31
0.0
  0
LINE
  5
55
330
1F
100
AcDbEntity
  8
0
  6
CONTINUOUS
 62
     7
100
AcDbLine
 10
543.0643108909
 20
694.8360351809
 30
0.0
 11
538.2133272712
 21
694.8360351809
 31
0.0
  0
LINE
  5
56
330
1F
100
AcDbEntity
  8
0
  6
CONTINUOUS
 62
     7
100
AcDbLine
 10
538.2133272712
 20
864.436030198
 30
0.0
 11
538.2133272712
 21
694.8360351809
 31
0.0
  0
LINE
  5
57
330
1F
100
AcDbEntity
  8
0
  6
CONTINUOUS
 62
     7
100
AcDbLine
 10
543.0643108909
 20
864.436030198
 30
0.0
 11
538.2133272712
 21
864.436030198
 31
0.0
  0
LINE
  5
58
330
1F
100
AcDbEntity
  8
0
  6
CONTINUOUS
 62
     7
100
AcDbLine
 10
543.0643108909
 20
894.8360307106
 30
0.0
 11
543.0643108909
 21
864.436030198
 31
0.0
  0
LINE
  5
59
330
1F
100
AcDbEntity
  8
0
  6
CONTINUOUS
 62
     7
100
AcDbLine
 10
543.0643108909
 20
894.8360307106
 30
0.0
 11
538.2133272712
 21
894.8360307106
 31
0.0
  0
LINE
  5
5A
330
1F
100
AcDbEntity
  8
0
  6
CONTINUOUS
 62
     7
100
AcDbLine
 10
538.2133272712
 20
936.1393822321
 30
0.0
 11
538.2133272712
 21
894.8360307106
 31
0.0
  0
ELLIPSE
  5
5B
330
1F
100
AcDbEntity
  8
0
  6
CONTINUOUS
 62
     7
100
AcDbEllipse
 10
723.702424532
 20
861.690192368
 30
0.0
 11
2140.0
 21
0.0
 31
0.0
210
0.0
220
0.0
230
1.0
 40
0.0349207695
 41
1.484190576267457
 42
1.657582376401076
  0
LINE
  5
5C
330
1F
100
AcDbEntity
  8
0
  6
CONTINUOUS
 62
     7
100
AcDbLine
 10
908.807128412
 20
894.8360307106
 30
0.0
 11
908.807128412
 21
936.1405594238
 31
0.0
  0
LINE
  5
5D
330
1F
100
AcDbEntity
  8
0
  6
CONTINUOUS
 62
     7
100
AcDbLine
 10
908.807128412
 20
894.8360307106
 30
0.0
 11
900.3173855369
 21
894.8360307106
 31
0.0
  0
LINE
  5
5E
330
1F
100
AcDbEntity
  8
0
  6
CONTINUOUS
 62
     7
100
AcDbLine
 10
900.3173855369
 20
894.8360307106
 30
0.0
 11
900.3173855369
 21
864.436030198
 31
0.0
  0
LINE
  5
5F
330
1F
100
AcDbEntity
  8
0
  6
CONTINUOUS
 62
     7
100
AcDbLine
 10
908.807128412
 20
864.436030198
 30
0.0
 11
900.3173855369
 21
864.436030198
 31
0.0
  0
LINE
  5
60
330
1F
100
AcDbEntity
  8
0
  6
CONTINUOUS
 62
     7
100
AcDbLine
 10
908.807128412
 20
694.8360351809
 30
0.0
 11
908.807128412
 21
864.436030198
 31
0.0
  0
LINE
  5
61
330
1F
100
AcDbEntity
  8
0
  6
CONTINUOUS
 62
     7
100
AcDbLine
 10
908.807128412
 20
694.8360351809
 30
0.0
 11
900.3173855369
 21
694.8360351809
 31
0.0
  0
LINE
  5
62
330
1F
100
AcDbEntity
  8
0
  6
CONTINUOUS
 62
     7
100
AcDbLine
 10
900.3173855369
 20
664.4360346683
 30
0.0
 11
900.3173855369
 21
694.8360351809
 31
0.0
  0
LINE
  5
63
330
1F
100
AcDbEntity
  8
0
  6
CONTINUOUS
 62
     7
100
AcDbLine
 10
908.807128412
 20
664.4360346683
 30
0.0
 11
900.3173855369
 21
664.4360346683
 31
0.0
  0
LINE
  5
64
330
1F
100
AcDbEntity
  8
0
  6
CONTINUOUS
 62
     7
100
AcDbLine
 10
542.8199616497
 20
894.8360307106
 30
0.0
 11
542.8199616497
 21
864.436030198
 31
0.0
  0
LINE
  5
65
330
1F
100
AcDbEntity
  8
0
  6
CONTINUOUS
 62
     7
100
AcDbLine
 10
542.8199616497
 20
664.4360346683
 30
0.0
 11
542.8199616497
 21
694.8360351809
 31
0.0
  0
LINE
  5
66
330
1F
100
AcDbEntity
  8
0
  6
CONTINUOUS
 62
     7
100
AcDbLine
 10
911.4971605365
 20
936.0559655317
 30
0.0
 11
911.4971605365
 21
894.8360307106
 31
0.0
  0
LINE
  5
67
330
1F
100
AcDbEntity
  8
0
  6
CONTINUOUS
 62
     7
100
AcDbLine
 10
908.807128412
 20
894.8360307106
 30
0.0
 11
911.4971605365
 21
894.8360307106
 31
0.0
  0
LINE
  5
68
330
1F
100
AcDbEntity
  8
0
  6
CONTINUOUS
 62
     7
100
AcDbLine
 10
908.807128412
 20
936.1405594238
 30
0.0
 11
911.4971605365
 21
936.0559655317
 31
0.0
  0
LINE
  5
69
330
1F
100
AcDbEntity
  8
0
  6
CONTINUOUS
 62
     7
100
AcDbLine
 10
911.4971605365
 20
664.4360346683
 30
0.0
 11
911.4971605365
 21
623.2160998472
 31
0.0
  0
LINE
  5
6A
330
1F
100
AcDbEntity
  8
0
  6
CONTINUOUS
 62
     7
100
AcDbLine
 10
911.4971605365
 20
664.4360346683
 30
0.0
 11
908.807128412
 21
664.4360346683
 31
0.0
  0
LINE
  5
6B
330
1F
100
AcDbEntity
  8
0
  6
CONTINUOUS
 62
     7
100
AcDbLine
 10
911.4971605365
 20
623.2160998472
 30
0.0
 11
908.807128412
 21
623.1315059551
 31
0.0
  0
LINE
  5
6C
330
1F
100
AcDbEntity
  8
0
  6
CONTINUOUS
 62
     7
100
AcDbLine
 10
911.4971605365
 20
864.436030198
 30
0.0
 11
911.4971605365
 21
694.8360351809
 31
0.0
  0
LINE
  5
6D
330
1F
100
AcDbEntity
  8
0
  6
CONTINUOUS
 62
     7
100
AcDbLine
 10
911.4971605365
 20
694.8360351809
 30
0.0
 11
908.807128412
 21
694.8360351809
 31
0.0
  0
LINE
  5
6E
330
1F
100
AcDbEntity
  8
0
  6
CONTINUOUS
 62
     7
100
AcDbLine
 10
908.807128412
 20
864.436030198
 30
0.0
 11
911.4971605365
 21
864.436030198
 31
0.0
  0
LINE
  5
6F
330
1F
100
AcDbEntity
  8
0
  6
CONTINUOUS
 62
     7
100
AcDbLine
 10
535.887449724
 20
894.8360307106
 30
0.0
 11
535.887449724
 21
936.0424799808
 31
0.0
  0
LINE
  5
70
330
1F
100
AcDbEntity
  8
0
  6
CONTINUOUS
 62
     7
100
AcDbLine
 10
538.2133272712
 20
894.8360307106
 30
0.0
 11
535.887449724
 21
894.8360307106
 31
0.0
  0
LINE
  5
71
330
1F
100
AcDbEntity
  8
0
  6
CONTINUOUS
 62
     7
100
AcDbLine
 10
535.887449724
 20
936.0424799808
 30
0.0
 11
538.2133272712
 21
936.1393822321
 31
0.0
  0
LINE
  5
72
330
1F
100
AcDbEntity
  8
0
  6
CONTINUOUS
 62
     7
100
AcDbLine
 10
535.887449724
 20
623.2295853981
 30
0.0
 11
535.887449724
 21
664.4360346683
 31
0.0
  0
LINE
  5
73
330
1F
100
AcDbEntity
  8
0
  6
CONTINUOUS
 62
     7
100
AcDbLine
 10
538.2133272712
 20
664.4360346683
 30
0.0
 11
535.887449724
 21
664.4360346683
 31
0.0
  0
LINE
  5
74
330
1F
100
AcDbEntity
  8
0
  6
CONTINUOUS
 62
     7
100
AcDbLine
 10
538.2133272712
 20
623.1326831468
 30
0.0
 11
535.887449724
 21
623.2295853981
 31
0.0
  0
LINE
  5
75
330
1F
100
AcDbEntity
  8
0
  6
CONTINUOUS
 62
     7
100
AcDbLine
 10
535.887449724
 20
694.8360351809
 30
0.0
 11
535.887449724
 21
864.436030198
 31
0.0
  0
LINE
  5
76
330
1F
100
AcDbEntity
  8
0
  6
CONTINUOUS
 62
     7
100
AcDbLine
 10
538.2133272712
 20
864.436030198
 30
0.0
 11
535.887449724
 21
864.436030198
 31
0.0
  0
LINE
  5
77
330
1F
100
AcDbEntity
  8
0
  6
CONTINUOUS
 62
     7
100
AcDbLine
 10
538.2133272712
 20
694.8360351809
 30
0.0
 11
535.887449724
 21
694.8360351809
 31
0.0
  0
LINE
  5
78
330
1F
100
AcDbEntity
  8
0
  6
CONTINUOUS
 62
     7
100
AcDbLine
 10
909.2733708446
 20
692.8360311278
 30
0.0
 11
909.2733708446
 21
666.4360312709
 31
0.0
  0
LINE
  5
79
330
1F
100
AcDbEntity
  8
0
  6
CONTINUOUS
 62
     7
100
AcDbLine
 10
909.2733708446
 20
666.4360312709
 30
0.0
 11
905.134945852
 21
666.4360312709
 31
0.0
  0
LINE
  5
7A
330
1F
100
AcDbEntity
  8
0
  6
CONTINUOUS
 62
     7
100
AcDbLine
 10
905.134945852
 20
666.4360312709
 30
0.0
 11
905.134945852
 21
664.4360346683
 31
0.0
  0
LINE
  5
7B
330
1F
100
AcDbEntity
  8
0
  6
CONTINUOUS
 62
     7
100
AcDbLine
 10
902.9519555395
 20
664.4360346683
 30
0.0
 11
902.9519555395
 21
694.8360351809
 31
0.0
  0
LINE
  5
7C
330
1F
100
AcDbEntity
  8
0
  6
CONTINUOUS
 62
     7
100
AcDbLine
 10
905.134945852
 20
694.8360351809
 30
0.0
 11
905.134945852
 21
692.8360311278
 31
0.0
  0
LINE
  5
7D
330
1F
100
AcDbEntity
  8
0
  6
CONTINUOUS
 62
     7
100
AcDbLine
 10
909.2733708446
 20
692.8360311278
 30
0.0
 11
905.134945852
 21
692.8360311278
 31
0.0
  0
LINE
  5
7E
330
1F
100
AcDbEntity
  8
0
  6
CONTINUOUS
 62
     7
100
AcDbLine
 10
910.8750221555
 20
692.8360311278
 30
0.0
 11
909.2733708446
 21
692.8360311278
 31
0.0
  0
LINE
  5
7F
330
1F
100
AcDbEntity
  8
0
  6
CONTINUOUS
 62
     7
100
AcDbLine
 10
910.8750221555
 20
692.8360311278
 30
0.0
 11
910.8750221555
 21
666.4360312709
 31
0.0
  0
LINE
  5
80
330
1F
100
AcDbEntity
  8
0
  6
CONTINUOUS
 62
     7
100
AcDbLine
 10
910.8750221555
 20
666.4360312709
 30
0.0
 11
909.2733708446
 21
666.4360312709
 31
0.0
  0
LINE
  5
81
330
1F
100
AcDbEntity
  8
0
  6
CONTINUOUS
 62
     7
100
AcDbLine
 10
910.8750221555
 20
866.4360342511
 30
0.0
 11
910.8750221555
 21
892.836034108
 31
0.0
  0
LINE
  5
82
330
1F
100
AcDbEntity
  8
0
  6
CONTINUOUS
 62
     7
100
AcDbLine
 10
910.8750221555
 20
866.4360342511
 30
0.0
 11
909.2733708446
 21
866.4360342511
 31
0.0
  0
LINE
  5
83
330
1F
100
AcDbEntity
  8
0
  6
CONTINUOUS
 62
     7
100
AcDbLine
 10
909.2733708446
 20
866.4360342511
 30
0.0
 11
909.2733708446
 21
892.836034108
 31
0.0
  0
LINE
  5
84
330
1F
100
AcDbEntity
  8
0
  6
CONTINUOUS
 62
     7
100
AcDbLine
 10
910.8750221555
 20
892.836034108
 30
0.0
 11
909.2733708446
 21
892.836034108
 31
0.0
  0
LINE
  5
85
330
1F
100
AcDbEntity
  8
0
  6
CONTINUOUS
 62
     7
100
AcDbLine
 10
905.134945852
 20
866.4360342511
 30
0.0
 11
905.134945852
 21
864.436030198
 31
0.0
  0
LINE
  5
86
330
1F
100
AcDbEntity
  8
0
  6
CONTINUOUS
 62
     7
100
AcDbLine
 10
902.9519555395
 20
894.8360307106
 30
0.0
 11
902.9519555395
 21
864.436030198
 31
0.0
  0
LINE
  5
87
330
1F
100
AcDbEntity
  8
0
  6
CONTINUOUS
 62
     7
100
AcDbLine
 10
905.134945852
 20
894.8360307106
 30
0.0
 11
905.134945852
 21
892.836034108
 31
0.0
  0
LINE
  5
88
330
1F
100
AcDbEntity
  8
0
  6
CONTINUOUS
 62
     7
100
AcDbLine
 10
909.2733708446
 20
866.4360342511
 30
0.0
 11
905.134945852
 21
866.4360342511
 31
0.0
  0
LINE
  5
89
330
1F
100
AcDbEntity
  8
0
  6
CONTINUOUS
 62
     7
100
AcDbLine
 10
909.2733708446
 20
892.836034108
 30
0.0
 11
905.134945852
 21
892.836034108
 31
0.0
  0
LINE
  5
8A
330
1F
100
AcDbEntity
  8
0
  6
CONTINUOUS
 62
     7
100
AcDbLine
 10
912.2024175947
 20
694.8360351809
 30
0.0
 11
912.2024175947
 21
864.436030198
 31
0.0
  0
LINE
  5
8B
330
1F
100
AcDbEntity
  8
0
  6
CONTINUOUS
 62
     7
100
AcDbLine
 10
912.2024175947
 20
694.8360351809
 30
0.0
 11
911.4971605365
 21
694.8360351809
 31
0.0
  0
LINE
  5
8C
330
1F
100
AcDbEntity
  8
0
  6
CONTINUOUS
 62
     7
100
AcDbLine
 10
912.2024175947
 20
864.436030198
 30
0.0
 11
911.4971605365
 21
864.436030198
 31
0.0
  0
LINE
  5
8D
330
1F
100
AcDbEntity
  8
0
  6
CONTINUOUS
 62
     7
100
AcDbLine
 10
912.2024175947
 20
623.6860377678
 30
0.0
 11
912.2024175947
 21
664.4360346683
 31
0.0
  0
LINE
  5
8E
330
1F
100
AcDbEntity
  8
0
  6
CONTINUOUS
 62
     7
100
AcDbLine
 10
912.2024175947
 20
664.4360346683
 30
0.0
 11
911.4971605365
 21
664.4360346683
 31
0.0
  0
LINE
  5
8F
330
1F
100
AcDbEntity
  8
0
  6
CONTINUOUS
 62
     7
100
AcDbLine
 10
912.2024175947
 20
623.6860377678
 30
0.0
 11
911.4971605365
 21
623.2160998472
 31
0.0
  0
LINE
  5
90
330
1F
100
AcDbEntity
  8
0
  6
CONTINUOUS
 62
     7
100
AcDbLine
 10
912.2024175947
 20
894.8360307106
 30
0.0
 11
912.2024175947
 21
935.5860276111
 31
0.0
  0
LINE
  5
91
330
1F
100
AcDbEntity
  8
0
  6
CONTINUOUS
 62
     7
100
AcDbLine
 10
912.2024175947
 20
894.8360307106
 30
0.0
 11
911.4971605365
 21
894.8360307106
 31
0.0
  0
LINE
  5
92
330
1F
100
AcDbEntity
  8
0
  6
CONTINUOUS
 62
     7
100
AcDbLine
 10
912.2024175947
 20
935.5860276111
 30
0.0
 11
911.4971605365
 21
936.0559655317
 31
0.0
  0
LINE
  5
93
330
1F
100
AcDbEntity
  8
0
  6
CONTINUOUS
 62
     7
100
AcDbLine
 10
535.2024284427
 20
894.8360307106
 30
0.0
 11
535.2024284427
 21
935.5860276111
 31
0.0
  0
LINE
  5
94
330
1F
100
AcDbEntity
  8
0
  6
CONTINUOUS
 62
     7
100
AcDbLine
 10
535.887449724
 20
894.8360307106
 30
0.0
 11
535.2024284427
 21
894.8360307106
 31
0.0
  0
LINE
  5
95
330
1F
100
AcDbEntity
  8
0
  6
CONTINUOUS
 62
     7
100
AcDbLine
 10
535.887449724
 20
936.0424799808
 30
0.0
 11
535.2024284427
 21
935.5860276111
 31
0.0
  0
LINE
  5
96
330
1F
100
AcDbEntity
  8
0
  6
CONTINUOUS
 62
     7
100
AcDbLine
 10
535.2024284427
 20
623.6860377678
 30
0.0
 11
535.2024284427
 21
664.4360346683
 31
0.0
  0
LINE
  5
97
330
1F
100
AcDbEntity
  8
0
  6
CONTINUOUS
 62
     7
100
AcDbLine
 10
535.887449724
 20
664.4360346683
 30
0.0
 11
535.2024284427
 21
664.4360346683
 31
0.0
  0
LINE
  5
98
330
1F
100
AcDbEntity
  8
0
  6
CONTINUOUS
 62
     7
100
AcDbLine
 10
535.887449724
 20
623.2295853981
 30
0.0
 11
535.2024284427
 21
623.6860377678
 31
0.0
  0
LINE
  5
99
330
1F
100
AcDbEntity
  8
0
  6
CONTINUOUS
 62
     7
100
AcDbLine
 10
535.2024284427
 20
694.8360351809
 30
0.0
 11
535.2024284427
 21
864.436030198
 31
0.0
  0
LINE
  5
9A
330
1F
100
AcDbEntity
  8
0
  6
CONTINUOUS
 62
     7
100
AcDbLine
 10
535.887449724
 20
864.436030198
 30
0.0
 11
535.2024284427
 21
864.436030198
 31
0.0
  0
LINE
  5
9B
330
1F
100
AcDbEntity
  8
0
  6
CONTINUOUS
 62
     7
100
AcDbLine
 10
535.887449724
 20
694.8360351809
 30
0.0
 11
535.2024284427
 21
694.8360351809
 31
0.0
  0
LINE
  5
9C
330
1F
100
AcDbEntity
  8
0
  6
CONTINUOUS
 62
     7
100
AcDbLine
 10
902.6270357196
 20
866.4360342511
 30
0.0
 11
902.6270357196
 21
892.836034108
 31
0.0
  0
LINE
  5
9D
330
1F
100
AcDbEntity
  8
0
  6
CONTINUOUS
 62
     7
100
AcDbLine
 10
902.6817676847
 20
892.836034108
 30
0.0
 11
902.6270357196
 21
892.836034108
 31
0.0
  0
LINE
  5
9E
330
1F
100
AcDbEntity
  8
0
  6
CONTINUOUS
 62
     7
100
AcDbLine
 10
902.6817676847
 20
866.4360342511
 30
0.0
 11
902.6270357196
 21
866.4360342511
 31
0.0
  0
LINE
  5
9F
330
1F
100
AcDbEntity
  8
0
  6
CONTINUOUS
 62
     7
100
AcDbLine
 10
902.6817676847
 20
864.436030198
 30
0.0
 11
902.6817676847
 21
866.4360342511
 31
0.0
  0
LINE
  5
A0
330
1F
100
AcDbEntity
  8
0
  6
CONTINUOUS
 62
     7
100
AcDbLine
 10
902.6817676847
 20
892.836034108
 30
0.0
 11
902.6817676847
 21
894.8360307106
 31
0.0
  0
LINE
  5
A1
330
1F
100
AcDbEntity
  8
0
  6
CONTINUOUS
 62
     7
100
AcDbLine
 10
902.6270357196
 20
692.8360311278
 30
0.0
 11
902.6270357196
 21
666.4360312709
 31
0.0
  0
LINE
  5
A2
330
1F
100
AcDbEntity
  8
0
  6
CONTINUOUS
 62
     7
100
AcDbLine
 10
902.6817676847
 20
692.8360311278
 30
0.0
 11
902.6270357196
 21
692.8360311278
 31
0.0
  0
LINE
  5
A3
330
1F
100
AcDbEntity
  8
0
  6
CONTINUOUS
 62
     7
100
AcDbLine
 10
902.6817676847
 20
666.4360312709
 30
0.0
 11
902.6270357196
 21
666.4360312709
 31
0.0
  0
LINE
  5
A4
330
1F
100
AcDbEntity
  8
0
  6
CONTINUOUS
 62
     7
100
AcDbLine
 10
902.6817676847
 20
692.8360311278
 30
0.0
 11
902.6817676847
 21
694.8360351809
 31
0.0
  0
LINE
  5
A5
330
1F
100
AcDbEntity
  8
0
  6
CONTINUOUS
 62
     7
100
AcDbLine
 10
902.6817676847
 20
664.4360346683
 30
0.0
 11
902.6817676847
 21
666.4360312709
 31
0.0
  0
LINE
  5
A6
330
1F
100
AcDbEntity
  8
0
  6
CONTINUOUS
 62
     7
100
AcDbLine
 10
902.6270357196
 20
866.4360342511
 30
0.0
 11
902.0148960178
 21
866.4360342511
 31
0.0
  0
LINE
  5
A7
330
1F
100
AcDbEntity
  8
0
  6
CONTINUOUS
 62
     7
100
AcDbLine
 10
902.6270357196
 20
892.836034108
 30
0.0
 11
902.0148960178
 21
892.836034108
 31
0.0
  0
LINE
  5
A8
330
1F
100
AcDbEntity
  8
0
  6
CONTINUOUS
 62
     7
100
AcDbLine
 10
902.6270357196
 20
692.8360311278
 30
0.0
 11
902.0148960178
 21
692.8360311278
 31
0.0
  0
LINE
  5
A9
330
1F
100
AcDbEntity
  8
0
  6
CONTINUOUS
 62
     7
100
AcDbLine
 10
902.6270357196
 20
666.4360312709
 30
0.0
 11
902.0148960178
 21
666.4360312709
 31
0.0
  0
LINE
  5
AA
330
1F
100
AcDbEntity
  8
0
  6
CONTINUOUS
 62
     7
100
AcDbLine
 10
538.1328013961
 20
623.1360359081
 30
0.0
 11
535.1503041809
 21
623.1360359081
 31
0.0
  0
LINE
  5
AB
330
1F
100
AcDbEntity
  8
0
  6
CONTINUOUS
 62
     7
100
AcDbLine
 10
545.0860855405
 20
623.112179149
 30
0.0
 11
545.5743816917
 21
622.7868271955
 31
0.0
  0
LINE
  5
AC
330
1F
100
AcDbEntity
  8
0
  6
CONTINUOUS
 62
     7
100
AcDbLine
 10
901.8262175148
 20
622.7868271955
 30
0.0
 11
545.5743816917
 21
622.7868271955
 31
0.0
  0
LINE
  5
AD
330
1F
100
AcDbEntity
  8
0
  6
CONTINUOUS
 62
     7
100
AcDbLine
 10
901.8262175148
 20
622.7868271955
 30
0.0
 11
902.3144987648
 21
623.112179149
 31
0.0
  0
LINE
  5
AE
330
1F
100
AcDbEntity
  8
0
  6
CONTINUOUS
 62
     7
100
AcDbLine
 10
908.9509395187
 20
623.1360359081
 30
0.0
 11
912.2502950256
 21
623.1360359081
 31
0.0
  0
LINE
  5
AF
330
1F
100
AcDbEntity
  8
0
  6
CONTINUOUS
 62
     7
100
AcDbLine
 10
910.8765271728
 20
622.220657576
 30
0.0
 11
912.2502950256
 21
623.1360359081
 31
0.0
  0
LINE
  5
B0
330
1F
100
AcDbEntity
  8
0
  6
CONTINUOUS
 62
     7
100
AcDbLine
 10
909.3799588506
 20
622.168429006
 30
0.0
 11
910.8765271728
 21
622.220657576
 31
0.0
  0
LINE
  5
B1
330
1F
100
AcDbEntity
  8
0
  6
CONTINUOUS
 62
     7
100
AcDbLine
 10
906.9322345083
 20
622.1561653503
 30
0.0
 11
909.3799588506
 21
622.168429006
 31
0.0
  0
SPLINE
  5
B2
330
1F
100
AcDbEntity
  8
0
  6
CONTINUOUS
 62
     7
100
AcDbSpline
210
0.0
220
0.0
230
1.0
 70
     8
 71
     3
 72
    12
 73
     8
 74
     0
 42
0.00000001
 43
0.00000001
 40
0.0
 40
0.0
 40
0.0
 40
0.0
 40
0.4999999999999858
 40
0.4999999999999858
 40
0.7499999999999929
 40
0.7499999999999929
 40
1.0
 40
1.0
 40
1.0
 40
1.0
 10
904.0490615215462
 20
622.1731156050906
 30
0.0
 10
904.4917578330997
 20
622.1651426115037
 30
0.0
 10
904.9694161966829
 20
622.1596288309498
 30
0.0
 10
905.6960834863786
 20
622.1553617790304
 30
0.0
 10
905.9409489940433
 20
622.1545871590226
 30
0.0
 10
906.4360941107765
 20
622.154364735558
 30
0.0
 10
906.6856801644365
 20
622.1549262723737
 30
0.0
 10
906.9322379570187
 20
622.156161279656
 30
0.0
  0
SPLINE
  5
B3
330
1F
100
AcDbEntity
  8
0
  6
CONTINUOUS
 62
     7
100
AcDbSpline
210
0.0
220
0.0
230
1.0
 70
     8
 71
     3
 72
     9
 73
     5
 74
     0
 42
0.00000001
 43
0.00000001
 40
0.0
 40
0.0
 40
0.0
 40
0.0
 40
0.5
 40
1.0
 40
1.0
 40
1.0
 40
1.0
 10
880.9428502991627
 20
622.4434819935111
 30
0.0
 10
884.9928707288121
 20
622.4191335565041
 30
0.0
 10
892.8904233058641
 20
622.349359417128
 30
0.0
 10
900.3970115437345
 20
622.238889297557
 30
0.0
 10
904.049061521546
 20
622.1731156050905
 30
0.0
  0
LINE
  5
B4
330
1F
100
AcDbEntity
  8
0
  6
CONTINUOUS
 62
     7
100
AcDbLine
 10
880.9509423797
 20
622.4353833088
 30
0.0
 11
880.9428510492
 21
622.4434746393
 31
0.0
  0
SPLINE
  5
B5
330
1F
100
AcDbEntity
  8
0
  6
CONTINUOUS
 62
     7
100
AcDbSpline
210
0.0
220
0.0
230
1.0
 70
     8
 71
     3
 72
     8
 73
     4
 74
     0
 42
0.00000001
 43
0.00000001
 40
6.217889515168543
 40
6.217889515168543
 40
6.217889515168543
 40
6.217889515168543
 40
6.360344980728322
 40
6.360344980728322
 40
6.360344980728322
 40
6.360344980728322
 10
880.9509488221568
 20
622.4353834717381
 30
0.0
 10
766.7544665052919
 20
622.1747009745455
 30
0.0
 10
652.0306488494859
 20
622.1983832530838
 30
0.0
 10
537.9299804250452
 20
622.5064303073093
 30
0.0
  0
LINE
  5
B6
330
1F
100
AcDbEntity
  8
0
  6
CONTINUOUS
 62
     7
100
AcDbLine
 10
536.0063609903
 20
622.5656194576
 30
0.0
 11
537.9299816911
 21
622.5064320453
 31
0.0
  0
LINE
  5
B7
330
1F
100
AcDbEntity
  8
0
  6
CONTINUOUS
 62
     7
100
AcDbLine
 10
536.0063609903
 20
622.5656194576
 30
0.0
 11
535.1503041809
 21
623.1360359081
 31
0.0
  0
SPLINE
  5
B8
330
1F
100
AcDbEntity
  8
0
  6
CONTINUOUS
 62
     7
100
AcDbSpline
210
0.0
220
0.0
230
1.0
 70
     8
 71
     3
 72
    38
 73
    34
 74
     0
 42
0.00000001
 43
0.00000001
 40
-0.0625
 40
-0.0625
 40
0.0
 40
0.0
 40
0.0625
 40
0.0625
 40
0.125
 40
0.125
 40
0.1875
 40
0.1875
 40
0.25
 40
0.25
 40
0.3125
 40
0.3125
 40
0.375
 40
0.375
 40
0.4375
 40
0.4375
 40
0.5
 40
0.5
 40
0.5625
 40
0.5625
 40
0.625
 40
0.625
 40
0.6875
 40
0.6875
 40
0.75
 40
0.75
 40
0.8125
 40
0.8125
 40
0.875
 40
0.875
 40
0.9375
 40
0.9375
 40
1.0
 40
1.0
 40
1.0625
 40
1.0625
 10
905.8895139363002
 20
622.4179532723517
 30
0.0
 10
906.6110852701498
 20
622.4179532723518
 30
0.0
 10
906.9704270542775
 20
622.415450734358
 30
0.0
 10
907.634944243948
 20
622.4058445063062
 30
0.0
 10
907.940263673279
 20
622.3987265653099
 30
0.0
 10
908.449119598598
 20
622.3809705185987
 30
0.0
 10
908.6529942483286
 20
622.3703308120301
 30
0.0
 10
908.9288565813055
 20
622.347090755455
 30
0.0
 10
909.0002717790882
 20
622.3345353224562
 30
0.0
 10
909.0003274109032
 20
622.3094388398687
 30
0.0
 10
908.9288441978412
 20
622.2968736463953
 30
0.0
 10
908.6533994607277
 20
622.2736565144595
 30
0.0
 10
908.4496193901663
 20
622.2630093169921
 30
0.0
 10
907.940438146286
 20
622.2452357566839
 30
0.0
 10
907.635237343119
 20
622.2381211702456
 30
0.0
 10
906.9709291059353
 20
622.2285137119756
 30
0.0
 10
906.6111700608018
 20
622.2260086018898
 30
0.0
 10
905.8905486011126
 20
622.2260034830623
 30
0.0
 10
905.5307971752155
 20
622.2285017690597
 30
0.0
 10
904.8658615367106
 20
622.2381095972088
 30
0.0
 10
904.5605642369497
 20
622.2452276401914
 30
0.0
 10
904.0518802132007
 20
622.2629719459851
 30
0.0
 10
903.8480016699627
 20
622.2736019016163
 30
0.0
 10
903.5717822796393
 20
622.2968584056134
 30
0.0
 10
903.5003841419795
 20
622.3094049659063
 30
0.0
 10
903.5002152161289
 20
622.3345092705648
 30
0.0
 10
903.5717355338287
 20
622.3470784213753
 30
0.0
 10
903.846860285977
 20
622.3702797816912
 30
0.0
 10
904.0503709377195
 20
622.3809253498314
 30
0.0
 10
904.560029151767
 20
622.3987223392197
 30
0.0
 10
904.8649692604035
 20
622.4058303602061
 30
0.0
 10
905.5292760198976
 20
622.4154420034693
 30
0.0
 10
905.8895139363002
 20
622.4179532723517
 30
0.0
 10
906.6110852701498
 20
622.4179532723518
 30
0.0
  0
SPLINE
  5
B9
330
1F
100
AcDbEntity
  8
0
  6
CONTINUOUS
 62
     7
100
AcDbSpline
210
0.0
220
0.0
230
1.0
 70
     8
 71
     3
 72
    28
 73
    24
 74
     0
 42
0.00000001
 43
0.00000001
 40
-0.1250000000000016
 40
-0.1250000000000016
 40
0.0
 40
0.0
 40
0.1249999999999924
 40
0.1249999999999924
 40
0.1874999999999932
 40
0.1874999999999932
 40
0.2499999999999939
 40
0.2499999999999939
 40
0.3124999999999947
 40
0.3124999999999947
 40
0.3749999999999954
 40
0.3749999999999954
 40
0.4999999999999961
 40
0.4999999999999961
 40
0.6249999999999968
 40
0.6249999999999968
 40
0.6874999999999969
 40
0.6874999999999969
 40
0.7499999999999969
 40
0.7499999999999969
 40
0.8749999999999984
 40
0.8749999999999984
 40
1.0
 40
1.0
 40
1.124999999999992
 40
1.124999999999992
 10
899.9879100272797
 20
622.3568791531223
 30
0.0
 10
900.5126891791704
 20
622.3568791531226
 30
0.0
 10
900.7723127331865
 20
622.3531159954183
 30
0.0
 10
901.0498705106336
 20
622.3434308790303
 30
0.0
 10
901.1240067468991
 20
622.3395618948236
 30
0.0
 10
901.224320322527
 20
622.33111096516
 30
0.0
 10
901.250289485357
 20
622.3265453531604
 30
0.0
 10
901.2503097151081
 20
622.3174193594923
 30
0.0
 10
901.224315819449
 20
622.3128501982292
 30
0.0
 10
901.1241540968623
 20
622.3044076047979
 30
0.0
 10
901.0500522530218
 20
622.3005358966279
 30
0.0
 10
900.7723170290872
 20
622.2908412273689
 30
0.0
 10
900.5125473077419
 20
622.2870820218321
 30
0.0
 10
899.9884589734226
 20
622.2870782990486
 30
0.0
 10
899.7283383834429
 20
622.2908435949198
 30
0.0
 10
899.4508743704889
 20
622.3005223071709
 30
0.0
 10
899.3767367184024
 20
622.3043877455822
 30
0.0
 10
899.2762933037393
 20
622.3128446561267
 30
0.0
 10
899.2503303445903
 20
622.3174070416877
 30
0.0
 10
899.2502382032172
 20
622.3311002987741
 30
0.0
 10
899.3576604132144
 20
622.3401786377718
 30
0.0
 10
899.7283209325217
 20
622.3531219027814
 30
0.0
 10
899.9879100272797
 20
622.3568791531223
 30
0.0
 10
900.5126891791704
 20
622.3568791531226
 30
0.0
  0
LINE
  5
BA
330
1F
100
AcDbEntity
  8
0
  6
CONTINUOUS
 62
     7
100
AcDbLine
 10
906.9322345083
 20
622.1561653503
 30
0.0
 11
906.9322345083
 21
620.5159051307
 31
0.0
  0
ARC
  5
BB
330
1F
100
AcDbEntity
  8
0
  6
CONTINUOUS
 62
     7
100
AcDbCircle
 10
906.2444585581
 20
492.3429992334
 30
0.0
 40
128.1747511872946
100
AcDbArc
 50
89.6925537367
 51
90.9814159072
  0
LINE
  5
BC
330
1F
100
AcDbEntity
  8
0
  6
CONTINUOUS
 62
     7
100
AcDbLine
 10
904.0490684335
 20
622.1731228718
 30
0.0
 11
904.0490684335
 21
620.4989476093
 31
0.0
  0
SPLINE
  5
BD
330
1F
100
AcDbEntity
  8
0
  6
CONTINUOUS
 62
     7
100
AcDbSpline
210
0.0
220
0.0
230
1.0
 70
     8
 71
     3
 72
     8
 73
     4
 74
     0
 42
0.00000001
 43
0.00000001
 40
0.0
 40
0.0
 40
0.0
 40
0.0
 40
1.0
 40
1.0
 40
1.0
 40
1.0
 10
911.0928171524233
 20
620.1001552996105
 30
0.0
 10
910.9412481808646
 20
620.2200575702379
 30
0.0
 10
910.7885979426077
 20
620.3399580625448
 30
0.0
 10
910.6346157637657
 20
620.459856364257
 30
0.0
  0
SPLINE
  5
BE
330
1F
100
AcDbEntity
  8
0
  6
CONTINUOUS
 62
     7
100
AcDbSpline
210
0.0
220
0.0
230
1.0
 70
     8
 71
     3
 72
    10
 73
     6
 74
     0
 42
0.00000001
 43
0.00000001
 40
0.0
 40
0.0
 40
0.0
 40
0.0
 40
0.2969309360480737
 40
0.6302619669760136
 40
1.0
 40
1.0
 40
1.0
 40
1.0
 10
909.1384363760873
 20
620.1578889713509
 30
0.0
 10
909.332955050648
 20
620.1522162898788
 30
0.0
 10
909.7458380061055
 20
620.1401755256853
 30
0.0
 10
910.3973218581021
 20
620.1209209909767
 30
0.0
 10
910.8536539045535
 20
620.1073139561609
 30
0.0
 10
911.0936350414167
 20
620.1001581324358
 30
0.0
  0
SPLINE
  5
BF
330
1F
100
AcDbEntity
  8
0
  6
CONTINUOUS
 62
     7
100
AcDbSpline
210
0.0
220
0.0
230
1.0
 70
     8
 71
     3
 72
     8
 73
     4
 74
     0
 42
0.00000001
 43
0.00000001
 40
0.0
 40
0.0
 40
0.0
 40
0.0
 40
1.0
 40
1.0
 40
1.0
 40
1.0
 10
909.138420597036
 20
620.1578887051136
 30
0.0
 10
899.7440010047435
 20
620.183395619568
 30
0.0
 10
890.3452960933244
 20
620.2069604554055
 30
0.0
 10
880.9428502991627
 20
620.2285833853894
 30
0.0
  0
LWPOLYLINE
  5
C0
330
1F
100
AcDbEntity
  8
0
  6
CONTINUOUS
 62
     7
100
AcDbPolyline
 90
        9
 70
   128
 43
0.0
 10
880.9428510492
 20
620.2285809406
 10
883.9460012739
 20
620.2487124094
 10
886.9249222105
 20
620.2728224882
 10
889.8752478187
 20
620.3008962759
 10
892.7926865642
 20
620.3328741678
 10
895.6729618137
 20
620.3687263616
 10
898.5118714397
 20
620.4084081539
 10
901.3052580183
 20
620.4518301376
 10
904.0490684335
 20
620.4989476093
  0
LINE
  5
C1
330
1F
100
AcDbEntity
  8
0
  6
CONTINUOUS
 62
     7
100
AcDbLine
 10
906.9322345083
 20
620.5159051307
 30
0.0
 11
909.3799588506
 21
620.5036414751
 31
0.0
  0
LINE
  5
C2
330
1F
100
AcDbEntity
  8
0
  6
CONTINUOUS
 62
     7
100
AcDbLine
 10
909.3799588506
 20
620.5036414751
 30
0.0
 11
910.634621722
 21
620.4598618635
 31
0.0
  0
LWPOLYLINE
  5
C3
330
1F
100
AcDbEntity
  8
0
  6
CONTINUOUS
 62
     7
100
AcDbPolyline
 90
       18
 70
   128
 43
0.0
 10
906.2502977674
 20
620.2541066297
 10
907.2437134807
 20
620.2605886348
 10
908.1029591386
 20
620.2791554817
 10
908.7119993989
 20
620.3073037752
 10
908.9885649507
 20
620.3412337192
 10
908.895313484
 20
620.3763557562
 10
908.4448513811
 20
620.4079164156
 10
907.6979902809
 20
620.4316837677
 10
906.7556110446
 20
620.4444242605
 10
905.7449844902
 20
620.4444242605
 10
904.8026052539
 20
620.4316837677
 10
904.0557590549
 20
620.4079164156
 10
903.6052820508
 20
620.3763557562
 10
903.5120305841
 20
620.3412337192
 10
903.7885961359
 20
620.3073037752
 10
904.3976363962
 20
620.2791554817
 10
905.2568820541
 20
620.2605886348
 10
906.2502977674
 20
620.2541066297
  0
LWPOLYLINE
  5
C4
330
1F
100
AcDbEntity
  8
0
  6
CONTINUOUS
 62
     7
100
AcDbPolyline
 90
       17
 70
   128
 43
0.0
 10
900.2503005092
 20
620.3151864895
 10
900.6329772298
 20
620.3178388962
 10
900.9574053113
 20
620.325408686
 10
901.1741725032
 20
620.3367335685
 10
901.2503025358
 20
620.350085009
 10
901.1741725032
 20
620.3634364494
 10
900.9574053113
 20
620.3747613319
 10
900.6329772298
 20
620.3823311218
 10
900.2503005092
 20
620.3849835285
 10
899.8676088874
 20
620.3823311218
 10
899.5431957071
 20
620.3747613319
 10
899.326413614
 20
620.3634364494
 10
899.2502984827
 20
620.350085009
 10
899.326413614
 20
620.3367335685
 10
899.5431957071
 20
620.325408686
 10
899.8676088874
 20
620.3178388962
 10
900.2503005092
 20
620.3151864895
  0
LINE
  5
C5
330
1F
100
AcDbEntity
  8
0
  6
CONTINUOUS
 62
     7
100
AcDbLine
 10
909.3799588506
 20
622.168429006
 30
0.0
 11
909.3799588506
 21
620.5036414751
 31
0.0
  0
ELLIPSE
  5
C6
330
1F
100
AcDbEntity
  8
0
  6
CONTINUOUS
 62
     7
100
AcDbEllipse
 10
904.5800814815
 20
622.1860326895
 30
0.0
 11
6.296448723362686
 21
0.0
 31
0.0
210
0.0
220
0.0
230
1.0
 40
0.998627443
 41
6.005086930880301
 42
6.283185307179586
  0
LINE
  5
C7
330
1F
100
AcDbEntity
  8
0
  6
CONTINUOUS
 62
     7
100
AcDbLine
 10
910.8765271728
 20
622.1860272773
 30
0.0
 11
910.8765271728
 21
622.220657576
 31
0.0
  0
LINE
  5
C8
330
1F
100
AcDbEntity
  8
0
  6
CONTINUOUS
 62
     7
100
AcDbLine
 10
880.9428510492
 20
620.2285809406
 30
0.0
 11
880.9509423797
 21
622.4353833088
 31
0.0
  0
SPLINE
  5
C9
330
1F
100
AcDbEntity
  8
0
  6
CONTINUOUS
 62
     7
100
AcDbSpline
210
0.0
220
0.0
230
1.0
 70
     8
 71
     3
 72
    27
 73
    23
 74
     0
 42
0.00000001
 43
0.00000001
 40
0.0
 40
0.0
 40
0.0
 40
0.0
 40
0.039278712193693
 40
0.0781128131065372
 40
0.116584347733108
 40
0.1547776955389965
 40
0.1927790870218196
 40
0.2306760609789168
 40
0.2685568781077963
 40
0.3065099098829756
 40
0.3446230235725119
 40
0.3829829845907552
 40
0.4216748959913624
 40
0.4607816920615713
 40
0.5003836990150684
 40
0.572799016724113
 40
0.6439462350747781
 40
0.7143688747480492
 40
0.7846272727274841
 40
0.8552856774827646
 40
0.9268988925761996
 40
1.0
 40
1.0
 40
1.0
 40
1.0
 10
904.385363529827
 20
616.9053695492632
 30
0.0
 10
904.4654550643332
 20
616.9059077039971
 30
0.0
 10
904.6247315455848
 20
616.9069779218785
 30
0.0
 10
904.8621613150364
 20
616.9221574143252
 30
0.0
 10
905.0965311677188
 20
616.9473315509464
 30
0.0
 10
905.3278516958441
 20
616.9834433718745
 30
0.0
 10
905.5561161638973
 20
617.0302446399148
 30
0.0
 10
905.7813221492856
 20
617.0878015607399
 30
0.0
 10
906.0034660289082
 20
617.1560959118426
 30
0.0
 10
906.2225446219979
 20
617.2351311832201
 30
0.0
 10
906.4385551148127
 20
617.324903787313
 30
0.0
 10
906.6514946861786
 20
617.4254129876995
 30
0.0
 10
906.8613629132169
 20
617.5366504710512
 30
0.0
 10
907.0681529964693
 20
617.6586333426657
 30
0.0
 10
907.3271367760282
 20
617.827255298805
 30
0.0
 10
907.6280710689234
 20
618.0509102111467
 30
0.0
 10
907.9559274636346
 20
618.341360600031
 30
0.0
 10
908.2538553193815
 20
618.6562838166618
 30
0.0
 10
908.5219609241674
 20
618.9955761545531
 30
0.0
 10
908.7594326609167
 20
619.3594526216361
 30
0.0
 10
908.9691782533005
 20
619.7467396978361
 30
0.0
 10
909.0816205724199
 20
620.0198502587962
 30
0.0
 10
909.1384197745027
 20
620.1578095437379
 30
0.0
  0
SPLINE
  5
CA
330
1F
100
AcDbEntity
  8
0
  6
CONTINUOUS
 62
     7
100
AcDbSpline
210
0.0
220
0.0
230
1.0
 70
     8
 71
     3
 72
    82
 73
    78
 74
     0
 42
0.00000001
 43
0.00000001
 40
0.0
 40
0.0
 40
0.0
 40
0.0
 40
0.0133335484102456
 40
0.0266670858884538
 40
0.0400006128895368
 40
0.0533341298457388
 40
0.0666676371673491
 40
0.0800011352432641
 40
0.0933346244416645
 40
0.106668105110612
 40
0.120001577578752
 40
0.1333350421559208
 40
0.146668499133748
 40
0.1600019487863295
 40
0.1733353913708588
 40
0.1866688271282886
 40
0.2000022562839153
 40
0.2133356790480753
 40
0.2266690956167122
 40
0.2400025061720849
 40
0.2533359108833881
 40
0.2666693099073307
 40
0.2800027033888801
 40
0.2933360914617873
 40
0.3066694742493083
 40
0.3200028518648289
 40
0.3333362244124266
 40
0.3466695919876205
 40
0.3600029546779325
 40
0.3733363125635661
 40
0.3866696657180037
 40
0.4000030142086846
 40
0.4133363580976149
 40
0.4266696974420396
 40
0.4400030322950107
 40
0.4533363627061246
 40
0.4666696887220718
 40
0.4800030103873224
 40
0.4933363277447696
 40
0.5066696408363145
 40
0.5200029497035513
 40
0.5333362543884174
 40
0.5466695549337773
 40
0.5600028513841091
 40
0.5733361437861174
 40
0.5866694321893778
 40
0.6000027166469639
 40
0.6133359972161241
 40
0.6266692739588691
 40
0.6400025469426314
 40
0.6533358162409039
 40
0.6666690819339136
 40
0.6800023441091643
 40
0.693335602862169
 40
0.7066688582970639
 40
0.7200021105272
 40
0.7333353596758205
 40
0.7466686058767411
 40
0.7600018492748694
 40
0.7733350900269721
 40
0.7866683283022243
 40
0.800001564282877
 40
0.8133347981649057
 40
0.8266680301586254
 40
0.8400012604893565
 40
0.8533344893980216
 40
0.8666677171418244
 40
0.8800009439948574
 40
0.893334170248763
 40
0.9066673962133469
 40
0.9200006222172454
 40
0.9333338486085154
 40
0.9466670757553355
 40
0.9600003040465862
 40
0.973333533892509
 40
0.9866667657253549
 40
1.0
 40
1.0
 40
1.0
 40
1.0
 10
543.0152356766282
 20
616.9053695492619
 30
0.0
 10
544.6183397768732
 20
616.9116901853988
 30
0.0
 10
547.8245466629945
 20
616.9243314524905
 30
0.0
 10
552.6347742619812
 20
616.9426472620349
 30
0.0
 10
557.4456458096874
 20
616.9604900892401
 30
0.0
 10
562.2572090474396
 20
616.9778135472627
 30
0.0
 10
567.0694262316644
 20
616.9946300649989
 30
0.0
 10
571.8822825241159
 20
617.0109363117343
 30
0.0
 10
576.6957569488358
 20
617.0267331795242
 30
0.0
 10
581.5098301742186
 20
617.042020428937
 30
0.0
 10
586.3244824278252
 20
617.0567981237225
 30
0.0
 10
591.1396940551166
 20
617.0710662463923
 30
0.0
 10
595.9554453697466
 20
617.0848248012265
 30
0.0
 10
600.7717166936832
 20
617.098073786672
 30
0.0
 10
605.5884883464735
 20
617.1108132027387
 30
0.0
 10
610.4057406481267
 20
617.1230430490172
 30
0.0
 10
615.223453918353
 20
617.1347633252108
 30
0.0
 10
620.04160847677
 20
617.1459740309925
 30
0.0
 10
624.8601846428611
 20
617.1566751660436
 30
0.0
 10
629.6791627359959
 20
617.1668667300424
 30
0.0
 10
634.4985230754321
 20
617.1765487226687
 30
0.0
 10
639.3182459803285
 20
617.1857211436014
 30
0.0
 10
644.1383117697417
 20
617.1943839925196
 30
0.0
 10
648.9587007626455
 20
617.2025372691027
 30
0.0
 10
653.7793932779309
 20
617.2101809730294
 30
0.0
 10
658.6003696344136
 20
617.2173151039786
 30
0.0
 10
663.4216101508434
 20
617.2239396616295
 30
0.0
 10
668.243095145907
 20
617.2300546456611
 30
0.0
 10
673.064804938244
 20
617.2356600557519
 30
0.0
 10
677.886719846445
 20
617.2407558915808
 30
0.0
 10
682.7088201890635
 20
617.2453421528262
 30
0.0
 10
687.53108628462
 20
617.2494188391676
 30
0.0
 10
692.3534984516142
 20
617.2529859502828
 30
0.0
 10
697.176037008525
 20
617.2560434858509
 30
0.0
 10
701.998682273825
 20
617.2585914455503
 30
0.0
 10
706.8214145659808
 20
617.2606298290593
 30
0.0
 10
711.6442142034673
 20
617.2621586360567
 30
0.0
 10
716.4670615047704
 20
617.2631778662206
 30
0.0
 10
721.2899367883944
 20
617.2636875192294
 30
0.0
 10
726.1128203728687
 20
617.2636875947617
 30
0.0
 10
730.9356925767567
 20
617.2631780924952
 30
0.0
 10
735.7585337186623
 20
617.2621590121087
 30
0.0
 10
740.5813241172392
 20
617.2606303532798
 30
0.0
 10
745.4040440911931
 20
617.2585921156868
 30
0.0
 10
750.2266739592933
 20
617.256044299008
 30
0.0
 10
755.0491940403768
 20
617.2529869029213
 30
0.0
 10
759.8715846533581
 20
617.2494199271042
 30
0.0
 10
764.6938261172351
 20
617.2453433712352
 30
0.0
 10
769.5158987510968
 20
617.2407572349919
 30
0.0
 10
774.3377828741274
 20
617.2356615180519
 30
0.0
 10
779.1594588056203
 20
617.2300562200935
 30
0.0
 10
783.9809068649779
 20
617.2239413407939
 30
0.0
 10
788.8021073717241
 20
617.2173168798311
 30
0.0
 10
793.6230406455071
 20
617.2101828368824
 30
0.0
 10
798.4436870061107
 20
617.2025392116257
 30
0.0
 10
803.264026773457
 20
617.1943860037383
 30
0.0
 10
808.0840402676184
 20
617.1857232128978
 30
0.0
 10
812.9037078088209
 20
617.1765508387815
 30
0.0
 10
817.7230097174561
 20
617.1668688810666
 30
0.0
 10
822.5419263140806
 20
617.156677339431
 30
0.0
 10
827.3604379194313
 20
617.1459762135514
 30
0.0
 10
832.1785248544275
 20
617.1347655031055
 30
0.0
 10
836.9961674401759
 20
617.1230452077692
 30
0.0
 10
841.8133459979958
 20
617.1108153272252
 30
0.0
 10
846.6300408493657
 20
617.0980758611277
 30
0.0
 10
851.4462323161413
 20
617.0848268092416
 30
0.0
 10
856.2619007197867
 20
617.0710681709139
 30
0.0
 10
861.0770263842672
 20
617.0567999470542
 30
0.0
 10
865.891589625303
 20
617.0420221327389
 30
0.0
 10
870.7055707904942
 20
617.0267347448137
 30
0.0
 10
875.5189501096188
 20
617.0109377188808
 30
0.0
 10
880.3317082533468
 20
616.9946312937464
 30
0.0
 10
885.1438242481394
 20
616.9778145766435
 30
0.0
 10
889.9552832579774
 20
616.960490897894
 30
0.0
 10
894.7660475425856
 20
616.9426478270361
 30
0.0
 10
899.5761648428704
 20
616.924331753664
 30
0.0
 10
902.7822972029817
 20
616.9116902844493
 30
0.0
 10
904.385363529827
 20
616.9053695492632
 30
0.0
  0
SPLINE
  5
CB
330
1F
100
AcDbEntity
  8
0
  6
CONTINUOUS
 62
     7
100
AcDbSpline
210
0.0
220
0.0
230
1.0
 70
     8
 71
     3
 72
    25
 73
    21
 74
     0
 42
0.00000001
 43
0.00000001
 40
0.0
 40
0.0
 40
0.0
 40
0.0
 40
0.0278314503517833
 40
0.0555340244672612
 40
0.0831636056012728
 40
0.1107765164895836
 40
0.1384291780893338
 40
0.166177765305946
 40
0.1940778701214663
 40
0.2221841820268235
 40
0.250550194482557
 40
0.3758752503498259
 40
0.5001556200960056
 40
0.6243550564712113
 40
0.7499206230700701
 40
0.8007690510546578
 40
0.85087712873154
 40
0.9005654906229615
 40
0.9501629184007793
 40
1.0
 40
1.0
 40
1.0
 40
1.0
 10
537.927151473561
 20
621.9974108193011
 30
0.0
 10
537.927391530136
 20
621.9234838013751
 30
0.0
 10
537.9278705316806
 20
621.7759720917662
 30
0.0
 10
537.9411174601457
 20
621.555287027934
 30
0.0
 10
537.9635632126481
 20
621.3359063875057
 30
0.0
 10
537.996093968286
 20
621.1178170333533
 30
0.0
 10
538.0384718353686
 20
620.9010262581118
 30
0.0
 10
538.0907604532813
 20
620.6855342450351
 30
0.0
 10
538.1529359625746
 20
620.4713484543056
 30
0.0
 10
538.2250205961273
 20
620.2584527393911
 30
0.0
 10
538.399913750549
 20
619.8068194932284
 30
0.0
 10
538.7474746416082
 20
619.1460286664433
 30
0.0
 10
539.3843050169021
 20
618.3695422835419
 30
0.0
 10
540.1609431094155
 20
617.7308756776662
 30
0.0
 10
540.8763199791608
 20
617.3542254847123
 30
0.0
 10
541.4437383295738
 20
617.1445604492474
 30
0.0
 10
541.8309276071313
 20
617.0349672839025
 30
0.0
 10
542.2221715571704
 20
616.9582166200557
 30
0.0
 10
542.6175238734286
 20
616.9114114957439
 30
0.0
 10
542.8824522349875
 20
616.9073867648478
 30
0.0
 10
543.0152356766282
 20
616.905369549262
 30
0.0
  0
LINE
  5
CC
330
1F
100
AcDbEntity
  8
0
  6
CONTINUOUS
 62
     7
100
AcDbLine
 10
537.9299816911
 20
622.5064320453
 30
0.0
 11
537.9271504705
 21
621.997408379
 31
0.0
  0
SPLINE
  5
CD
330
1F
100
AcDbEntity
  8
0
  6
CONTINUOUS
 62
     7
100
AcDbSpline
210
0.0
220
0.0
230
1.0
 70
     8
 71
     3
 72
    82
 73
    78
 74
     0
 42
0.00000001
 43
0.00000001
 40
0.0
 40
0.0
 40
0.0
 40
0.0
 40
0.0133335484377087
 40
0.0266670859427516
 40
0.0400006129700221
 40
0.0533341299517832
 40
0.0666676372982909
 40
0.0800011353984545
 40
0.0933346246204388
 40
0.1066681053123273
 40
0.1200015778027377
 40
0.1333350424014988
 40
0.1466684994002477
 40
0.1600019490730669
 40
0.173335391677166
 40
0.1866688274534673
 40
0.20000225662728
 40
0.2133356794089184
 40
0.2266690959943365
 40
0.2400025065657946
 40
0.2533359112924596
 40
0.2666693103310623
 40
0.2800027038265393
 40
0.2933360919126666
 40
0.3066694747126777
 40
0.3200028523399456
 40
0.3333362248985578
 40
0.3466695924840322
 40
0.3600029551838831
 40
0.3733363130782948
 40
0.3866696662407658
 40
0.4000030147387165
 40
0.413336358634157
 40
0.4266696979843108
 40
0.4400030328422541
 40
0.4533363632575587
 40
0.4666696892769195
 40
0.480003010944799
 40
0.4933363283040802
 40
0.5066696413966596
 40
0.5200029502641479
 40
0.533336254948451
 40
0.5466695554924443
 40
0.5600028519406008
 40
0.5733361443396124
 40
0.58666943273905
 40
0.600002717192003
 40
0.6133359977556896
 40
0.6266692744921242
 40
0.6400025474687469
 40
0.6533358167590434
 40
0.6666690824432036
 40
0.6800023446087708
 40
0.6933356033512394
 40
0.7066688587747175
 40
0.7200021109925805
 40
0.7333353601280735
 40
0.7466686063149697
 40
0.7600018496982132
 40
0.7733350904345425
 40
0.786668328693126
 40
0.8000015646562273
 40
0.8133347985198062
 40
0.8266680304941758
 40
0.8400012608046488
 40
0.8533344896921473
 40
0.8666677174138641
 40
0.8800009442439021
 40
0.8933341704738875
 40
0.9066673964136217
 40
0.9200006223917365
 40
0.9333338487562961
 40
0.9466670758754574
 40
0.960000304138102
 40
0.973333533954473
 40
0.9866667657568172
 40
1.0
 40
1.0
 40
1.0
 40
1.0
 10
904.3853635304158
 20
942.3666958295147
 30
0.0
 10
902.7822594268903
 20
942.360375193379
 30
0.0
 10
899.5760525342828
 20
942.3477339262903
 30
0.0
 10
894.7658249256702
 20
942.3294181167477
 30
0.0
 10
889.954953368559
 20
942.3115752895428
 30
0.0
 10
885.1433901216259
 20
942.2942518315194
 30
0.0
 10
880.3311729284447
 20
942.2774353137804
 30
0.0
 10
875.5183166272668
 20
942.2611290670413
 30
0.0
 10
870.7048421940482
 20
942.2453321992464
 30
0.0
 10
865.8907689603978
 20
942.2300449498273
 30
0.0
 10
861.0761166987563
 20
942.2152672550346
 30
0.0
 10
856.2609050636668
 20
942.2009991323563
 30
0.0
 10
851.445153741477
 20
942.1872405775125
 30
0.0
 10
846.6288824102185
 20
942.1739915920566
 30
0.0
 10
841.8121107503478
 20
942.1612521759787
 30
0.0
 10
836.994858441856
 20
942.149022329688
 30
0.0
 10
832.1771451650384
 20
942.1373020534816
 30
0.0
 10
827.3589906002773
 20
942.126091347686
 30
0.0
 10
822.5404144280908
 20
942.1153902126206
 30
0.0
 10
817.7214363291121
 20
942.1051986486068
 30
0.0
 10
812.9020759840836
 20
942.0955166559651
 30
0.0
 10
808.0823530738519
 20
942.0863442350163
 30
0.0
 10
803.2622872793582
 20
942.0776813860817
 30
0.0
 10
798.4418982816327
 20
942.0695281094821
 30
0.0
 10
793.621205761786
 20
942.0618844055385
 30
0.0
 10
788.8002294010056
 20
942.0547502745719
 30
0.0
 10
783.9789888805424
 20
942.0481257169037
 30
0.0
 10
779.1575038817099
 20
942.0420107328546
 30
0.0
 10
774.3357940858721
 20
942.0364053227463
 30
0.0
 10
769.5138791744399
 20
942.0313094869
 30
0.0
 10
764.6917788288628
 20
942.0267232256367
 30
0.0
 10
759.8695127306203
 20
942.0226465392782
 30
0.0
 10
755.0471005612173
 20
942.0190794281458
 30
0.0
 10
750.2245620021743
 20
942.0160218925606
 30
0.0
 10
745.4019167350216
 20
942.0134739328448
 30
0.0
 10
740.5791844412922
 20
942.0114355493193
 30
0.0
 10
735.7563848025148
 20
942.0099067423063
 30
0.0
 10
730.9335375002055
 20
942.008887512127
 30
0.0
 10
726.1106622158628
 20
942.0083778591033
 30
0.0
 10
721.2877786309568
 20
942.008377783557
 30
0.0
 10
716.4649064269272
 20
942.0088872858099
 30
0.0
 10
711.6420652851706
 20
942.0099063661838
 30
0.0
 10
706.8192748870366
 20
942.0114350250005
 30
0.0
 10
701.9965549138203
 20
942.0134732625825
 30
0.0
 10
697.1739250467552
 20
942.0160210792511
 30
0.0
 10
692.351404967005
 20
942.0190784753287
 30
0.0
 10
687.5290143556573
 20
942.0226454511374
 30
0.0
 10
682.7067728937157
 20
942.0267220069993
 30
0.0
 10
677.8847002620936
 20
942.0313081432369
 30
0.0
 10
673.0628161416062
 20
942.036403860172
 30
0.0
 10
668.2411402129652
 20
942.042009158127
 30
0.0
 10
663.4196921567681
 20
942.0481240374243
 30
0.0
 10
658.5984916534937
 20
942.0547484983864
 30
0.0
 10
653.7775583834945
 20
942.0618825413359
 30
0.0
 10
648.9569120269894
 20
942.0695261665949
 30
0.0
 10
644.1365722640564
 20
942.077679374486
 30
0.0
 10
639.3165587746253
 20
942.0863421653321
 30
0.0
 10
634.496891238471
 20
942.0955145394555
 30
0.0
 10
629.6775893352057
 20
942.1051964971791
 30
0.0
 10
624.8586727442724
 20
942.1153880388254
 30
0.0
 10
620.0401611449374
 20
942.1260891647178
 30
0.0
 10
615.2220742162827
 20
942.1372998751781
 30
0.0
 10
610.4044316372017
 20
942.149020170531
 30
0.0
 10
605.5872530863786
 20
942.1612500510937
 30
0.0
 10
600.7705582423357
 20
942.1739895172118
 30
0.0
 10
595.9543667832202
 20
942.1872385691208
 30
0.0
 10
591.1386983875674
 20
942.2009972074736
 30
0.0
 10
586.3235727314147
 20
942.2152654313608
 30
0.0
 10
581.5090094990426
 20
942.2300432457059
 30
0.0
 10
576.6950283428545
 20
942.2453306336632
 30
0.0
 10
571.8816490330721
 20
942.261127659631
 30
0.0
 10
567.0688908990276
 20
942.2774340848028
 30
0.0
 10
562.2567749142621
 20
942.2942508019453
 30
0.0
 10
557.4453159147959
 20
942.3115744807372
 30
0.0
 10
552.6345516409053
 20
942.3294175516405
 30
0.0
 10
547.824434351685
 20
942.3477336250604
 30
0.0
 10
544.6183019990676
 20
942.36037509431
 30
0.0
 10
543.0152356760268
 20
942.3666958295134
 30
0.0
  0
SPLINE
  5
CE
330
1F
100
AcDbEntity
  8
0
  6
CONTINUOUS
 62
     7
100
AcDbSpline
210
0.0
220
0.0
230
1.0
 70
     8
 71
     3
 72
    25
 73
    21
 74
     0
 42
0.00000001
 43
0.00000001
 40
0.0
 40
0.0
 40
0.0
 40
0.0
 40
0.0278314503475971
 40
0.0555340244599188
 40
0.0831636055917767
 40
0.1107765164789408
 40
0.1384291780786453
 40
0.166177765296191
 40
0.1940778701134936
 40
0.2221841820217215
 40
0.2505501944812842
 40
0.3758752501556574
 40
0.5001556200876465
 40
0.6243550562168417
 40
0.7499206230658152
 40
0.8007690510117279
 40
0.8508771286685158
 40
0.9005654905598719
 40
0.9501629183589607
 40
1.0
 40
1.0
 40
1.0
 40
1.0
 10
909.4734477334705
 20
937.2746545595992
 30
0.0
 10
909.4732076768955
 20
937.3485815775133
 30
0.0
 10
909.4727286753508
 20
937.4960932871014
 30
0.0
 10
909.4594817468825
 20
937.7167783509068
 30
0.0
 10
909.4370359943791
 20
937.9361589913165
 30
0.0
 10
909.4045052387448
 20
938.1542483454596
 30
0.0
 10
909.3621273716568
 20
938.3710391206987
 30
0.0
 10
909.3098387537417
 20
938.5865311337812
 30
0.0
 10
909.2476632444534
 20
938.8007169245277
 30
0.0
 10
909.1755786108945
 20
939.013612639463
 30
0.0
 10
909.0006854567004
 20
939.4652458851863
 30
0.0
 10
908.6531245653011
 20
940.126036711753
 30
0.0
 10
908.0162941909576
 20
940.9025230945066
 30
0.0
 10
907.2396560983068
 20
941.5411897010677
 30
0.0
 10
906.5242792285078
 20
941.917839893715
 30
0.0
 10
905.9568608777311
 20
942.127504929618
 30
0.0
 10
905.569671600334
 20
942.2370980949381
 30
0.0
 10
905.1784276503008
 20
942.3138487587751
 30
0.0
 10
904.7830753338817
 20
942.3606538830609
 30
0.0
 10
904.5181469721638
 20
942.3646786139379
 30
0.0
 10
904.3853635304158
 20
942.3666958295147
 30
0.0
  0
LINE
  5
CF
330
1F
100
AcDbEntity
  8
0
  6
CONTINUOUS
 62
     7
100
AcDbLine
 10
909.4706175153
 20
936.7656333336
 30
0.0
 11
909.473448736
 21
937.2746569999
 31
0.0
  0
SPLINE
  5
D0
330
1F
100
AcDbEntity
  8
0
  6
CONTINUOUS
 62
     7
100
AcDbSpline
210
0.0
220
0.0
230
1.0
 70
     8
 71
     3
 72
     8
 73
     4
 74
     0
 42
0.00000001
 43
0.00000001
 40
3.064432980040948
 40
3.064432980040948
 40
3.064432980040948
 40
3.064432980040948
 40
3.218752327138636
 40
3.218752327138636
 40
3.218752327138636
 40
3.218752327138636
 10
537.9299804244885
 20
936.7656350769685
 30
0.0
 10
661.5331049678014
 20
937.0993366891837
 30
0.0
 10
785.8674942386369
 20
937.0993366891653
 30
0.0
 10
909.4706187819556
 20
936.7656350769682
 30
0.0
  0
LINE
  5
D1
330
1F
100
AcDbEntity
  8
0
  6
CONTINUOUS
 62
     7
100
AcDbLine
 10
537.9271504705
 20
937.2746569999
 30
0.0
 11
537.9299816911
 21
936.7656333336
 31
0.0
  0
SPLINE
  5
D2
330
1F
100
AcDbEntity
  8
0
  6
CONTINUOUS
 62
     7
100
AcDbSpline
210
0.0
220
0.0
230
1.0
 70
     8
 71
     3
 72
    25
 73
    21
 74
     0
 42
0.00000001
 43
0.00000001
 40
0.0
 40
0.0
 40
0.0
 40
0.0
 40
0.0278494509731914
 40
0.055568915218389
 40
0.0832149688747453
 40
0.1108446383659251
 40
0.1385150507442023
 40
0.1662830809422648
 40
0.1942050067292066
 40
0.2223361816266991
 40
0.2507307348024004
 40
0.3760654099921995
 40
0.5004013040947741
 40
0.6245413315962219
 40
0.7500783067243206
 40
0.8008748423687091
 40
0.850945130707065
 40
0.9006059963717967
 40
0.950182150939987
 40
1.0
 40
1.0
 40
1.0
 40
1.0
 10
543.0152356760269
 20
942.3666958295134
 30
0.0
 10
542.9410613337329
 20
942.3663377993807
 30
0.0
 10
542.7930588563312
 20
942.3656234102136
 30
0.0
 10
542.5716695623294
 20
942.351977117706
 30
0.0
 10
542.351618521472
 20
942.3290988321517
 30
0.0
 10
542.1328939125315
 20
942.2960988957208
 30
0.0
 10
541.9155023704135
 20
942.2532158405877
 30
0.0
 10
541.6994439131568
 20
942.2003856269091
 30
0.0
 10
541.4847257929122
 20
942.1376319230353
 30
0.0
 10
541.271331262767
 20
942.0649326571684
 30
0.0
 10
540.819007767033
 20
941.8887638576065
 30
0.0
 10
540.1576746441445
 20
941.5392587448492
 30
0.0
 10
539.38216757211
 20
940.9003717103138
 30
0.0
 10
538.7455788770301
 20
940.1228377077559
 30
0.0
 10
538.3710458251421
 20
939.408157725356
 30
0.0
 10
538.1629906912299
 20
938.8417674069088
 30
0.0
 10
538.0544290403412
 20
938.4555527390901
 30
0.0
 10
537.9785824806125
 20
938.0653645388938
 30
0.0
 10
537.9325654355438
 20
937.6711459417323
 30
0.0
 10
537.9289590503555
 20
937.4070324335605
 30
0.0
 10
537.9271514729725
 20
937.2746545595992
 30
0.0
  0
LINE
  5
D3
330
1F
100
AcDbEntity
  8
0
  6
CONTINUOUS
 62
     7
100
AcDbLine
 10
543.0152413671
 20
942.3666967043
 30
0.0
 11
543.1503054922
 21
944.2398173698
 31
0.0
  0
SPLINE
  5
D4
330
1F
100
AcDbEntity
  8
0
  6
CONTINUOUS
 62
     7
100
AcDbSpline
210
0.0
220
0.0
230
1.0
 70
     8
 71
     3
 72
    66
 73
    62
 74
     0
 42
0.00000001
 43
0.00000001
 40
0.0
 40
0.0
 40
0.0
 40
0.0
 40
0.012501724684122
 40
0.0250028272807396
 40
0.0375033527363874
 40
0.0500033460038257
 40
0.0625028520415569
 40
0.0750019158133406
 40
0.0875005822877098
 40
0.0999988964374859
 40
0.1124969032392936
 40
0.1249946476730759
 40
0.1374921747216085
 40
0.1499895293700148
 40
0.1624867566052797
 40
0.174983901415764
 40
0.1874810087907188
 40
0.1999781237197996
 40
0.2124752911925801
 40
0.2249725561980666
 40
0.237469963724212
 40
0.2499675587574304
 40
0.2624653862821109
 40
0.274963491280132
 40
0.2874619187303766
 40
0.2999607136082462
 40
0.312459920885176
 40
0.3249595855281505
 40
0.3374597524992176
 40
0.3499604667550053
 40
0.3624617732462374
 40
0.3749637169172491
 40
0.3874663427055045
 40
0.3999696955411127
 40
0.4124738203463456
 40
0.4249787620351556
 40
0.4374845655126935
 40
0.4499912756748278
 40
0.4624989374076628
 40
0.4750075955870594
 40
0.4875172950781548
 40
0.5000280807348836
 40
0.5263619213199325
 40
0.5526912170472303
 40
0.579016386480055
 40
0.6053378483785333
 40
0.6316560216797691
 40
0.657971325477928
 40
0.684284179004287
 40
0.7105950016072492
 40
0.7369042127323318
 40
0.7632122319021304
 40
0.7895194786962654
 40
0.8158263727313133
 40
0.8421333336407318
 40
0.8684407810547776
 40
0.894749134580428
 40
0.9210588137813065
 40
0.9473702381576182
 40
0.9736838271261014
 40
1.0
 40
1.0
 40
1.0
 40
1.0
 10
543.1502996032247
 20
944.2398167282323
 30
0.0
 10
544.6522653308975
 20
944.2338864419468
 30
0.0
 10
547.6561220482265
 20
944.2220261644677
 30
0.0
 10
552.1626073308873
 20
944.2048031063638
 30
0.0
 10
556.6694547791953
 20
944.187995989099
 30
0.0
 10
561.1767234807704
 20
944.1716455061625
 30
0.0
 10
565.6843976039803
 20
944.155740754504
 30
0.0
 10
570.1924813904144
 20
944.140284655407
 30
0.0
 10
574.7009737033854
 20
944.1252764261618
 30
0.0
 10
579.2098748472313
 20
944.1107162764856
 30
0.0
 10
583.719184740187
 20
944.0966041501885
 30
0.0
 10
588.2289034039393
 20
944.0829400623265
 30
0.0
 10
592.7390308324553
 20
944.0697240088674
 30
0.0
 10
597.24956702713
 20
944.0569559908923
 30
0.0
 10
601.7605119873674
 20
944.0446360081123
 30
0.0
 10
606.271865713105
 20
944.0327640606056
 30
0.0
 10
610.7836282041372
 20
944.0213401483518
 30
0.0
 10
615.2957994602968
 20
944.010364271357
 30
0.0
 10
619.8083794814063
 20
943.9998364296204
 30
0.0
 10
624.3213682672905
 20
943.9897566231423
 30
0.0
 10
628.8347658177738
 20
943.9801248519232
 30
0.0
 10
633.3485721326808
 20
943.970941115963
 30
0.0
 10
637.8627872118356
 20
943.962205415262
 30
0.0
 10
642.3774110550629
 20
943.9539177498202
 30
0.0
 10
646.892443662187
 20
943.9460781196375
 30
0.0
 10
651.4078850330325
 20
943.9386865247141
 30
0.0
 10
655.9237351674238
 20
943.9317429650492
 30
0.0
 10
660.4399940651855
 20
943.9252474406433
 30
0.0
 10
664.956661726142
 20
943.9191999514957
 30
0.0
 10
669.4737381501183
 20
943.9136004976059
 30
0.0
 10
673.9912233369391
 20
943.908449078974
 30
0.0
 10
678.5091172864282
 20
943.9037456955987
 30
0.0
 10
683.0274199984166
 20
943.8994903474802
 30
0.0
 10
687.546131472706
 20
943.8956830346174
 30
0.0
 10
692.0652517092088
 20
943.8923237570098
 30
0.0
 10
696.5847807074252
 20
943.8894125146552
 30
0.0
 10
701.1047184683953
 20
943.8869493075593
 30
0.0
 10
705.6250649874115
 20
943.8849341356959
 30
0.0
 10
710.1458202812202
 20
943.8833669991593
 30
0.0
 10
714.6669842864932
 20
943.8822478975912
 30
0.0
 10
719.1885572387794
 20
943.8815768323255
 30
0.0
 10
725.3758321001847
 20
943.881271662459
 30
0.0
 10
733.2281272432388
 20
943.882092103484
 30
0.0
 10
742.7446548264792
 20
943.8850719744435
 30
0.0
 10
752.2593891839837
 20
943.8900371910786
 30
0.0
 10
761.7723292672591
 20
943.8969877562353
 30
0.0
 10
771.2834753480316
 20
943.9059236692003
 30
0.0
 10
780.7928273443791
 20
943.9168449301771
 30
0.0
 10
790.3003852689495
 20
943.929751539224
 30
0.0
 10
799.8061491096321
 20
943.9446434960262
 30
0.0
 10
809.3101188587483
 20
943.9615208018714
 30
0.0
 10
818.8122945156114
 20
943.9803834519739
 30
0.0
 10
828.312676047116
 20
944.0012314642026
 30
0.0
 10
837.8112635428305
 20
944.0240647718464
 30
0.0
 10
847.3080566340568
 20
944.0488836238222
 30
0.0
 10
856.8030566625356
 20
944.075687091058
 30
0.0
 10
866.296258586315
 20
944.1044786409415
 30
0.0
 10
875.7876811892507
 20
944.1352453319894
 30
0.0
 10
885.2772543284194
 20
944.168035466736
 30
0.0
 10
894.7652397769091
 20
944.2026687566349
 30
0.0
 10
901.0885095122512
 20
944.227433665749
 30
0.0
 10
904.250299603225
 20
944.2398167282337
 30
0.0
  0
LINE
  5
D5
330
1F
100
AcDbEntity
  8
0
  6
CONTINUOUS
 62
     7
100
AcDbLine
 10
904.3853578393
 20
942.3666967043
 30
0.0
 11
904.2502937143
 21
944.2398173698
 31
0.0
  0
SPLINE
  5
D6
330
1F
100
AcDbEntity
  8
0
  6
CONTINUOUS
 62
     7
100
AcDbSpline
210
0.0
220
0.0
230
1.0
 70
     8
 71
     3
 72
    66
 73
    62
 74
     0
 42
0.00000001
 43
0.00000001
 40
0.0
 40
0.0
 40
0.0
 40
0.0
 40
0.0125017246829641
 40
0.025002827278488
 40
0.0375033527331049
 40
0.0500033459995757
 40
0.0625028520364021
 40
0.0750019158073431
 40
0.0875005822809317
 40
0.0999988964299884
 40
0.1124969032311384
 40
0.1249946476643237
 40
0.1374921747123196
 40
0.1499895293602494
 40
0.1624867565950973
 40
0.1749839014052244
 40
0.1874810087798807
 40
0.1999781237087215
 40
0.2124752911813203
 40
0.2249725561866828
 40
0.2374699637127623
 40
0.2499675587459713
 40
0.2624653862706992
 40
0.2749634912688241
 40
0.2874619187192285
 40
0.2999607135973136
 40
0.3124599208745141
 40
0.324959585517814
 40
0.337459752489261
 40
0.3499604667454827
 40
0.3624617732372024
 40
0.3749637169087551
 40
0.3874663426976043
 40
0.399969695533859
 40
0.4124738203397906
 40
0.424978762029351
 40
0.4374845655076908
 40
0.4499912756706777
 40
0.4624989374044161
 40
0.4750075955847665
 40
0.4875172950768654
 40
0.5000280807346471
 40
0.5263619213188935
 40
0.5526912170454994
 40
0.5790163864777398
 40
0.6053378483757373
 40
0.6316560216765926
 40
0.6579713254744679
 40
0.6842841790006361
 40
0.7105950016034969
 40
0.7369042127285639
 40
0.7632122318984292
 40
0.7895194786927093
 40
0.8158263727279775
 40
0.8421333336376874
 40
0.8684407810520927
 40
0.8947491345781666
 40
0.9210588137795289
 40
0.9473702381563811
 40
0.9736838271254581
 40
1.0
 40
1.0
 40
1.0
 40
1.0
 10
904.2502996032243
 20
615.0322486505444
 30
0.0
 10
902.7483338756672
 20
615.0381789368046
 30
0.0
 10
899.7444771585618
 20
615.050039214233
 30
0.0
 10
895.2379918762317
 20
615.0672622722632
 30
0.0
 10
890.7311444282363
 20
615.0840693894559
 30
0.0
 10
886.2238757269564
 20
615.1004198723227
 30
0.0
 10
881.7162016040237
 20
615.116324623913
 30
0.0
 10
877.2081178178493
 20
615.1317807229439
 30
0.0
 10
872.6996255051199
 20
615.1467889521248
 30
0.0
 10
868.1907243614983
 20
615.1613491017388
 30
0.0
 10
863.6814144687488
 20
615.1754612279756
 30
0.0
 10
859.1716958051851
 20
615.1891253157787
 30
0.0
 10
854.6615683768398
 20
615.2023413691813
 30
0.0
 10
850.1510321823183
 20
615.2151093871018
 30
0.0
 10
845.6400872222163
 20
615.2274293698292
 30
0.0
 10
841.1287334965963
 20
615.2393013172853
 30
0.0
 10
836.6169710056638
 20
615.2507252294901
 30
0.0
 10
832.1047997495863
 20
615.2617011064377
 30
0.0
 10
827.5922197285414
 20
615.2722289481295
 30
0.0
 10
823.0792309427039
 20
615.2823087545644
 30
0.0
 10
818.5658333922494
 20
615.2919405257423
 30
0.0
 10
814.0520270773538
 20
615.3011242616632
 30
0.0
 10
809.5378119981923
 20
615.3098599623269
 30
0.0
 10
805.0231881549407
 20
615.3181476277332
 30
0.0
 10
800.5081555477745
 20
615.3259872578823
 30
0.0
 10
795.9927141768694
 20
615.3333788527741
 30
0.0
 10
791.4768640424006
 20
615.3403224124091
 30
0.0
 10
786.9606051445438
 20
615.3468179367874
 30
0.0
 10
782.4439374834742
 20
615.3528654259092
 30
0.0
 10
777.9268610593673
 20
615.3584648797748
 30
0.0
 10
773.4093758723978
 20
615.3636162983848
 30
0.0
 10
768.8914819227427
 20
615.3683196817399
 30
0.0
 10
764.3731792105704
 20
615.3725750298402
 30
0.0
 10
759.8544677360794
 20
615.376382342687
 30
0.0
 10
755.3353474993571
 20
615.3797416202798
 30
0.0
 10
750.8158185009036
 20
615.3826528626222
 30
0.0
 10
746.2958807396788
 20
615.3851160697072
 30
0.0
 10
741.7755342203898
 20
615.3871312415622
 30
0.0
 10
737.2547789262909
 20
615.3886983780919
 30
0.0
 10
732.7336149207098
 20
615.3898174796553
 30
0.0
 10
728.2120419680978
 20
615.3904885449182
 30
0.0
 10
722.024767106592
 20
615.3907937147833
 30
0.0
 10
714.1724719636552
 20
615.389973273762
 30
0.0
 10
704.655944380742
 20
615.3869934028152
 30
0.0
 10
695.1412100235234
 20
615.3820281862013
 30
0.0
 10
685.6282699404919
 20
615.3750776210742
 30
0.0
 10
676.1171238599225
 20
615.3661417081474
 30
0.0
 10
666.6077718637364
 20
615.3552204472177
 30
0.0
 10
657.100213939286
 20
615.3423138382258
 30
0.0
 10
647.5944500986822
 20
615.3274218814875
 30
0.0
 10
638.0904803496034
 20
615.3105445757143
 30
0.0
 10
628.5883046927362
 20
615.2916819256925
 30
0.0
 10
619.087923161186
 20
615.2708339135529
 30
0.0
 10
609.5893356653849
 20
615.248000606007
 30
0.0
 10
600.0925425740301
 20
615.2231817541372
 30
0.0
 10
590.5975425453817
 20
615.1963782870163
 30
0.0
 10
581.1043406213911
 20
615.167586737256
 30
0.0
 10
571.6129180182029
 20
615.1368200463397
 30
0.0
 10
562.1233448787399
 20
615.1040299117334
 30
0.0
 10
552.6353594299165
 20
615.0693966219828
 30
0.0
 10
546.3120896943254
 20
615.0446317129746
 30
0.0
 10
543.1502996032241
 20
615.0322486505429
 30
0.0
  0
LINE
  5
D7
330
1F
100
AcDbEntity
  8
0
  6
CONTINUOUS
 62
     7
100
AcDbLine
 10
543.1503054922
 20
615.0322480091
 30
0.0
 11
543.0152413671
 21
616.9053686746
 31
0.0
  0
LINE
  5
D8
330
1F
100
AcDbEntity
  8
0
  6
CONTINUOUS
 62
     7
100
AcDbLine
 10
904.2502937143
 20
615.0322480091
 30
0.0
 11
904.3853578393
 21
616.9053686746
 31
0.0
  0
LINE
  5
D9
330
1F
100
AcDbEntity
  8
0
  6
CONTINUOUS
 62
     7
100
AcDbLine
 10
910.8765271728
 20
622.1860272773
 30
0.0
 11
912.2502950256
 21
622.1860272773
 31
0.0
  0
ARC
  5
DA
330
1F
100
AcDbEntity
  8
0
  6
CONTINUOUS
 62
     7
100
AcDbCircle
 10
904.2502996032
 20
622.1860326895
 30
0.0
 40
8.0
100
AcDbArc
 50
270.0
 51
0.0
  0
LINE
  5
DB
330
1F
100
AcDbEntity
  8
0
  6
CONTINUOUS
 62
     7
100
AcDbLine
 10
904.2502937143
 20
615.0323672184
 30
0.0
 11
904.2502937143
 21
614.186025966
 31
0.0
  0
SPLINE
  5
DC
330
1F
100
AcDbEntity
  8
0
  6
CONTINUOUS
 62
     7
100
AcDbSpline
210
0.0
220
0.0
230
1.0
 70
     8
 71
     3
 72
    42
 73
    38
 74
     0
 42
0.00000001
 43
0.00000001
 40
0.0
 40
0.0
 40
0.0
 40
0.0
 40
0.0285779424654376
 40
0.0571542666678515
 40
0.0857290851244866
 40
0.1143025103121536
 40
0.1428746546689992
 40
0.1714456305962496
 40
0.2000155504599793
 40
0.2285845265928534
 40
0.2571526712958808
 40
0.2857200968402029
 40
0.3142869154688339
 40
0.342853239398428
 40
0.3714191808210524
 40
0.3999848519059507
 40
0.4285503648013034
 40
0.4571158316360194
 40
0.4856813645214764
 40
0.5142470755533269
 40
0.5428130768132389
 40
0.5713794803706899
 40
0.5999463982847358
 40
0.6285139426057835
 40
0.6570822253773652
 40
0.6856513586379194
 40
0.7142214544225632
 40
0.742792624764864
 40
0.7713649816986266
 40
0.799938637259658
 40
0.8285137034875504
 40
0.8570902924274484
 40
0.8856685161318419
 40
0.9142484866623154
 40
0.9428303160913423
 40
0.9714141165040521
 40
1.0
 40
1.0
 40
1.0
 40
1.0
 10
911.0928194523707
 20
620.1001628154495
 30
0.0
 10
911.066861965303
 20
620.017283498593
 30
0.0
 10
911.0149484610436
 20
619.8515295580287
 30
0.0
 10
910.9255970908049
 20
619.6066752811789
 30
0.0
 10
910.827989263889
 20
619.3650148381231
 30
0.0
 10
910.72142265381
 20
619.1271203688593
 30
0.0
 10
910.6062616502008
 20
618.8932464214489
 30
0.0
 10
910.4825997891897
 20
618.6637258982946
 30
0.0
 10
910.35061786902
 20
618.4388634203916
 30
0.0
 10
910.2104877211937
 20
618.218963358076
 30
0.0
 10
910.0623976946995
 20
618.004321791115
 30
0.0
 10
909.9065455097989
 20
617.7952281447278
 30
0.0
 10
909.7431398355368
 20
617.5919642452401
 30
0.0
 10
909.57239951123
 20
617.3948040799607
 30
0.0
 10
909.3945533810883
 20
617.2040133819118
 30
0.0
 10
909.2098399469395
 20
617.0198492756937
 30
0.0
 10
909.0185070526156
 20
616.8425599218278
 30
0.0
 10
908.8208115433457
 20
616.6723841769929
 30
0.0
 10
908.6170189159265
 20
616.5095512660948
 30
0.0
 10
908.4074029560527
 20
616.3542804678418
 30
0.0
 10
908.1922453644116
 20
616.2067808139442
 30
0.0
 10
907.9718353717631
 20
616.0672508024226
 30
0.0
 10
907.746469343621
 20
615.9358781254826
 30
0.0
 10
907.516450375058
 20
615.8128394120394
 30
0.0
 10
907.2820878762146
 20
615.6982999863857
 30
0.0
 10
907.0436971490491
 20
615.5924136390778
 30
0.0
 10
906.8015989560421
 20
615.4953224263056
 30
0.0
 10
906.5561190810037
 20
615.4071564384649
 30
0.0
 10
906.3075878842616
 20
615.3280337605875
 30
0.0
 10
906.0563398466232
 20
615.258059794858
 30
0.0
 10
905.8027131259989
 20
615.1973290433302
 30
0.0
 10
905.5470490404838
 20
615.1459177887122
 30
0.0
 10
905.2896918026778
 20
615.1039108280273
 30
0.0
 10
905.0309872960926
 20
615.0713011903564
 30
0.0
 10
904.7712854097417
 20
615.0483640108034
 30
0.0
 10
904.5109290780978
 20
615.0342607396482
 30
0.0
 10
904.3371782051609
 20
615.0329193632041
 30
0.0
 10
904.250299603225
 20
615.0322486505444
 30
0.0
  0
LINE
  5
DD
330
1F
100
AcDbEntity
  8
0
  6
CONTINUOUS
 62
     7
100
AcDbLine
 10
911.3942382162
 20
936.7064459213
 30
0.0
 11
909.4706175153
 21
936.7656333336
 31
0.0
  0
LINE
  5
DE
330
1F
100
AcDbEntity
  8
0
  6
CONTINUOUS
 62
     7
100
AcDbLine
 10
911.3942382162
 20
936.7064459213
 30
0.0
 11
912.2502950256
 21
936.1360294708
 31
0.0
  0
LINE
  5
DF
330
1F
100
AcDbEntity
  8
0
  6
CONTINUOUS
 62
     7
100
AcDbLine
 10
908.9509395187
 20
936.1360294708
 30
0.0
 11
912.2502950256
 21
936.1360294708
 31
0.0
  0
LINE
  5
E0
330
1F
100
AcDbEntity
  8
0
  6
CONTINUOUS
 62
     7
100
AcDbLine
 10
902.3144987648
 20
936.1598862299
 30
0.0
 11
901.8262175148
 21
936.4852381834
 31
0.0
  0
LINE
  5
E1
330
1F
100
AcDbEntity
  8
0
  6
CONTINUOUS
 62
     7
100
AcDbLine
 10
545.5743816917
 20
936.4852381834
 30
0.0
 11
901.8262175148
 21
936.4852381834
 31
0.0
  0
LINE
  5
E2
330
1F
100
AcDbEntity
  8
0
  6
CONTINUOUS
 62
     7
100
AcDbLine
 10
545.5743816917
 20
936.4852381834
 30
0.0
 11
545.0860855405
 21
936.1598862299
 31
0.0
  0
LINE
  5
E3
330
1F
100
AcDbEntity
  8
0
  6
CONTINUOUS
 62
     7
100
AcDbLine
 10
538.1328013961
 20
936.1360294708
 30
0.0
 11
535.1503041809
 21
936.1360294708
 31
0.0
  0
LINE
  5
E4
330
1F
100
AcDbEntity
  8
0
  6
CONTINUOUS
 62
     7
100
AcDbLine
 10
535.1503041809
 20
936.1360294708
 30
0.0
 11
536.0063609903
 21
936.7064459213
 31
0.0
  0
LINE
  5
E5
330
1F
100
AcDbEntity
  8
0
  6
CONTINUOUS
 62
     7
100
AcDbLine
 10
537.9299816911
 20
936.7656333336
 30
0.0
 11
536.0063609903
 21
936.7064459213
 31
0.0
  0
LINE
  5
E6
330
1F
100
AcDbEntity
  8
0
  6
CONTINUOUS
 62
     7
100
AcDbLine
 10
912.2502950256
 20
622.1860272773
 30
0.0
 11
912.2502950256
 21
623.1360359081
 31
0.0
  0
LINE
  5
E7
330
1F
100
AcDbEntity
  8
0
  6
CONTINUOUS
 62
     7
100
AcDbLine
 10
904.2502937143
 20
945.0860394129
 30
0.0
 11
543.1503054922
 21
945.0860394129
 31
0.0
  0
LINE
  5
E8
330
1F
100
AcDbEntity
  8
0
  6
CONTINUOUS
 62
     7
100
AcDbLine
 10
904.2502937143
 20
944.2398173698
 30
0.0
 11
904.2502937143
 21
945.0860394129
 31
0.0
  0
LINE
  5
E9
330
1F
100
AcDbEntity
  8
0
  6
CONTINUOUS
 62
     7
100
AcDbLine
 10
543.1503054922
 20
944.2396832594
 30
0.0
 11
543.1503054922
 21
945.0860394129
 31
0.0
  0
LINE
  5
EA
330
1F
100
AcDbEntity
  8
0
  6
CONTINUOUS
 62
     7
100
AcDbLine
 10
543.1503054922
 20
614.186025966
 30
0.0
 11
904.2502937143
 21
614.186025966
 31
0.0
  0
LINE
  5
EB
330
1F
100
AcDbEntity
  8
0
  6
CONTINUOUS
 62
     7
100
AcDbLine
 10
543.1503054922
 20
615.0322480091
 30
0.0
 11
543.1503054922
 21
614.186025966
 31
0.0
  0
LINE
  5
EC
330
1F
100
AcDbEntity
  8
0
  6
CONTINUOUS
 62
     7
100
AcDbLine
 10
536.0063609903
 20
936.7064459213
 30
0.0
 11
536.0042450254
 21
937.0860381016
 31
0.0
  0
LINE
  5
ED
330
1F
100
AcDbEntity
  8
0
  6
CONTINUOUS
 62
     7
100
AcDbLine
 10
537.9271504705
 20
937.2746569999
 30
0.0
 11
536.0042450254
 21
937.0860381016
 31
0.0
  0
LINE
  5
EE
330
1F
100
AcDbEntity
  8
0
  6
CONTINUOUS
 62
     7
100
AcDbLine
 10
909.473448736
 20
937.2746569999
 30
0.0
 11
911.3963541811
 21
937.0860381016
 31
0.0
  0
LINE
  5
EF
330
1F
100
AcDbEntity
  8
0
  6
CONTINUOUS
 62
     7
100
AcDbLine
 10
911.3963541811
 20
937.0860381016
 30
0.0
 11
911.3942382162
 21
936.7064459213
 31
0.0
  0
LINE
  5
F0
330
1F
100
AcDbEntity
  8
0
  6
CONTINUOUS
 62
     7
100
AcDbLine
 10
536.0042450254
 20
622.1860272773
 30
0.0
 11
537.9271504705
 21
621.997408379
 31
0.0
  0
LINE
  5
F1
330
1F
100
AcDbEntity
  8
0
  6
CONTINUOUS
 62
     7
100
AcDbLine
 10
536.0042450254
 20
622.1860272773
 30
0.0
 11
536.0063609903
 21
622.5656194576
 31
0.0
  0
SPLINE
  5
F2
330
1F
100
AcDbEntity
  8
0
  6
CONTINUOUS
 62
     7
100
AcDbSpline
210
0.0
220
0.0
230
1.0
 70
     8
 71
     3
 72
    40
 73
    36
 74
     0
 42
0.00000001
 43
0.00000001
 40
0.0
 40
0.0
 40
0.0
 40
0.0
 40
0.0243176931545599
 40
0.0484824815400229
 40
0.0724943275995459
 40
0.0963531990848466
 40
0.1200590691314142
 40
0.1436119163360315
 40
0.1670117248366804
 40
0.1902584843949247
 40
0.2133521904808694
 40
0.2362928443607676
 40
0.2590804531873949
 40
0.2817150300932608
 40
0.3041965942867923
 40
0.3265251711515812
 40
0.3487007923488012
 40
0.370723495922926
 40
0.3925933264108586
 40
0.4143103349546023
 40
0.4358745794175944
 40
0.45728612450486
 40
0.4785450418870987
 40
0.4996514103288701
 40
0.5439796654345954
 40
0.5885372473810897
 40
0.6333250022233019
 40
0.6783437303168249
 40
0.7235941869480345
 40
0.7690770829598934
 40
0.8147930853729675
 40
0.8607428180013262
 40
0.9069268620629779
 40
0.9533457567845625
 40
1.0
 40
1.0
 40
1.0
 40
1.0
 10
536.0042521899552
 20
937.0860326894502
 30
0.0
 10
536.0048962770034
 20
937.1769729206751
 30
0.0
 10
536.0061804012096
 20
937.3582815692208
 30
0.0
 10
536.0212322030825
 20
937.6291035036772
 30
0.0
 10
536.0456530986661
 20
937.8975119317441
 30
0.0
 10
536.0801573543887
 20
938.1631463176194
 30
0.0
 10
536.124259083437
 20
938.4256515669565
 30
0.0
 10
536.1777769566679
 20
938.6846912893349
 30
0.0
 10
536.2404360312765
 20
938.9399444930006
 30
0.0
 10
536.3119745720603
 20
939.1911066174652
 30
0.0
 10
536.3921168408801
 20
939.4378893581832
 30
0.0
 10
536.4805814309633
 20
939.6800207573683
 30
0.0
 10
536.5770801460817
 20
939.9172451722288
 30
0.0
 10
536.6813193628535
 20
940.1493232261689
 30
0.0
 10
536.7930007072135
 20
940.3760317176033
 30
0.0
 10
536.9118218835014
 20
940.5971634949427
 30
0.0
 10
537.0374774351662
 20
940.8125273004201
 30
0.0
 10
537.1696594841748
 20
941.0219475755035
 30
0.0
 10
537.3080584737589
 20
941.2252642656929
 30
0.0
 10
537.4523637660614
 20
941.4223324938058
 30
0.0
 10
537.6022646540409
 20
941.6130225943947
 30
0.0
 10
537.7574497156442
 20
941.7972186990133
 30
0.0
 10
537.9176121601232
 20
941.9748225657764
 30
0.0
 10
538.14327668477
 20
942.2088315503728
 30
0.0
 10
538.4447847615131
 20
942.4907798119958
 30
0.0
 10
538.8343209086704
 20
942.8068778753159
 30
0.0
 10
539.2473061621708
 20
943.0962357934716
 30
0.0
 10
539.6819683807879
 20
943.3569410113332
 30
0.0
 10
540.1363871204483
 20
943.5871994776465
 30
0.0
 10
540.6084808449805
 20
943.7853577088625
 30
0.0
 10
541.0960182605357
 20
943.949817552657
 30
0.0
 10
541.5966280754822
 20
944.0794425225383
 30
0.0
 10
542.1077982231869
 20
944.1720899431086
 30
0.0
 10
542.6269267928739
 20
944.2301957183472
 30
0.0
 10
542.9755481537586
 20
944.2366043232515
 30
0.0
 10
543.1502996032243
 20
944.2398167282323
 30
0.0
  0
SPLINE
  5
F3
330
1F
100
AcDbEntity
  8
0
  6
CONTINUOUS
 62
     7
100
AcDbSpline
210
0.0
220
0.0
230
1.0
 70
     8
 71
     3
 72
    39
 73
    35
 74
     0
 42
0.00000001
 43
0.00000001
 40
0.0
 40
0.0
 40
0.0
 40
0.0
 40
0.024457558518091
 40
0.0488495954656169
 40
0.0731761774770477
 40
0.0974373742944158
 40
0.1216332587911096
 40
0.1457639069958217
 40
0.1698293981166162
 40
0.1938298145651546
 40
0.2177652419810382
 40
0.2416357692562932
 40
0.2654414885599721
 40
0.2891824953629013
 40
0.3128588884625216
 40
0.3364707700078748
 40
0.3600182455246867
 40
0.3835014239405716
 40
0.4069204176103316
 40
0.4302753423413749
 40
0.4535663174192214
 40
0.4767934656330963
 40
0.4999569133016317
 40
0.542376136041199
 40
0.585402208668887
 40
0.6290356722006174
 40
0.6732769585479791
 40
0.7181263942651381
 40
0.7635842040649212
 40
0.8096505141201089
 40
0.856325355164643
 40
0.9036086654085205
 40
0.9515002932790101
 40
1.0
 40
1.0
 40
1.0
 40
1.0
 10
904.250299603225
 20
944.2398167282337
 30
0.0
 10
904.3418876449572
 20
944.2390587895627
 30
0.0
 10
904.5248183649138
 20
944.2375449427312
 30
0.0
 10
904.7985339208142
 20
944.221892713103
 30
0.0
 10
905.0707721840752
 20
944.1965603877742
 30
0.0
 10
905.3411449456393
 20
944.1607064811759
 30
0.0
 10
905.6092631177854
 20
944.1147196404397
 30
0.0
 10
905.874748362206
 20
944.0586782240911
 30
0.0
 10
906.1372305996192
 20
943.9927607847993
 30
0.0
 10
906.3963492546231
 20
943.9171358977901
 30
0.0
 10
906.6517534708985
 20
943.8319909190689
 30
0.0
 10
906.903102568157
 20
943.737523653546
 30
0.0
 10
907.1500664013635
 20
943.6339439083793
 30
0.0
 10
907.3923257129142
 20
943.5214723968795
 30
0.0
 10
907.6295724529726
 20
943.4003403402785
 30
0.0
 10
907.8615100768777
 20
943.2707888729237
 30
0.0
 10
908.0878538090743
 20
943.1330685010803
 30
0.0
 10
908.3083309074149
 20
942.9874385128792
 30
0.0
 10
908.5226808044231
 20
942.834166506323
 30
0.0
 10
908.7306555847756
 20
942.6735274787782
 30
0.0
 10
908.9320190934178
 20
942.5058045361385
 30
0.0
 10
909.1265510149069
 20
942.3312835811212
 30
0.0
 10
909.3661548556124
 20
942.0999461229957
 30
0.0
 10
909.6442913636721
 20
941.8020842768495
 30
0.0
 10
909.9501768360342
 20
941.4266748075206
 30
0.0
 10
910.2336026211996
 20
941.0257060931965
 30
0.0
 10
910.492073054746
 20
940.600295140801
 30
0.0
 10
910.7231161542596
 20
940.1517917941032
 30
0.0
 10
910.9243186393747
 20
939.681799858657
 30
0.0
 10
911.093247653378
 20
939.1921795532526
 30
0.0
 10
911.2278817102781
 20
938.6850483388283
 30
0.0
 10
911.3250913376525
 20
938.1627949269133
 30
0.0
 10
911.3865528831961
 20
937.6280268144772
 30
0.0
 10
911.393068604053
 20
937.2674556116004
 30
0.0
 10
911.3963470164953
 20
937.0860326894502
 30
0.0
  0
SPLINE
  5
F4
330
1F
100
AcDbEntity
  8
0
  6
CONTINUOUS
 62
     7
100
AcDbSpline
210
0.0
220
0.0
230
1.0
 70
     8
 71
     3
 72
    39
 73
    35
 74
     0
 42
0.00000001
 43
0.00000001
 40
0.0
 40
0.0
 40
0.0
 40
0.0
 40
0.0244557828681348
 40
0.0488462212263652
 40
0.0731713818355343
 40
0.0974313345561546
 40
0.1216261523720997
 40
0.1457559114144416
 40
0.1698206909854093
 40
0.1938205735825011
 40
0.2177556449227125
 40
0.2416259939669032
 40
0.2654317129442863
 40
0.2891728973770455
 40
0.3128496461050616
 40
0.3364620613107636
 40
0.360010248544101
 40
0.3834943167475974
 40
0.4069143782815424
 40
0.4302705489492563
 40
0.4535629480224731
 40
0.4767916982667956
 40
0.4999569259672399
 40
0.5423761476154498
 40
0.5854022191398156
 40
0.6290356815562349
 40
0.6732769667762879
 40
0.7181264013541148
 40
0.7635842100025342
 40
0.8096505188943137
 40
0.8563253587633899
 40
0.9036086678197496
 40
0.9515002944906557
 40
1.0
 40
1.0
 40
1.0
 40
1.0
 10
543.150299603225
 20
615.0322486505429
 30
0.0
 10
543.058718234111
 20
615.0330064362906
 30
0.0
 10
542.8758001962759
 20
615.034519983024
 30
0.0
 10
542.6021025720426
 20
615.0501699714147
 30
0.0
 10
542.3298800925288
 20
615.0754990199742
 30
0.0
 10
542.0595209183451
 20
615.1113487316626
 30
0.0
 10
541.7914141086342
 20
615.1573307322395
 30
0.0
 10
541.5259379909724
 20
615.213366896978
 30
0.0
 10
541.2634626519672
 20
615.2792789139934
 30
0.0
 10
541.0043486918973
 20
615.3548984433106
 30
0.0
 10
540.7489470091316
 20
615.4400383603005
 30
0.0
 10
540.497598342691
 20
615.5345010858853
 30
0.0
 10
540.2506329125025
 20
615.6380770323563
 30
0.0
 10
540.0083700666387
 20
615.750545698492
 30
0.0
 10
539.7711179603574
 20
615.8716760668996
 30
0.0
 10
539.5391732580243
 20
616.0012271979692
 30
0.0
 10
539.3128208684694
 20
616.1389487702703
 30
0.0
 10
539.0923336799444
 20
616.2845816698565
 30
0.0
 10
538.8779724180645
 20
616.437858461554
 30
0.0
 10
538.6699851675601
 20
616.5985042988573
 30
0.0
 10
538.4686082631708
 20
616.7662362140419
 30
0.0
 10
538.2740622099645
 20
616.9407684298822
 30
0.0
 10
538.0344489106857
 20
617.1721143743064
 30
0.0
 10
537.7563078428888
 20
617.4699811012713
 30
0.0
 10
537.4504223705547
 20
617.845390571271
 30
0.0
 10
537.1669965854518
 20
618.2463592852715
 30
0.0
 10
536.9085261519142
 20
618.6717702376463
 30
0.0
 10
536.6774830523871
 20
619.1202735842786
 30
0.0
 10
536.4762805672366
 20
619.5902655197153
 30
0.0
 10
536.3073515531853
 20
620.0798858251435
 30
0.0
 10
536.1727174962319
 20
620.5870170396339
 30
0.0
 10
536.0755078688088
 20
621.109270451657
 30
0.0
 10
536.0140463232277
 20
621.6440385642439
 30
0.0
 10
536.0075306023659
 20
622.0046097672357
 30
0.0
 10
536.0042521899213
 20
622.1860326894498
 30
0.0
  0
LINE
  5
F5
330
1F
100
AcDbEntity
  8
0
  6
CONTINUOUS
 62
     7
100
AcDbLine
 10
535.1503041809
 20
937.0860381016
 30
0.0
 11
535.1503041809
 21
936.1360294708
 31
0.0
  0
LINE
  5
F6
330
1F
100
AcDbEntity
  8
0
  6
CONTINUOUS
 62
     7
100
AcDbLine
 10
536.0042450254
 20
937.0860381016
 30
0.0
 11
535.1503041809
 21
937.0860381016
 31
0.0
  0
LINE
  5
F7
330
1F
100
AcDbEntity
  8
0
  6
CONTINUOUS
 62
     7
100
AcDbLine
 10
912.2502950256
 20
936.1360294708
 30
0.0
 11
912.2502950256
 21
937.0860381016
 31
0.0
  0
LINE
  5
F8
330
1F
100
AcDbEntity
  8
0
  6
CONTINUOUS
 62
     7
100
AcDbLine
 10
911.396532995
 20
937.0860381016
 30
0.0
 11
912.2502950256
 21
937.0860381016
 31
0.0
  0
LINE
  5
F9
330
1F
100
AcDbEntity
  8
0
  6
CONTINUOUS
 62
     7
100
AcDbLine
 10
535.1503041809
 20
623.1360359081
 30
0.0
 11
535.1503041809
 21
622.1860272773
 31
0.0
  0
LINE
  5
FA
330
1F
100
AcDbEntity
  8
0
  6
CONTINUOUS
 62
     7
100
AcDbLine
 10
536.0040662115
 20
622.1860272773
 30
0.0
 11
535.1503041809
 21
622.1860272773
 31
0.0
  0
ARC
  5
FB
330
1F
100
AcDbEntity
  8
0
  6
CONTINUOUS
 62
     7
100
AcDbCircle
 10
904.2502996032
 20
937.0860326895
 30
0.0
 40
8.000000000000114
100
AcDbArc
 50
0.0
 51
90.0
  0
ARC
  5
FC
330
1F
100
AcDbEntity
  8
0
  6
CONTINUOUS
 62
     7
100
AcDbCircle
 10
543.1502996032
 20
622.1860326895
 30
0.0
 40
8.0
100
AcDbArc
 50
180.0
 51
270.0
  0
ARC
  5
FD
330
1F
100
AcDbEntity
  8
0
  6
CONTINUOUS
 62
     7
100
AcDbCircle
 10
543.1502996032
 20
937.0860326895
 30
0.0
 40
8.000000000000114
100
AcDbArc
 50
90.0
 51
180.0
  0
LINE
  5
FE
330
1F
100
AcDbEntity
  8
0
  6
CONTINUOUS
 62
     7
100
AcDbLine
 10
901.668995363
 20
894.8360307106
 30
0.0
 11
901.668995363
 21
864.436030198
 31
0.0
  0
LINE
  5
FF
330
1F
100
AcDbEntity
  8
0
  6
CONTINUOUS
 62
     7
100
AcDbLine
 10
901.668995363
 20
694.8360351809
 30
0.0
 11
901.668995363
 21
664.4360346683
 31
0.0
  0
LINE
  5
100
330
1F
100
AcDbEntity
  8
0
  6
CONTINUOUS
 62
     7
100
AcDbLine
 10
545.5743816917
 20
622.7868271955
 30
0.0
 11
545.5743816917
 21
623.1107635387
 31
0.0
  0
LINE
  5
101
330
1F
100
AcDbEntity
  8
0
  6
CONTINUOUS
 62
     7
100
AcDbLine
 10
545.5743816917
 20
936.1613018402
 30
0.0
 11
545.5743816917
 21
936.4852381834
 31
0.0
  0
LINE
  5
102
330
1F
100
AcDbEntity
  8
0
  6
CONTINUOUS
 62
     7
100
AcDbLine
 10
902.1859911506
 20
894.6360347756
 30
0.0
 11
902.0148960178
 21
894.6360347756
 31
0.0
  0
LINE
  5
103
330
1F
100
AcDbEntity
  8
0
  6
CONTINUOUS
 62
     7
100
AcDbLine
 10
902.0148960178
 20
864.6360335835
 30
0.0
 11
902.0148960178
 21
894.6360347756
 31
0.0
  0
LINE
  5
104
330
1F
100
AcDbEntity
  8
0
  6
CONTINUOUS
 62
     7
100
AcDbLine
 10
902.1859911506
 20
864.6360335835
 30
0.0
 11
902.0148960178
 21
864.6360335835
 31
0.0
  0
LINE
  5
105
330
1F
100
AcDbEntity
  8
0
  6
CONTINUOUS
 62
     7
100
AcDbLine
 10
902.1859911506
 20
864.6360335835
 30
0.0
 11
902.1859911506
 21
866.4360342511
 31
0.0
  0
LINE
  5
106
330
1F
100
AcDbEntity
  8
0
  6
CONTINUOUS
 62
     7
100
AcDbLine
 10
902.1859911506
 20
892.836034108
 30
0.0
 11
902.1859911506
 21
894.6360347756
 31
0.0
  0
LINE
  5
107
330
1F
100
AcDbEntity
  8
0
  6
CONTINUOUS
 62
     7
100
AcDbLine
 10
901.8262175148
 20
936.4852381834
 30
0.0
 11
901.8262175148
 21
936.1613167413
 31
0.0
  0
LINE
  5
108
330
1F
100
AcDbEntity
  8
0
  6
CONTINUOUS
 62
     7
100
AcDbLine
 10
902.3503062551
 20
664.4360346683
 30
0.0
 11
902.3503062551
 21
666.4360312709
 31
0.0
  0
LINE
  5
109
330
1F
100
AcDbEntity
  8
0
  6
CONTINUOUS
 62
     7
100
AcDbLine
 10
902.3503062551
 20
692.8360311278
 30
0.0
 11
902.3503062551
 21
694.8360351809
 31
0.0
  0
LINE
  5
10A
330
1F
100
AcDbEntity
  8
0
  6
CONTINUOUS
 62
     7
100
AcDbLine
 10
902.3503062551
 20
864.436030198
 30
0.0
 11
902.3503062551
 21
866.4360342511
 31
0.0
  0
LINE
  5
10B
330
1F
100
AcDbEntity
  8
0
  6
CONTINUOUS
 62
     7
100
AcDbLine
 10
902.3503062551
 20
892.836034108
 30
0.0
 11
902.3503062551
 21
894.8360307106
 31
0.0
  0
LINE
  5
10C
330
1F
100
AcDbEntity
  8
0
  6
CONTINUOUS
 62
     7
100
AcDbLine
 10
901.8262175148
 20
623.1107486376
 30
0.0
 11
901.8262175148
 21
622.7868271955
 31
0.0
  0
LINE
  5
10D
330
1F
100
AcDbEntity
  8
0
  6
CONTINUOUS
 62
     7
100
AcDbLine
 10
902.1859911506
 20
664.6360306033
 30
0.0
 11
902.0148960178
 21
664.6360306033
 31
0.0
  0
LINE
  5
10E
330
1F
100
AcDbEntity
  8
0
  6
CONTINUOUS
 62
     7
100
AcDbLine
 10
902.1859911506
 20
694.6360317954
 30
0.0
 11
902.1859911506
 21
692.8360311278
 31
0.0
  0
LINE
  5
10F
330
1F
100
AcDbEntity
  8
0
  6
CONTINUOUS
 62
     7
100
AcDbLine
 10
902.1859911506
 20
666.4360312709
 30
0.0
 11
902.1859911506
 21
664.6360306033
 31
0.0
  0
LINE
  5
110
330
1F
100
AcDbEntity
  8
0
  6
CONTINUOUS
 62
     7
100
AcDbLine
 10
902.1859911506
 20
694.6360317954
 30
0.0
 11
902.0148960178
 21
694.6360317954
 31
0.0
  0
LINE
  5
111
330
1F
100
AcDbEntity
  8
0
  6
CONTINUOUS
 62
     7
100
AcDbLine
 10
902.0148960178
 20
694.6360317954
 30
0.0
 11
902.0148960178
 21
664.6360306033
 31
0.0
  0
LINE
  5
112
330
1F
100
AcDbEntity
  8
0
  6
CONTINUOUS
 62
     7
100
AcDbLine
 10
535.7754525964
 20
894.6360347756
 30
0.0
 11
535.7754525964
 21
864.6360335835
 31
0.0
  0
LINE
  5
113
330
1F
100
AcDbEntity
  8
0
  6
CONTINUOUS
 62
     7
100
AcDbLine
 10
542.8199616497
 20
894.6360347756
 30
0.0
 11
535.7754525964
 21
894.6360347756
 31
0.0
  0
LINE
  5
114
330
1F
100
AcDbEntity
  8
0
  6
CONTINUOUS
 62
     7
100
AcDbLine
 10
542.8199616497
 20
864.6360335835
 30
0.0
 11
535.7754525964
 21
864.6360335835
 31
0.0
  0
LINE
  5
115
330
1F
100
AcDbEntity
  8
0
  6
CONTINUOUS
 62
     7
100
AcDbLine
 10
535.7754525964
 20
664.6360306033
 30
0.0
 11
535.7754525964
 21
694.6360317954
 31
0.0
  0
LINE
  5
116
330
1F
100
AcDbEntity
  8
0
  6
CONTINUOUS
 62
     7
100
AcDbLine
 10
542.8199616497
 20
694.6360317954
 30
0.0
 11
535.7754525964
 21
694.6360317954
 31
0.0
  0
LINE
  5
117
330
1F
100
AcDbEntity
  8
0
  6
CONTINUOUS
 62
     7
100
AcDbLine
 10
542.8199616497
 20
664.6360306033
 30
0.0
 11
535.7754525964
 21
664.6360306033
 31
0.0
  0
LINE
  5
118
330
1F
100
AcDbEntity
  8
0
  6
CONTINUOUS
 62
     7
100
AcDbLine
 10
348.0806204099
 20
628.9860380777
 30
0.0
 11
348.0806204099
 21
622.8514237293
 31
0.0
  0
LINE
  5
119
330
1F
100
AcDbEntity
  8
0
  6
CONTINUOUS
 62
     7
100
AcDbLine
 10
348.0806204099
 20
936.4206416496
 30
0.0
 11
348.0806204099
 21
930.2860273012
 31
0.0
  0
LINE
  5
11A
330
1F
100
AcDbEntity
  8
0
  6
CONTINUOUS
 62
     7
100
AcDbLine
 10
369.5819908827
 20
664.4360346683
 30
0.0
 11
369.5819908827
 21
694.8360351809
 31
0.0
  0
LINE
  5
11B
330
1F
100
AcDbEntity
  8
0
  6
CONTINUOUS
 62
     7
100
AcDbLine
 10
369.5819908827
 20
864.436030198
 30
0.0
 11
369.5819908827
 21
894.8360307106
 31
0.0
  0
LINE
  5
11C
330
1F
100
AcDbEntity
  8
0
  6
CONTINUOUS
 62
     7
100
AcDbLine
 10
348.0606211889
 20
930.2860273012
 30
0.0
 11
348.0606211889
 21
628.9860380777
 31
0.0
  0
LINE
  5
11D
330
1F
100
AcDbEntity
  8
0
  6
CONTINUOUS
 62
     7
100
AcDbLine
 10
348.6112004686
 20
942.0300496706
 30
0.0
 11
348.0841948259
 21
937.015913237
 31
0.0
  0
LINE
  5
11E
330
1F
100
AcDbEntity
  8
0
  6
CONTINUOUS
 62
     7
100
AcDbLine
 10
348.2783234287
 20
620.4091383108
 30
0.0
 11
348.6112004686
 21
617.2420157083
 31
0.0
  0
LINE
  5
11F
330
1F
100
AcDbEntity
  8
0
  6
CONTINUOUS
 62
     7
100
AcDbLine
 10
345.1721149105
 20
622.1551520714
 30
0.0
 11
345.1721149105
 21
620.5176038631
 31
0.0
  0
LINE
  5
120
330
1F
100
AcDbEntity
  8
0
  6
CONTINUOUS
 62
     7
100
AcDbLine
 10
350.2954023499
 20
943.8814295419
 30
0.0
 11
348.6088349092
 21
942.0083088764
 31
0.0
  0
LINE
  5
121
330
1F
100
AcDbEntity
  8
0
  6
CONTINUOUS
 62
     7
100
AcDbLine
 10
348.6088349092
 20
617.2637565025
 30
0.0
 11
350.2954023499
 21
615.390635837
 31
0.0
  0
LINE
  5
122
330
1F
100
AcDbEntity
  8
0
  6
CONTINUOUS
 62
     7
100
AcDbLine
 10
371.9806204391
 20
623.6860377678
 30
0.0
 11
371.9806204391
 21
664.4360346683
 31
0.0
  0
LINE
  5
123
330
1F
100
AcDbEntity
  8
0
  6
CONTINUOUS
 62
     7
100
AcDbLine
 10
358.5233113337
 20
664.4360346683
 30
0.0
 11
358.5233113337
 21
623.2160998472
 31
0.0
  0
LINE
  5
124
330
1F
100
AcDbEntity
  8
0
  6
CONTINUOUS
 62
     7
100
AcDbLine
 10
371.9806204391
 20
664.4360346683
 30
0.0
 11
358.5233113337
 21
664.4360346683
 31
0.0
  0
LINE
  5
125
330
1F
100
AcDbEntity
  8
0
  6
CONTINUOUS
 62
     7
100
AcDbLine
 10
371.9806204391
 20
623.6860377678
 30
0.0
 11
358.5233113337
 21
623.2160998472
 31
0.0
  0
LINE
  5
126
330
1F
100
AcDbEntity
  8
0
  6
CONTINUOUS
 62
     7
100
AcDbLine
 10
358.5233113337
 20
936.0559655317
 30
0.0
 11
358.5233113337
 21
894.8360307106
 31
0.0
  0
LINE
  5
127
330
1F
100
AcDbEntity
  8
0
  6
CONTINUOUS
 62
     7
100
AcDbLine
 10
371.9806204391
 20
935.5860276111
 30
0.0
 11
358.5233113337
 21
936.0559655317
 31
0.0
  0
LINE
  5
128
330
1F
100
AcDbEntity
  8
0
  6
CONTINUOUS
 62
     7
100
AcDbLine
 10
371.9806204391
 20
894.8360307106
 30
0.0
 11
371.9806204391
 21
935.5860276111
 31
0.0
  0
LINE
  5
129
330
1F
100
AcDbEntity
  8
0
  6
CONTINUOUS
 62
     7
100
AcDbLine
 10
371.9806204391
 20
894.8360307106
 30
0.0
 11
358.5233113337
 21
894.8360307106
 31
0.0
  0
LINE
  5
12A
330
1F
100
AcDbEntity
  8
0
  6
CONTINUOUS
 62
     7
100
AcDbLine
 10
358.5233113337
 20
864.436030198
 30
0.0
 11
358.5233113337
 21
694.8360351809
 31
0.0
  0
LINE
  5
12B
330
1F
100
AcDbEntity
  8
0
  6
CONTINUOUS
 62
     7
100
AcDbLine
 10
371.9806204391
 20
694.8360351809
 30
0.0
 11
358.5233113337
 21
694.8360351809
 31
0.0
  0
LINE
  5
12C
330
1F
100
AcDbEntity
  8
0
  6
CONTINUOUS
 62
     7
100
AcDbLine
 10
371.9806204391
 20
864.436030198
 30
0.0
 11
358.5233113337
 21
864.436030198
 31
0.0
  0
LINE
  5
12D
330
1F
100
AcDbEntity
  8
0
  6
CONTINUOUS
 62
     7
100
AcDbLine
 10
371.9806204391
 20
694.8360351809
 30
0.0
 11
371.9806204391
 21
864.436030198
 31
0.0
  0
LINE
  5
12E
330
1F
100
AcDbEntity
  8
0
  6
CONTINUOUS
 62
     7
100
AcDbLine
 10
356.1012002248
 20
623.1315059551
 30
0.0
 11
356.1012002248
 21
664.4360346683
 31
0.0
  0
LINE
  5
12F
330
1F
100
AcDbEntity
  8
0
  6
CONTINUOUS
 62
     7
100
AcDbLine
 10
358.5233113337
 20
664.4360346683
 30
0.0
 11
356.1012002248
 21
664.4360346683
 31
0.0
  0
LINE
  5
130
330
1F
100
AcDbEntity
  8
0
  6
CONTINUOUS
 62
     7
100
AcDbLine
 10
358.5233113337
 20
623.2160998472
 30
0.0
 11
356.1012002248
 21
623.1315059551
 31
0.0
  0
LINE
  5
131
330
1F
100
AcDbEntity
  8
0
  6
CONTINUOUS
 62
     7
100
AcDbLine
 10
356.1012002248
 20
694.8360351809
 30
0.0
 11
356.1012002248
 21
864.436030198
 31
0.0
  0
LINE
  5
132
330
1F
100
AcDbEntity
  8
0
  6
CONTINUOUS
 62
     7
100
AcDbLine
 10
358.5233113337
 20
694.8360351809
 30
0.0
 11
356.1012002248
 21
694.8360351809
 31
0.0
  0
LINE
  5
133
330
1F
100
AcDbEntity
  8
0
  6
CONTINUOUS
 62
     7
100
AcDbLine
 10
356.1012002248
 20
864.436030198
 30
0.0
 11
358.5233113337
 21
864.436030198
 31
0.0
  0
LINE
  5
134
330
1F
100
AcDbEntity
  8
0
  6
CONTINUOUS
 62
     7
100
AcDbLine
 10
356.1012002248
 20
894.8360307106
 30
0.0
 11
356.1012002248
 21
936.1405594238
 31
0.0
  0
LINE
  5
135
330
1F
100
AcDbEntity
  8
0
  6
CONTINUOUS
 62
     7
100
AcDbLine
 10
356.1012002248
 20
936.1405594238
 30
0.0
 11
358.5233113337
 21
936.0559655317
 31
0.0
  0
LINE
  5
136
330
1F
100
AcDbEntity
  8
0
  6
CONTINUOUS
 62
     7
100
AcDbLine
 10
356.1012002248
 20
894.8360307106
 30
0.0
 11
358.5233113337
 21
894.8360307106
 31
0.0
  0
LINE
  5
137
330
1F
100
AcDbEntity
  8
0
  6
CONTINUOUS
 62
     7
100
AcDbLine
 10
357.9631403628
 20
692.8360311278
 30
0.0
 11
357.9631403628
 21
666.4360312709
 31
0.0
  0
LINE
  5
138
330
1F
100
AcDbEntity
  8
0
  6
CONTINUOUS
 62
     7
100
AcDbLine
 10
362.0800424907
 20
692.8360311278
 30
0.0
 11
362.0800424907
 21
666.4360312709
 31
0.0
  0
LINE
  5
139
330
1F
100
AcDbEntity
  8
0
  6
CONTINUOUS
 62
     7
100
AcDbLine
 10
362.0800424907
 20
666.4360312709
 30
0.0
 11
357.9631403628
 21
666.4360312709
 31
0.0
  0
LINE
  5
13A
330
1F
100
AcDbEntity
  8
0
  6
CONTINUOUS
 62
     7
100
AcDbLine
 10
362.0800424907
 20
692.8360311278
 30
0.0
 11
357.9631403628
 21
692.8360311278
 31
0.0
  0
LINE
  5
13B
330
1F
100
AcDbEntity
  8
0
  6
CONTINUOUS
 62
     7
100
AcDbLine
 10
362.0800424907
 20
866.4360342511
 30
0.0
 11
362.0800424907
 21
892.836034108
 31
0.0
  0
LINE
  5
13C
330
1F
100
AcDbEntity
  8
0
  6
CONTINUOUS
 62
     7
100
AcDbLine
 10
357.9631403628
 20
866.4360342511
 30
0.0
 11
357.9631403628
 21
892.836034108
 31
0.0
  0
LINE
  5
13D
330
1F
100
AcDbEntity
  8
0
  6
CONTINUOUS
 62
     7
100
AcDbLine
 10
362.0800424907
 20
892.836034108
 30
0.0
 11
357.9631403628
 21
892.836034108
 31
0.0
  0
LINE
  5
13E
330
1F
100
AcDbEntity
  8
0
  6
CONTINUOUS
 62
     7
100
AcDbLine
 10
362.0800424907
 20
866.4360342511
 30
0.0
 11
357.9631403628
 21
866.4360342511
 31
0.0
  0
LINE
  5
13F
330
1F
100
AcDbEntity
  8
0
  6
CONTINUOUS
 62
     7
100
AcDbLine
 10
356.5210050512
 20
866.4360342511
 30
0.0
 11
356.5210050512
 21
892.836034108
 31
0.0
  0
LINE
  5
140
330
1F
100
AcDbEntity
  8
0
  6
CONTINUOUS
 62
     7
100
AcDbLine
 10
357.9631403628
 20
892.836034108
 30
0.0
 11
356.5210050512
 21
892.836034108
 31
0.0
  0
LINE
  5
141
330
1F
100
AcDbEntity
  8
0
  6
CONTINUOUS
 62
     7
100
AcDbLine
 10
357.9631403628
 20
866.4360342511
 30
0.0
 11
356.5210050512
 21
866.4360342511
 31
0.0
  0
LINE
  5
142
330
1F
100
AcDbEntity
  8
0
  6
CONTINUOUS
 62
     7
100
AcDbLine
 10
356.5210050512
 20
692.8360311278
 30
0.0
 11
356.5210050512
 21
666.4360312709
 31
0.0
  0
LINE
  5
143
330
1F
100
AcDbEntity
  8
0
  6
CONTINUOUS
 62
     7
100
AcDbLine
 10
357.9631403628
 20
666.4360312709
 30
0.0
 11
356.5210050512
 21
666.4360312709
 31
0.0
  0
LINE
  5
144
330
1F
100
AcDbEntity
  8
0
  6
CONTINUOUS
 62
     7
100
AcDbLine
 10
357.9631403628
 20
692.8360311278
 30
0.0
 11
356.5210050512
 21
692.8360311278
 31
0.0
  0
LINE
  5
145
330
1F
100
AcDbEntity
  8
0
  6
CONTINUOUS
 62
     7
100
AcDbLine
 10
355.3811202365
 20
894.8360307106
 30
0.0
 11
355.3811202365
 21
864.436030198
 31
0.0
  0
LINE
  5
146
330
1F
100
AcDbEntity
  8
0
  6
CONTINUOUS
 62
     7
100
AcDbLine
 10
355.3811202365
 20
664.4360346683
 30
0.0
 11
355.3811202365
 21
694.8360351809
 31
0.0
  0
SPLINE
  5
147
330
1F
100
AcDbEntity
  8
0
  6
CONTINUOUS
 62
     7
100
AcDbSpline
210
0.0
220
0.0
230
1.0
 70
     8
 71
     3
 72
    12
 73
     8
 74
     0
 42
0.00000001
 43
0.00000001
 40
0.0
 40
0.0
 40
0.0
 40
0.0
 40
0.2834524532254283
 40
0.5008196663043452
 40
0.7181227393459991
 40
0.9317429415513983
 40
1.0
 40
1.0
 40
1.0
 40
1.0
 10
354.8651638049107
 20
930.2860273011904
 30
0.0
 10
354.9032428061049
 20
930.2265914087644
 30
0.0
 10
354.9705229176517
 20
930.1215767459082
 30
0.0
 10
355.0501905516066
 20
929.3808179955681
 30
0.0
 10
355.1014118592745
 20
928.4894707540392
 30
0.0
 10
355.1206072126366
 20
927.6694596419139
 30
0.0
 10
355.1218561192285
 20
927.1997691010589
 30
0.0
 10
355.1221585440855
 20
927.086032737134
 30
0.0
  0
SPLINE
  5
148
330
1F
100
AcDbEntity
  8
0
  6
CONTINUOUS
 62
     7
100
AcDbSpline
210
0.0
220
0.0
230
1.0
 70
     8
 71
     3
 72
    12
 73
     8
 74
     0
 42
0.00000001
 43
0.00000001
 40
0.0
 40
0.0
 40
0.0
 40
0.0
 40
0.2853351343733933
 40
0.502883427171482
 40
0.7203835955940285
 40
0.9340122543222503
 40
1.0
 40
1.0
 40
1.0
 40
1.0
 10
355.1221585440855
 20
632.1860326417665
 30
0.0
 10
355.117267918391
 20
631.705463760256
 30
0.0
 10
355.1086485290693
 20
630.8584943652784
 30
0.0
 10
355.0483210610104
 20
629.8681396488681
 30
0.0
 10
354.9763984337159
 20
629.2370255193927
 30
0.0
 10
354.911008768957
 20
629.0043894999823
 30
0.0
 10
354.873917188883
 20
628.9895419968194
 30
0.0
 10
354.8651638049107
 20
628.9860380777102
 30
0.0
  0
LINE
  5
149
330
1F
100
AcDbEntity
  8
0
  6
CONTINUOUS
 62
     7
100
AcDbLine
 10
355.1221585441
 20
927.0860327371
 30
0.0
 11
355.1221585441
 21
632.1860326418
 31
0.0
  0
LWPOLYLINE
  5
14A
330
1F
100
AcDbEntity
  8
0
  6
CONTINUOUS
 62
     7
100
AcDbPolyline
 90
        4
 70
   128
 43
0.0
 10
356.1012002248
 20
936.1405594238
 10
351.6428510267
 20
936.296246756
 10
348.9685824681
 20
936.3896323332
 10
348.0806204099
 20
936.4206416496
  0
LINE
  5
14B
330
1F
100
AcDbEntity
  8
0
  6
CONTINUOUS
 62
     7
100
AcDbLine
 10
356.1012002248
 20
894.8360307106
 30
0.0
 11
355.3811202365
 21
894.8360307106
 31
0.0
  0
LINE
  5
14C
330
1F
100
AcDbEntity
  8
0
  6
CONTINUOUS
 62
     7
100
AcDbLine
 10
356.1012002248
 20
694.8360351809
 30
0.0
 11
355.3811202365
 21
694.8360351809
 31
0.0
  0
LINE
  5
14D
330
1F
100
AcDbEntity
  8
0
  6
CONTINUOUS
 62
     7
100
AcDbLine
 10
356.1012002248
 20
864.436030198
 30
0.0
 11
355.3811202365
 21
864.436030198
 31
0.0
  0
LINE
  5
14E
330
1F
100
AcDbEntity
  8
0
  6
CONTINUOUS
 62
     7
100
AcDbLine
 10
356.1012002248
 20
664.4360346683
 30
0.0
 11
355.3811202365
 21
664.4360346683
 31
0.0
  0
LWPOLYLINE
  5
14F
330
1F
100
AcDbEntity
  8
0
  6
CONTINUOUS
 62
     7
100
AcDbPolyline
 90
        4
 70
   128
 43
0.0
 10
356.1012002248
 20
623.1315059551
 10
351.6428510267
 20
622.9758186229
 10
348.9685824681
 20
622.8824330457
 10
348.0806204099
 20
622.8514237293
  0
LINE
  5
150
330
1F
100
AcDbEntity
  8
0
  6
CONTINUOUS
 62
     7
100
AcDbLine
 10
359.4187565688
 20
866.4360342511
 30
0.0
 11
359.4187565688
 21
864.436030198
 31
0.0
  0
LINE
  5
151
330
1F
100
AcDbEntity
  8
0
  6
CONTINUOUS
 62
     7
100
AcDbLine
 10
359.4187565688
 20
894.8360307106
 30
0.0
 11
359.4187565688
 21
892.836034108
 31
0.0
  0
LINE
  5
152
330
1F
100
AcDbEntity
  8
0
  6
CONTINUOUS
 62
     7
100
AcDbLine
 10
359.4187565688
 20
666.4360312709
 30
0.0
 11
359.4187565688
 21
664.4360346683
 31
0.0
  0
LINE
  5
153
330
1F
100
AcDbEntity
  8
0
  6
CONTINUOUS
 62
     7
100
AcDbLine
 10
359.4187565688
 20
694.8360351809
 30
0.0
 11
359.4187565688
 21
692.8360311278
 31
0.0
  0
LINE
  5
154
330
1F
100
AcDbEntity
  8
0
  6
CONTINUOUS
 62
     7
100
AcDbLine
 10
354.845101254
 20
628.9860380777
 30
0.0
 11
354.8651638049
 21
628.9860380777
 31
0.0
  0
SPLINE
  5
155
330
1F
100
AcDbEntity
  8
0
  6
CONTINUOUS
 62
     7
100
AcDbSpline
210
0.0
220
0.0
230
1.0
 70
     8
 71
     3
 72
    11
 73
     7
 74
     0
 42
0.00000001
 43
0.00000001
 40
0.0
 40
0.0
 40
0.0
 40
0.0
 40
0.2480806708614667
 40
0.4985991590056015
 40
0.7490821118366366
 40
1.0
 40
1.0
 40
1.0
 40
1.0
 10
355.1020922678928
 20
632.1860326417665
 30
0.0
 10
355.0983933595788
 20
631.769351491185
 30
0.0
 10
355.0909591948442
 20
630.9318945843974
 30
0.0
 10
355.0308392103756
 20
629.8775517298251
 30
0.0
 10
354.9457963335265
 20
629.1308280271128
 30
0.0
 10
354.8786856853429
 20
629.0343292964759
 30
0.0
 10
354.8451012540083
 20
628.9860380777102
 30
0.0
  0
LINE
  5
156
330
1F
100
AcDbEntity
  8
0
  6
CONTINUOUS
 62
     7
100
AcDbLine
 10
355.1020922679
 20
632.1860326418
 30
0.0
 11
355.1221585441
 21
632.1860326418
 31
0.0
  0
LINE
  5
157
330
1F
100
AcDbEntity
  8
0
  6
CONTINUOUS
 62
     7
100
AcDbLine
 10
355.1020922679
 20
927.0860327371
 30
0.0
 11
355.1221585441
 21
927.0860327371
 31
0.0
  0
SPLINE
  5
158
330
1F
100
AcDbEntity
  8
0
  6
CONTINUOUS
 62
     7
100
AcDbSpline
210
0.0
220
0.0
230
1.0
 70
     8
 71
     3
 72
    11
 73
     7
 74
     0
 42
0.00000001
 43
0.00000001
 40
0.0
 40
0.0
 40
0.0
 40
0.0
 40
0.2481528999566261
 40
0.4986642700616415
 40
0.7491088339024005
 40
1.0
 40
1.0
 40
1.0
 40
1.0
 10
354.8451012540083
 20
930.2860273011904
 30
0.0
 10
354.878338013426
 20
930.2404180050497
 30
0.0
 10
354.9451274177695
 20
930.1487659374252
 30
0.0
 10
355.0299745339128
 20
929.4052123316765
 30
0.0
 10
355.0903462148614
 20
928.3486055859379
 30
0.0
 10
355.0981745923116
 20
927.5071402194493
 30
0.0
 10
355.1020922678928
 20
927.086032737134
 30
0.0
  0
LINE
  5
159
330
1F
100
AcDbEntity
  8
0
  6
CONTINUOUS
 62
     7
100
AcDbLine
 10
354.845101254
 20
930.2860273012
 30
0.0
 11
354.8651638049
 21
930.2860273012
 31
0.0
  0
LINE
  5
15A
330
1F
100
AcDbEntity
  8
0
  6
CONTINUOUS
 62
     7
100
AcDbLine
 10
355.1020922679
 20
927.0860327371
 30
0.0
 11
355.1020922679
 21
632.1860326418
 31
0.0
  0
LINE
  5
15B
330
1F
100
AcDbEntity
  8
0
  6
CONTINUOUS
 62
     7
100
AcDbLine
 10
348.0606211889
 20
628.9860380777
 30
0.0
 11
354.4866798985
 21
628.9860380777
 31
0.0
  0
LINE
  5
15C
330
1F
100
AcDbEntity
  8
0
  6
CONTINUOUS
 62
     7
100
AcDbLine
 10
348.0606211889
 20
930.2860273012
 30
0.0
 11
354.4866798985
 21
930.2860273012
 31
0.0
  0
LINE
  5
15D
330
1F
100
AcDbEntity
  8
0
  6
CONTINUOUS
 62
     7
100
AcDbLine
 10
373.2806204427
 20
936.1360294708
 30
0.0
 11
373.2806204427
 21
937.0860381016
 31
0.0
  0
LINE
  5
15E
330
1F
100
AcDbEntity
  8
0
  6
CONTINUOUS
 62
     7
100
AcDbLine
 10
356.9460550863
 20
936.7064459213
 30
0.0
 11
373.2806204427
 21
936.1360294708
 31
0.0
  0
LINE
  5
15F
330
1F
100
AcDbEntity
  8
0
  6
CONTINUOUS
 62
     7
100
AcDbLine
 10
356.9862342048
 20
937.0860381016
 30
0.0
 11
356.9460550863
 21
936.7064459213
 31
0.0
  0
LINE
  5
160
330
1F
100
AcDbEntity
  8
0
  6
CONTINUOUS
 62
     7
100
AcDbLine
 10
356.9898663628
 20
937.0860381016
 30
0.0
 11
373.2806204427
 21
937.0860381016
 31
0.0
  0
LINE
  5
161
330
1F
100
AcDbEntity
  8
0
  6
CONTINUOUS
 62
     7
100
AcDbLine
 10
373.2806204427
 20
937.0860381016
 30
0.0
 11
373.2806204427
 21
945.0860394129
 31
0.0
  0
SPLINE
  5
162
330
1F
100
AcDbEntity
  8
0
  6
CONTINUOUS
 62
     7
100
AcDbSpline
210
0.0
220
0.0
230
1.0
 70
     8
 71
     3
 72
    39
 73
    35
 74
     0
 42
0.00000001
 43
0.00000001
 40
0.0
 40
0.0
 40
0.0
 40
0.0
 40
0.024457558518091
 40
0.0488495954656169
 40
0.0731761774770477
 40
0.0974373742944158
 40
0.1216332587911096
 40
0.1457639069958217
 40
0.1698293981166162
 40
0.1938298145651546
 40
0.2177652419810382
 40
0.2416357692562932
 40
0.2654414885599721
 40
0.2891824953629013
 40
0.3128588884625216
 40
0.3364707700078748
 40
0.3600182455246867
 40
0.3835014239405716
 40
0.4069204176103316
 40
0.4302753423413749
 40
0.4535663174192214
 40
0.4767934656330963
 40
0.4999569133016317
 40
0.542376136041199
 40
0.585402208668887
 40
0.6290356722006174
 40
0.6732769585479791
 40
0.7181263942651381
 40
0.7635842040649212
 40
0.8096505141201089
 40
0.856325355164643
 40
0.9036086654085205
 40
0.9515002932790101
 40
1.0
 40
1.0
 40
1.0
 40
1.0
 10
357.133858019342
 20
944.2398167282337
 30
0.0
 10
357.1387675668335
 20
944.2390587895627
 30
0.0
 10
357.1485735091846
 20
944.2375449427312
 30
0.0
 10
357.162181952764
 20
944.221892713103
 30
0.0
 10
357.1749585997021
 20
944.1965603877742
 30
0.0
 10
357.1868264798458
 20
944.1607064811759
 30
0.0
 10
357.1978061340848
 20
944.1147196404397
 30
0.0
 10
357.2078920805153
 20
944.0586782240911
 30
0.0
 10
357.2170857818907
 20
943.9927607847993
 30
0.0
 10
357.225386847661
 20
943.9171358977901
 30
0.0
 10
357.2327953818537
 20
943.8319909190689
 30
0.0
 10
357.2393113565037
 20
943.737523653546
 30
0.0
 10
357.2449347788737
 20
943.6339439083793
 30
0.0
 10
357.2496656467845
 20
943.5214723968795
 30
0.0
 10
357.2535039607026
 20
943.4003403402785
 30
0.0
 10
357.256449719893
 20
943.2707888729237
 30
0.0
 10
357.2585029257563
 20
943.1330685010803
 30
0.0
 10
357.2596635723498
 20
942.9874385128792
 30
0.0
 10
357.2599316808374
 20
942.834166506323
 30
0.0
 10
357.2593071716548
 20
942.6735274787782
 30
0.0
 10
357.2577903395854
 20
942.5058045361385
 30
0.0
 10
357.255380088041
 20
942.3312835811212
 30
0.0
 10
357.2511631567669
 20
942.0999461229957
 30
0.0
 10
357.2439764950127
 20
941.8020842768495
 30
0.0
 10
357.2324011749188
 20
941.4266748075206
 30
0.0
 10
357.2176776499808
 20
941.0257060931965
 30
0.0
 10
357.1998042215831
 20
940.600295140801
 30
0.0
 10
357.1787810711312
 20
940.1517917941032
 30
0.0
 10
357.1546091540371
 20
939.681799858657
 30
0.0
 10
357.1272843082758
 20
939.1921795532526
 30
0.0
 10
357.0968224471213
 20
938.6850483388283
 30
0.0
 10
357.0631629181494
 20
938.1627949269133
 30
0.0
 10
357.0265364390471
 20
937.6280268144772
 30
0.0
 10
356.9997247998261
 20
937.2674556116004
 30
0.0
 10
356.9862344104208
 20
937.0860326894502
 30
0.0
  0
LINE
  5
163
330
1F
100
AcDbEntity
  8
0
  6
CONTINUOUS
 62
     7
100
AcDbLine
 10
357.1338581461
 20
944.2398173698
 30
0.0
 11
373.2806204427
 21
945.0860394129
 31
0.0
  0
LINE
  5
164
330
1F
100
AcDbEntity
  8
0
  6
CONTINUOUS
 62
     7
100
AcDbLine
 10
347.0675388891
 20
622.1860272773
 30
0.0
 11
373.2806204427
 21
622.1860272773
 31
0.0
  0
LINE
  5
165
330
1F
100
AcDbEntity
  8
0
  6
CONTINUOUS
 62
     7
100
AcDbLine
 10
347.0675388891
 20
622.1860272773
 30
0.0
 11
347.0675388891
 21
622.220657576
 31
0.0
  0
LINE
  5
166
330
1F
100
AcDbEntity
  8
0
  6
CONTINUOUS
 62
     7
100
AcDbLine
 10
347.0675388891
 20
622.220657576
 30
0.0
 11
373.2806204427
 21
623.1360359081
 31
0.0
  0
LINE
  5
167
330
1F
100
AcDbEntity
  8
0
  6
CONTINUOUS
 62
     7
100
AcDbLine
 10
373.2806204427
 20
622.1860272773
 30
0.0
 11
373.2806204427
 21
623.1360359081
 31
0.0
  0
ELLIPSE
  5
168
330
1F
100
AcDbEntity
  8
0
  6
CONTINUOUS
 62
     7
100
AcDbEllipse
 10
340.7749256786
 20
622.1860326895
 30
0.0
 11
6.292613096924697
 21
0.0
 31
0.0
210
0.0
220
0.0
230
1.0
 40
0.9992361507
 41
6.005086930880298
 42
6.283185307179586
  0
LINE
  5
169
330
1F
100
AcDbEntity
  8
0
  6
CONTINUOUS
 62
     7
100
AcDbLine
 10
357.1315205264
 20
615.0323672184
 30
0.0
 11
373.2806204427
 21
614.186025966
 31
0.0
  0
SPLINE
  5
16A
330
1F
100
AcDbEntity
  8
0
  6
CONTINUOUS
 62
     7
100
AcDbSpline
210
0.0
220
0.0
230
1.0
 70
     8
 71
     3
 72
    42
 73
    38
 74
     0
 42
0.00000001
 43
0.00000001
 40
0.0
 40
0.0
 40
0.0
 40
0.0
 40
0.0285779424654376
 40
0.0571542666678515
 40
0.0857290851244866
 40
0.1143025103121536
 40
0.1428746546689992
 40
0.1714456305962496
 40
0.2000155504599793
 40
0.2285845265928534
 40
0.2571526712958808
 40
0.2857200968402029
 40
0.3142869154688339
 40
0.342853239398428
 40
0.3714191808210524
 40
0.3999848519059507
 40
0.4285503648013034
 40
0.4571158316360194
 40
0.4856813645214764
 40
0.5142470755533269
 40
0.5428130768132389
 40
0.5713794803706899
 40
0.5999463982847358
 40
0.6285139426057835
 40
0.6570822253773652
 40
0.6856513586379194
 40
0.7142214544225632
 40
0.742792624764864
 40
0.7713649816986266
 40
0.799938637259658
 40
0.8285137034875504
 40
0.8570902924274484
 40
0.8856685161318419
 40
0.9142484866623154
 40
0.9428303160913423
 40
0.9714141165040521
 40
1.0
 40
1.0
 40
1.0
 40
1.0
 10
357.1262626564395
 20
620.1001628154495
 30
0.0
 10
357.1310436325788
 20
620.017283498593
 30
0.0
 10
357.1406053141283
 20
619.8515295580287
 30
0.0
 10
357.1539078489897
 20
619.6066752811789
 30
0.0
 10
357.1664484915937
 20
619.3650148381231
 30
0.0
 10
357.1781526188929
 20
619.1271203688593
 30
0.0
 10
357.1890402245321
 20
618.8932464214489
 30
0.0
 10
357.199105951613
 20
618.6637258982946
 30
0.0
 10
357.2083512354199
 20
618.4388634203916
 30
0.0
 10
357.2167756913935
 20
618.218963358076
 30
0.0
 10
357.2243794225718
 20
618.004321791115
 30
0.0
 10
357.2311624013483
 20
617.7952281447278
 30
0.0
 10
357.2371246351211
 20
617.5919642452401
 30
0.0
 10
357.2422661219089
 20
617.3948040799607
 30
0.0
 10
357.2465868622438
 20
617.2040133819118
 30
0.0
 10
357.2500868559841
 20
617.0198492756937
 30
0.0
 10
357.2527661031689
 20
616.8425599218278
 30
0.0
 10
357.2546246037887
 20
616.6723841769929
 30
0.0
 10
357.255662357847
 20
616.5095512660948
 30
0.0
 10
357.2558793653437
 20
616.3542804678418
 30
0.0
 10
357.2552756262795
 20
616.2067808139442
 30
0.0
 10
357.2538511406559
 20
616.0672508024226
 30
0.0
 10
357.2516059084706
 20
615.9358781254826
 30
0.0
 10
357.2485399297346
 20
615.8128394120394
 30
0.0
 10
357.2446532044103
 20
615.6982999863857
 30
0.0
 10
357.2399457326404
 20
615.5924136390778
 30
0.0
 10
357.2344175138948
 20
615.4953224263056
 30
0.0
 10
357.2280685501547
 20
615.4071564384649
 30
0.0
 10
357.2208988340273
 20
615.3280337605875
 30
0.0
 10
357.212908393108
 20
615.258059794858
 30
0.0
 10
357.2040971244035
 20
615.1973290433302
 30
0.0
 10
357.1944654123224
 20
615.1459177887122
 30
0.0
 10
357.1840118221135
 20
615.1039108280273
 30
0.0
 10
357.1727417088232
 20
615.0713011903564
 30
0.0
 10
357.1606350852364
 20
615.0483640108034
 30
0.0
 10
357.1477665522301
 20
615.0342607396482
 30
0.0
 10
357.1384943111448
 20
615.0329193632041
 30
0.0
 10
357.1338580216766
 20
615.0322486505444
 30
0.0
  0
SPLINE
  5
16B
330
1F
100
AcDbEntity
  8
0
  6
CONTINUOUS
 62
     7
100
AcDbSpline
210
0.0
220
0.0
230
1.0
 70
    24
 71
     3
 72
     8
 73
     4
 74
     0
 42
0.00000001
 43
0.00000001
 40
0.0
 40
0.0
 40
0.0
 40
0.0
 40
1.0
 40
1.0
 40
1.0
 40
1.0
 10
357.1262624954803
 20
620.1001552996105
 30
0.0
 10
353.6927107045984
 20
620.2200575702379
 30
0.0
 10
350.2592098381504
 20
620.3399580625448
 30
0.0
 10
346.8257717021281
 20
620.459856364257
 30
0.0
  0
LINE
  5
16C
330
1F
100
AcDbEntity
  8
0
  6
CONTINUOUS
 62
     7
100
AcDbLine
 10
373.2806204427
 20
614.186025966
 30
0.0
 11
373.2806204427
 21
622.1860272773
 31
0.0
  0
SPLINE
  5
16D
330
1F
100
AcDbEntity
  8
0
  6
CONTINUOUS
 62
     7
100
AcDbSpline
210
0.0
220
0.0
230
1.0
 70
     8
 71
     3
 72
    25
 73
    21
 74
     0
 42
0.00000001
 43
0.00000001
 40
0.0
 40
0.0
 40
0.0
 40
0.0
 40
0.0278314503475971
 40
0.0555340244599188
 40
0.0831636055917767
 40
0.1107765164789408
 40
0.1384291780786453
 40
0.166177765296191
 40
0.1940778701134936
 40
0.2221841820217215
 40
0.2505501944812842
 40
0.3758752501556574
 40
0.5001556200876465
 40
0.6243550562168417
 40
0.7499206230658152
 40
0.8007690510117279
 40
0.8508771286685158
 40
0.9005654905598719
 40
0.9501629183589607
 40
1.0
 40
1.0
 40
1.0
 40
1.0
 10
355.3050475400174
 20
937.2746545595992
 30
0.0
 10
355.3128223132136
 20
937.3485815775133
 30
0.0
 10
355.3283358577632
 20
937.4960932871014
 30
0.0
 10
355.3505725789811
 20
937.7167783509068
 30
0.0
 10
355.3719581115276
 20
937.9361589913165
 30
0.0
 10
355.3924253335915
 20
938.1542483454596
 30
0.0
 10
355.4119923213148
 20
938.3710391206987
 30
0.0
 10
355.4306546246655
 20
938.5865311337812
 30
0.0
 10
355.4484139435962
 20
938.8007169245277
 30
0.0
 10
355.4652710009225
 20
939.013612639463
 30
0.0
 10
355.4993338743474
 20
939.4652458851863
 30
0.0
 10
355.5420972854654
 20
940.126036711753
 30
0.0
 10
355.5748188916638
 20
940.9025230945066
 30
0.0
 10
355.5824553070474
 20
941.5411897010677
 30
0.0
 10
355.5674323474476
 20
941.917839893715
 30
0.0
 10
355.5462867889256
 20
942.127504929618
 30
0.0
 10
355.5283909305675
 20
942.2370980949381
 30
0.0
 10
355.5067900564253
 20
942.3138487587751
 30
0.0
 10
355.4817814549388
 20
942.3606538830609
 30
0.0
 10
355.4621974674992
 20
942.3646786139379
 30
0.0
 10
355.4523818734325
 20
942.3666958295147
 30
0.0
  0
LINE
  5
16E
330
1F
100
AcDbEntity
  8
0
  6
CONTINUOUS
 62
     7
100
AcDbLine
 10
355.4523813147
 20
942.3666967043
 30
0.0
 11
357.1338581461
 21
944.2398173698
 31
0.0
  0
LINE
  5
16F
330
1F
100
AcDbEntity
  8
0
  6
CONTINUOUS
 62
     7
100
AcDbLine
 10
355.305047946
 20
937.2746569999
 30
0.0
 11
356.9862342048
 21
937.0860381016
 31
0.0
  0
LINE
  5
170
330
1F
100
AcDbEntity
  8
0
  6
CONTINUOUS
 62
     7
100
AcDbLine
 10
355.2511672098
 20
936.7656333336
 30
0.0
 11
355.305047946
 21
937.2746569999
 31
0.0
  0
LINE
  5
171
330
1F
100
AcDbEntity
  8
0
  6
CONTINUOUS
 62
     7
100
AcDbLine
 10
356.9460550863
 20
936.7064459213
 30
0.0
 11
355.2511672098
 21
936.7656333336
 31
0.0
  0
LINE
  5
172
330
1F
100
AcDbEntity
  8
0
  6
CONTINUOUS
 62
     7
100
AcDbLine
 10
357.1338581461
 20
615.0322480091
 30
0.0
 11
355.4523813147
 21
616.9053686746
 31
0.0
  0
SPLINE
  5
173
330
1F
100
AcDbEntity
  8
0
  6
CONTINUOUS
 62
     7
100
AcDbSpline
210
0.0
220
0.0
230
1.0
 70
     8
 71
     3
 72
    27
 73
    23
 74
     0
 42
0.00000001
 43
0.00000001
 40
0.0
 40
0.0
 40
0.0
 40
0.0
 40
0.039278712193693
 40
0.0781128131065372
 40
0.116584347733108
 40
0.1547776955389965
 40
0.1927790870218196
 40
0.2306760609789168
 40
0.2685568781077963
 40
0.3065099098829756
 40
0.3446230235725119
 40
0.3829829845907552
 40
0.4216748959913624
 40
0.4607816920615713
 40
0.5003836990150684
 40
0.572799016724113
 40
0.6439462350747781
 40
0.7143688747480492
 40
0.7846272727274841
 40
0.8552856774827646
 40
0.9268988925761996
 40
1.0
 40
1.0
 40
1.0
 40
1.0
 10
355.4523818757227
 20
616.9053695492632
 30
0.0
 10
355.458372368312
 20
616.9059077039971
 30
0.0
 10
355.4702855447354
 20
616.9069779218785
 30
0.0
 10
355.4866427173401
 20
616.9221574143252
 30
0.0
 10
355.5017365238325
 20
616.9473315509464
 30
0.0
 10
355.5154696027627
 20
616.9834433718745
 30
0.0
 10
355.5278661216288
 20
617.0302446399148
 30
0.0
 10
355.538918165998
 20
617.0878015607399
 30
0.0
 10
355.5486264484643
 20
617.1560959118426
 30
0.0
 10
355.5569894889592
 20
617.2351311832201
 30
0.0
 10
355.564006579029
 20
617.324903787313
 30
0.0
 10
355.569676724336
 20
617.4254129876995
 30
0.0
 10
355.5739999226888
 20
617.5366504710512
 30
0.0
 10
355.5769730193688
 20
617.6586333426657
 30
0.0
 10
355.5790478156651
 20
617.827255298805
 30
0.0
 10
355.5785728043492
 20
618.0509102111467
 30
0.0
 10
355.5731700290025
 20
618.341360600031
 30
0.0
 10
355.5629242974354
 20
618.6562838166618
 30
0.0
 10
355.5478435256243
 20
618.9955761545531
 30
0.0
 10
355.527832302423
 20
619.3594526216361
 30
0.0
 10
355.5032297132553
 20
619.7467396978361
 30
0.0
 10
355.4831469679015
 20
620.0198502587962
 30
0.0
 10
355.4730023540171
 20
620.1578095437379
 30
0.0
  0
LINE
  5
174
330
1F
100
AcDbEntity
  8
0
  6
CONTINUOUS
 62
     7
100
AcDbLine
 10
345.5718720871
 20
622.168429006
 30
0.0
 11
345.5718720871
 21
620.5036414751
 31
0.0
  0
LINE
  5
175
330
1F
100
AcDbEntity
  8
0
  6
CONTINUOUS
 62
     7
100
AcDbLine
 10
345.5718720871
 20
620.5036414751
 30
0.0
 11
346.825771274
 21
620.4598618635
 31
0.0
  0
LINE
  5
176
330
1F
100
AcDbEntity
  8
0
  6
CONTINUOUS
 62
     7
100
AcDbLine
 10
345.5718720871
 20
622.168429006
 30
0.0
 11
347.0675388891
 21
622.220657576
 31
0.0
  0
SPLINE
  5
177
330
1F
100
AcDbEntity
  8
0
  6
CONTINUOUS
 62
     7
100
AcDbSpline
210
0.0
220
0.0
230
1.0
 70
     8
 71
     3
 72
    11
 73
     7
 74
     0
 42
0.00000001
 43
0.00000001
 40
0.0
 40
0.0
 40
0.0
 40
0.0
 40
0.2857063993399165
 40
0.5714023455391949
 40
0.8570958526950821
 40
1.0
 40
1.0
 40
1.0
 40
1.0
 10
355.4523813146572
 20
942.3666967042666
 30
0.0
 10
354.2534367675394
 20
942.3039111095366
 30
0.0
 10
351.8555915390906
 20
942.1783422172136
 30
0.0
 10
349.7298504150505
 20
942.0670030956774
 30
0.0
 10
348.6395994530285
 20
942.0099140533922
 30
0.0
 10
348.7212692208895
 20
942.0141972364711
 30
0.0
 10
348.7484997678029
 20
942.0156253465395
 30
0.0
  0
SPLINE
  5
178
330
1F
100
AcDbEntity
  8
0
  6
CONTINUOUS
 62
     7
100
AcDbSpline
210
0.0
220
0.0
230
1.0
 70
     8
 71
     3
 72
    13
 73
     9
 74
     0
 42
0.00000001
 43
0.00000001
 40
0.0
 40
0.0
 40
0.0
 40
0.0
 40
0.1449386381821239
 40
0.3549184777013165
 40
0.5186207308659048
 40
0.6823229530154802
 40
0.8411615271730029
 40
0.9999999999999999
 40
0.9999999999999999
 40
0.9999999999999999
 40
0.9999999999999999
 10
348.1517622786986
 20
937.0135588535052
 30
0.0
 10
348.1538912183493
 20
937.0134816966053
 30
0.0
 10
348.1591044591347
 20
937.0132927586532
 30
0.0
 10
348.8380781989413
 20
936.9895844751402
 30
0.0
 10
349.9440027468283
 20
936.9509609879767
 30
0.0
 10
351.3481075819774
 20
936.9019269139192
 30
0.0
 10
353.0786703497348
 20
936.8415043402846
 30
0.0
 10
354.5270017437489
 20
936.7909236637582
 30
0.0
 10
355.2511672097663
 20
936.7656333335619
 30
0.0
  0
LINE
  5
179
330
1F
100
AcDbEntity
  8
0
  6
CONTINUOUS
 62
     7
100
AcDbLine
 10
345.2207746524
 20
622.1561653503
 30
0.0
 11
345.2207746524
 21
620.5159051307
 31
0.0
  0
LINE
  5
17A
330
1F
100
AcDbEntity
  8
0
  6
CONTINUOUS
 62
     7
100
AcDbLine
 10
345.2207746524
 20
620.5159051307
 30
0.0
 11
345.5718720871
 21
620.5036414751
 31
0.0
  0
LINE
  5
17B
330
1F
100
AcDbEntity
  8
0
  6
CONTINUOUS
 62
     7
100
AcDbLine
 10
345.2207746524
 20
622.1561653503
 30
0.0
 11
345.5718720871
 21
622.168429006
 31
0.0
  0
SPLINE
  5
17C
330
1F
100
AcDbEntity
  8
0
  6
CONTINUOUS
 62
     7
100
AcDbSpline
210
0.0
220
0.0
230
1.0
 70
     8
 71
     3
 72
    11
 73
     7
 74
     0
 42
0.00000001
 43
0.00000001
 40
0.0
 40
0.0
 40
0.0
 40
0.0
 40
0.1427946444423136
 40
0.4285063336738568
 40
0.7142388154890967
 40
1.0
 40
1.0
 40
1.0
 40
1.0
 10
348.7484997678029
 20
617.2564400323611
 30
0.0
 10
348.7212279498206
 20
617.2578716010194
 30
0.0
 10
348.6393891190868
 20
617.2621675341027
 30
0.0
 10
349.7293129765412
 20
617.2050887373906
 30
0.0
 10
351.8549917197024
 20
617.093755072857
 30
0.0
 10
354.253211300282
 20
616.9681662432326
 30
0.0
 10
355.4523813146572
 20
616.905368674634
 30
0.0
  0
LWPOLYLINE
  5
17D
330
1F
100
AcDbEntity
  8
0
  6
CONTINUOUS
 62
     7
100
AcDbPolyline
 90
        3
 70
   128
 43
0.0
 10
345.1721149105
 20
620.5176038631
 10
345.1823035795
 20
620.5172462352
 10
345.2207746524
 20
620.5159051307
  0
SPLINE
  5
17E
330
1F
100
AcDbEntity
  8
0
  6
CONTINUOUS
 62
     7
100
AcDbSpline
210
0.0
220
0.0
230
1.0
 70
     8
 71
     3
 72
    11
 73
     7
 74
     0
 42
0.00000001
 43
0.00000001
 40
0.0
 40
0.0
 40
0.0
 40
0.0
 40
0.1429933958757468
 40
0.4287089633936676
 40
0.714333137283543
 40
1.0
 40
1.0
 40
1.0
 40
1.0
 10
350.4349629003036
 20
943.8887460120897
 30
0.0
 10
350.4077287843286
 20
943.8873167963012
 30
0.0
 10
350.3260780930012
 20
943.8830318598157
 30
0.0
 10
351.4150697775137
 20
943.9401091823042
 30
0.0
 10
353.5398027292324
 20
944.0514509931197
 30
0.0
 10
355.9357799952587
 20
944.1770254497997
 30
0.0
 10
357.1338581460934
 20
944.2398173698167
 30
0.0
  0
SPLINE
  5
17F
330
1F
100
AcDbEntity
  8
0
  6
CONTINUOUS
 62
     7
100
AcDbSpline
210
0.0
220
0.0
230
1.0
 70
     8
 71
     3
 72
    11
 73
     7
 74
     0
 42
0.00000001
 43
0.00000001
 40
0.0
 40
0.0
 40
0.0
 40
0.0
 40
0.2856972743008435
 40
0.5713546404582438
 40
0.8571062825251701
 40
1.0
 40
1.0
 40
1.0
 40
1.0
 10
357.1338581460934
 20
615.0322480090838
 30
0.0
 10
355.9356585156938
 20
615.0950466614796
 30
0.0
 10
353.5394266275895
 20
615.2206351941273
 30
0.0
 10
351.4146915858189
 20
615.3319661495113
 30
0.0
 10
350.3259232742805
 20
615.3890517852955
 30
0.0
 10
350.4077012866343
 20
615.3847525611808
 30
0.0
 10
350.4349629003036
 20
615.3833193668108
 30
0.0
  0
LINE
  5
180
330
1F
100
AcDbEntity
  8
0
  6
CONTINUOUS
 62
     7
100
AcDbLine
 10
370.1455271877
 20
894.6360347756
 30
0.0
 11
369.5819908827
 21
894.6360347756
 31
0.0
  0
LINE
  5
181
330
1F
100
AcDbEntity
  8
0
  6
CONTINUOUS
 62
     7
100
AcDbLine
 10
370.1455271877
 20
864.6360335835
 30
0.0
 11
369.5819908827
 21
864.6360335835
 31
0.0
  0
LINE
  5
182
330
1F
100
AcDbEntity
  8
0
  6
CONTINUOUS
 62
     7
100
AcDbLine
 10
370.1455271877
 20
864.6360335835
 30
0.0
 11
370.1455271877
 21
894.6360347756
 31
0.0
  0
LINE
  5
183
330
1F
100
AcDbEntity
  8
0
  6
CONTINUOUS
 62
     7
100
AcDbLine
 10
363.2806206662
 20
936.4852381834
 30
0.0
 11
363.2806206662
 21
935.8898473867
 31
0.0
  0
LINE
  5
184
330
1F
100
AcDbEntity
  8
0
  6
CONTINUOUS
 62
     7
100
AcDbLine
 10
363.2806206662
 20
623.3822179922
 30
0.0
 11
363.2806206662
 21
622.7868271955
 31
0.0
  0
LINE
  5
185
330
1F
100
AcDbEntity
  8
0
  6
CONTINUOUS
 62
     7
100
AcDbLine
 10
370.1455271877
 20
664.6360306033
 30
0.0
 11
369.5819908827
 21
664.6360306033
 31
0.0
  0
LINE
  5
186
330
1F
100
AcDbEntity
  8
0
  6
CONTINUOUS
 62
     7
100
AcDbLine
 10
370.1455271877
 20
694.6360317954
 30
0.0
 11
370.1455271877
 21
664.6360306033
 31
0.0
  0
LINE
  5
187
330
1F
100
AcDbEntity
  8
0
  6
CONTINUOUS
 62
     7
100
AcDbLine
 10
370.1455271877
 20
694.6360317954
 30
0.0
 11
369.5819908827
 21
694.6360317954
 31
0.0
  0
LINE
  5
188
330
1F
100
AcDbEntity
  8
0
  6
CONTINUOUS
 62
     7
100
AcDbLine
 10
373.2806204427
 20
623.1360359081
 30
0.0
 11
373.2806204427
 21
936.1360294708
 31
0.0
  0
LINE
  5
189
330
1F
100
AcDbEntity
  8
0
  6
CONTINUOUS
 62
     7
100
AcDbLine
 10
368.6343270894
 20
864.436030198
 30
0.0
 11
368.6343270894
 21
894.8360307106
 31
0.0
  0
LINE
  5
18A
330
1F
100
AcDbEntity
  8
0
  6
CONTINUOUS
 62
     7
100
AcDbLine
 10
368.6343270894
 20
694.8360351809
 30
0.0
 11
368.6343270894
 21
664.4360346683
 31
0.0
  0
LINE
  5
18B
330
1F
100
AcDbEntity
  8
0
  6
CONTINUOUS
 62
     7
100
AcDbLine
 10
911.4971605365
 20
1063.7889496366
 30
0.0
 11
911.4758965795
 21
1063.8080901781
 31
0.0
  0
LINE
  5
18C
330
1F
100
AcDbEntity
  8
0
  6
CONTINUOUS
 62
     7
100
AcDbLine
 10
912.2024175947
 20
1050.3316405311
 30
0.0
 11
911.4971605365
 21
1063.7889496366
 31
0.0
  0
LINE
  5
18D
330
1F
100
AcDbEntity
  8
0
  6
CONTINUOUS
 62
     7
100
AcDbLine
 10
912.1821669166
 20
1050.3316405311
 30
0.0
 11
912.2024175947
 21
1050.3316405311
 31
0.0
  0
LINE
  5
18E
330
1F
100
AcDbEntity
  8
0
  6
CONTINUOUS
 62
     7
100
AcDbLine
 10
535.9045264547
 20
1063.423064662
 30
0.0
 11
535.887449724
 21
1063.4026957059
 31
0.0
  0
ARC
  5
18F
330
1F
100
AcDbEntity
  8
0
  6
CONTINUOUS
 62
     7
100
AcDbCircle
 10
723.702424532
 20
-1065.7683594724
 30
0.0
 40
2140.0
100
AcDbArc
 50
86.1214097499
 51
93.4320100028
  0
ARC
  5
190
330
1F
100
AcDbEntity
  8
0
  6
CONTINUOUS
 62
     7
100
AcDbCircle
 10
723.702424532
 20
-1065.7683594724
 30
0.0
 40
2140.02
100
AcDbArc
 50
90.2691620722
 51
93.6058533333
  0
ARC
  5
191
330
1F
100
AcDbEntity
  8
0
  6
CONTINUOUS
 62
     7
100
AcDbCircle
 10
723.702424532
 20
-1065.7683594724
 30
0.0
 40
2140.02
100
AcDbArc
 50
86.5914539162
 51
88.6991150622
  0
LINE
  5
192
330
1F
100
AcDbEntity
  8
0
  6
CONTINUOUS
 62
     7
100
AcDbLine
 10
535.1503041809
 20
1049.0316405276
 30
0.0
 11
543.1503054922
 21
1049.0316405276
 31
0.0
  0
LINE
  5
193
330
1F
100
AcDbEntity
  8
0
  6
CONTINUOUS
 62
     7
100
AcDbLine
 10
536.0040662115
 20
1065.3223946074
 30
0.0
 11
535.1503041809
 21
1049.0316405276
 31
0.0
  0
SPLINE
  5
194
330
1F
100
AcDbEntity
  8
0
  6
CONTINUOUS
 62
     7
100
AcDbSpline
210
0.0
220
0.0
230
1.0
 70
     8
 71
     3
 72
    39
 73
    35
 74
     0
 42
0.00000001
 43
0.00000001
 40
0.0
 40
0.0
 40
0.0
 40
0.0
 40
0.0244557828681348
 40
0.0488462212263652
 40
0.0731713818355343
 40
0.0974313345561546
 40
0.1216261523720997
 40
0.1457559114144416
 40
0.1698206909854093
 40
0.1938205735825011
 40
0.2177556449227125
 40
0.2416259939669032
 40
0.2654317129442863
 40
0.2891728973770455
 40
0.3128496461050616
 40
0.3364620613107636
 40
0.360010248544101
 40
0.3834943167475974
 40
0.4069143782815424
 40
0.4302705489492563
 40
0.4535629480224731
 40
0.4767916982667956
 40
0.4999569259672399
 40
0.5423761476154498
 40
0.5854022191398156
 40
0.6290356815562349
 40
0.6732769667762879
 40
0.7181264013541148
 40
0.7635842100025342
 40
0.8096505188943137
 40
0.8563253587633899
 40
0.9036086678197496
 40
0.9515002944906557
 40
1.0
 40
1.0
 40
1.0
 40
1.0
 10
543.150299603225
 20
1065.178402948532
 30
0.0
 10
543.058718234111
 20
1065.173493296034
 30
0.0
 10
542.8758001962759
 20
1065.16368710936
 30
0.0
 10
542.6021025720426
 20
1065.150078417197
 30
0.0
 10
542.3298800925288
 20
1065.13730153991
 30
0.0
 10
542.0595209183451
 20
1065.125433461341
 30
0.0
 10
541.7914141086342
 20
1065.114453636728
 30
0.0
 10
541.5259379909724
 20
1065.104367549067
 30
0.0
 10
541.2634626519672
 20
1065.095173735298
 30
0.0
 10
541.0043486918973
 20
1065.086872586056
 30
0.0
 10
540.7489470091316
 20
1065.079463997289
 30
0.0
 10
540.497598342691
 20
1065.07294799697
 30
0.0
 10
540.2506329125025
 20
1065.067324577835
 30
0.0
 10
540.0083700666387
 20
1065.062593742062
 30
0.0
 10
539.7711179603574
 20
1065.058755489184
 30
0.0
 10
539.5391732580243
 20
1065.055809819939
 30
0.0
 10
539.3128208684694
 20
1065.053756732914
 30
0.0
 10
539.0923336799444
 20
1065.052596234098
 30
0.0
 10
538.8779724180645
 20
1065.052328302156
 30
0.0
 10
538.6699851675601
 20
1065.052953017285
 30
0.0
 10
538.4686082631708
 20
1065.054470082343
 30
0.0
 10
538.2740622099645
 20
1065.056880602701
 30
0.0
 10
538.0344489106857
 20
1065.061097718012
 30
0.0
 10
537.7563078428888
 20
1065.068284466251
 30
0.0
 10
537.4504223705547
 20
1065.079859796484
 30
0.0
 10
537.1669965854518
 20
1065.094583318729
 30
0.0
 10
536.9085261519142
 20
1065.112456747937
 30
0.0
 10
536.6774830523871
 20
1065.133479898234
 30
0.0
 10
536.4762805672366
 20
1065.157651815431
 30
0.0
 10
536.3073515531853
 20
1065.184976661217
 30
0.0
 10
536.1727174962319
 20
1065.21543852241
 30
0.0
 10
536.0755078688088
 20
1065.24909805141
 30
0.0
 10
536.0140463232277
 20
1065.285724530537
 30
0.0
 10
536.0075306023659
 20
1065.312536169768
 30
0.0
 10
536.0042521899213
 20
1065.326026559178
 30
0.0
  0
LINE
  5
195
330
1F
100
AcDbEntity
  8
0
  6
CONTINUOUS
 62
     7
100
AcDbLine
 10
543.1503054922
 20
1065.1784028241
 30
0.0
 11
543.1503054922
 21
1049.0316405276
 31
0.0
  0
LINE
  5
196
330
1F
100
AcDbEntity
  8
0
  6
CONTINUOUS
 62
     7
100
AcDbLine
 10
543.1503054922
 20
1049.0316405276
 30
0.0
 11
904.2502937143
 21
1049.0316405276
 31
0.0
  0
SPLINE
  5
197
330
1F
100
AcDbEntity
  8
0
  6
CONTINUOUS
 62
     7
100
AcDbSpline
210
0.0
220
0.0
230
1.0
 70
     8
 71
     3
 72
    66
 73
    62
 74
     0
 42
0.00000001
 43
0.00000001
 40
0.0
 40
0.0
 40
0.0
 40
0.0
 40
0.0125017246829641
 40
0.025002827278488
 40
0.0375033527331049
 40
0.0500033459995757
 40
0.0625028520364021
 40
0.0750019158073431
 40
0.0875005822809317
 40
0.0999988964299884
 40
0.1124969032311384
 40
0.1249946476643237
 40
0.1374921747123196
 40
0.1499895293602494
 40
0.1624867565950973
 40
0.1749839014052244
 40
0.1874810087798807
 40
0.1999781237087215
 40
0.2124752911813203
 40
0.2249725561866828
 40
0.2374699637127623
 40
0.2499675587459713
 40
0.2624653862706992
 40
0.2749634912688241
 40
0.2874619187192285
 40
0.2999607135973136
 40
0.3124599208745141
 40
0.324959585517814
 40
0.337459752489261
 40
0.3499604667454827
 40
0.3624617732372024
 40
0.3749637169087551
 40
0.3874663426976043
 40
0.399969695533859
 40
0.4124738203397906
 40
0.424978762029351
 40
0.4374845655076908
 40
0.4499912756706777
 40
0.4624989374044161
 40
0.4750075955847665
 40
0.4875172950768654
 40
0.5000280807346471
 40
0.5263619213188935
 40
0.5526912170454994
 40
0.5790163864777398
 40
0.6053378483757373
 40
0.6316560216765926
 40
0.6579713254744679
 40
0.6842841790006361
 40
0.7105950016034969
 40
0.7369042127285639
 40
0.7632122318984292
 40
0.7895194786927093
 40
0.8158263727279775
 40
0.8421333336376874
 40
0.8684407810520927
 40
0.8947491345781666
 40
0.9210588137795289
 40
0.9473702381563811
 40
0.9736838271254581
 40
1.0
 40
1.0
 40
1.0
 40
1.0
 10
904.2502996032243
 20
1065.178402948561
 30
0.0
 10
902.7483338756672
 20
1065.291559551288
 30
0.0
 10
899.7444771585618
 20
1065.517867126055
 30
0.0
 10
895.2379918762317
 20
1065.84650265051
 30
0.0
 10
890.7311444282363
 20
1066.167201550991
 30
0.0
 10
886.2238757269564
 20
1066.47918734948
 30
0.0
 10
881.7162016040237
 20
1066.782668088562
 30
0.0
 10
877.2081178178493
 20
1067.077588026828
 30
0.0
 10
872.6996255051199
 20
1067.36396209927
 30
0.0
 10
868.1907243614983
 20
1067.641786304249
 30
0.0
 10
863.6814144687488
 20
1067.911061713928
 30
0.0
 10
859.1716958051851
 20
1068.171788041013
 30
0.0
 10
854.6615683768398
 20
1068.423965362462
 30
0.0
 10
850.1510321823183
 20
1068.667593657634
 30
0.0
 10
845.6400872222163
 20
1068.902672932045
 30
0.0
 10
841.1287334965963
 20
1069.129203184202
 30
0.0
 10
836.6169710056638
 20
1069.347184414492
 30
0.0
 10
832.1047997495863
 20
1069.556616622799
 30
0.0
 10
827.5922197285414
 20
1069.757499809144
 30
0.0
 10
823.0792309427039
 20
1069.949833973514
 30
0.0
 10
818.5658333922494
 20
1070.133619115906
 30
0.0
 10
814.0520270773538
 20
1070.308855236316
 30
0.0
 10
809.5378119981923
 20
1070.475542334741
 30
0.0
 10
805.0231881549407
 20
1070.633680411182
 30
0.0
 10
800.5081555477745
 20
1070.783269465638
 30
0.0
 10
795.9927141768694
 20
1070.924309498112
 30
0.0
 10
791.4768640424006
 20
1071.056800508606
 30
0.0
 10
786.9606051445438
 20
1071.180742497125
 30
0.0
 10
782.4439374834742
 20
1071.296135463675
 30
0.0
 10
777.9268610593673
 20
1071.402979408262
 30
0.0
 10
773.4093758723978
 20
1071.501274330897
 30
0.0
 10
768.8914819227427
 20
1071.591020231587
 30
0.0
 10
764.3731792105704
 20
1071.672217110345
 30
0.0
 10
759.8544677360794
 20
1071.744864967184
 30
0.0
 10
755.3353474993571
 20
1071.808963802109
 30
0.0
 10
750.8158185009036
 20
1071.864513615172
 30
0.0
 10
746.2958807396788
 20
1071.911514406255
 30
0.0
 10
741.7755342203898
 20
1071.949966175868
 30
0.0
 10
737.2547789262909
 20
1071.9798689222
 30
0.0
 10
732.7336149207098
 20
1072.001222652098
 30
0.0
 10
728.2120419680978
 20
1072.014027340104
 30
0.0
 10
722.024767106592
 20
1072.019850328016
 30
0.0
 10
714.1724719636552
 20
1072.004195380744
 30
0.0
 10
704.655944380742
 20
1071.947336055895
 30
0.0
 10
695.1412100235234
 20
1071.852594079001
 30
0.0
 10
685.6282699404919
 20
1071.719969395754
 30
0.0
 10
676.1171238599225
 20
1071.549462019769
 30
0.0
 10
666.6077718637364
 20
1071.341071947163
 30
0.0
 10
657.100213939286
 20
1071.094799176818
 30
0.0
 10
647.5944500986822
 20
1070.810643714744
 30
0.0
 10
638.0904803496034
 20
1070.488605536367
 30
0.0
 10
628.5883046927362
 20
1070.128684733008
 30
0.0
 10
619.087923161186
 20
1069.730880963705
 30
0.0
 10
609.5893356653849
 20
1069.295195501388
 30
0.0
 10
600.0925425740301
 20
1068.821623596429
 30
0.0
 10
590.5975425453817
 20
1068.310182976587
 30
0.0
 10
581.1043406213911
 20
1067.760807480161
 30
0.0
 10
571.6129180182029
 20
1067.173744045358
 30
0.0
 10
562.1233448787399
 20
1066.548071004926
 30
0.0
 10
552.6353594299165
 20
1065.887228469249
 30
0.0
 10
546.3120896943254
 20
1065.414685855406
 30
0.0
 10
543.1502996032241
 20
1065.178402948532
 30
0.0
  0
LINE
  5
198
330
1F
100
AcDbEntity
  8
0
  6
CONTINUOUS
 62
     7
100
AcDbLine
 10
904.2502937143
 20
1065.1807404438
 30
0.0
 11
904.2502937143
 21
1049.0316405276
 31
0.0
  0
LWPOLYLINE
  5
199
330
1F
100
AcDbEntity
  8
0
  6
CONTINUOUS
 62
     7
100
AcDbPolyline
 90
        4
 70
   128
 43
0.0
 10
910.8765271728
 20
1075.2447220812
 10
910.8494964664
 20
1075.2717397491
 10
910.7686278646
 20
1075.3525599221
 10
910.634621722
 20
1075.4864896962
  0
LINE
  5
19A
330
1F
100
AcDbEntity
  8
0
  6
CONTINUOUS
 62
     7
100
AcDbLine
 10
910.8765271728
 20
1075.2447220812
 30
0.0
 11
912.2502950256
 21
1049.0316405276
 31
0.0
  0
LINE
  5
19B
330
1F
100
AcDbEntity
  8
0
  6
CONTINUOUS
 62
     7
100
AcDbLine
 10
904.2502937143
 20
1049.0316405276
 30
0.0
 11
912.2502950256
 21
1049.0316405276
 31
0.0
  0
SPLINE
  5
19C
330
1F
100
AcDbEntity
  8
0
  6
CONTINUOUS
 62
     7
100
AcDbSpline
210
0.0
220
0.0
230
1.0
 70
     8
 71
     3
 72
    42
 73
    38
 74
     0
 42
0.00000001
 43
0.00000001
 40
0.0
 40
0.0
 40
0.0
 40
0.0
 40
0.0285779424654376
 40
0.0571542666678515
 40
0.0857290851244866
 40
0.1143025103121536
 40
0.1428746546689992
 40
0.1714456305962496
 40
0.2000155504599793
 40
0.2285845265928534
 40
0.2571526712958808
 40
0.2857200968402029
 40
0.3142869154688339
 40
0.342853239398428
 40
0.3714191808210524
 40
0.3999848519059507
 40
0.4285503648013034
 40
0.4571158316360194
 40
0.4856813645214764
 40
0.5142470755533269
 40
0.5428130768132389
 40
0.5713794803706899
 40
0.5999463982847358
 40
0.6285139426057835
 40
0.6570822253773652
 40
0.6856513586379194
 40
0.7142214544225632
 40
0.742792624764864
 40
0.7713649816986266
 40
0.799938637259658
 40
0.8285137034875504
 40
0.8570902924274484
 40
0.8856685161318419
 40
0.9142484866623154
 40
0.9428303160913423
 40
0.9714141165040521
 40
1.0
 40
1.0
 40
1.0
 40
1.0
 10
911.0928194523707
 20
1065.185998313798
 30
0.0
 10
911.066861965303
 20
1065.181217337659
 30
0.0
 10
911.0149484610436
 20
1065.17165565611
 30
0.0
 10
910.9255970908049
 20
1065.158353121248
 30
0.0
 10
910.827989263889
 20
1065.145812478644
 30
0.0
 10
910.72142265381
 20
1065.134108351345
 30
0.0
 10
910.6062616502008
 20
1065.123220745706
 30
0.0
 10
910.4825997891897
 20
1065.113155018625
 30
0.0
 10
910.35061786902
 20
1065.103909734818
 30
0.0
 10
910.2104877211937
 20
1065.095485278844
 30
0.0
 10
910.0623976946995
 20
1065.087881547666
 30
0.0
 10
909.9065455097989
 20
1065.08109856889
 30
0.0
 10
909.7431398355368
 20
1065.075136335117
 30
0.0
 10
909.57239951123
 20
1065.069994848329
 30
0.0
 10
909.3945533810883
 20
1065.065674107994
 30
0.0
 10
909.2098399469395
 20
1065.062174114254
 30
0.0
 10
909.0185070526156
 20
1065.059494867069
 30
0.0
 10
908.8208115433457
 20
1065.057636366449
 30
0.0
 10
908.6170189159265
 20
1065.056598612391
 30
0.0
 10
908.4074029560527
 20
1065.056381604894
 30
0.0
 10
908.1922453644116
 20
1065.056985343958
 30
0.0
 10
907.9718353717631
 20
1065.058409829582
 30
0.0
 10
907.746469343621
 20
1065.060655061767
 30
0.0
 10
907.516450375058
 20
1065.063721040503
 30
0.0
 10
907.2820878762146
 20
1065.067607765828
 30
0.0
 10
907.0436971490491
 20
1065.072315237597
 30
0.0
 10
906.8015989560421
 20
1065.077843456343
 30
0.0
 10
906.5561190810037
 20
1065.084192420083
 30
0.0
 10
906.3075878842616
 20
1065.091362136211
 30
0.0
 10
906.0563398466232
 20
1065.09935257713
 30
0.0
 10
905.8027131259989
 20
1065.108163845834
 30
0.0
 10
905.5470490404838
 20
1065.117795557916
 30
0.0
 10
905.2896918026778
 20
1065.128249148124
 30
0.0
 10
905.0309872960926
 20
1065.139519261415
 30
0.0
 10
904.7712854097417
 20
1065.151625885001
 30
0.0
 10
904.5109290780978
 20
1065.164494418008
 30
0.0
 10
904.3371782051609
 20
1065.173766659093
 30
0.0
 10
904.250299603225
 20
1065.178402948561
 30
0.0
  0
SPLINE
  5
19D
330
1F
100
AcDbEntity
  8
0
  6
CONTINUOUS
 62
     7
100
AcDbSpline
210
0.0
220
0.0
230
1.0
 70
     8
 71
     3
 72
     8
 73
     4
 74
     0
 42
0.00000001
 43
0.00000001
 40
0.0
 40
0.0
 40
0.0
 40
0.0
 40
1.0
 40
1.0
 40
1.0
 40
1.0
 10
911.0928171524233
 20
1065.185998474758
 30
0.0
 10
910.9412481808646
 20
1068.619550265639
 30
0.0
 10
910.7885979426077
 20
1072.053051132087
 30
0.0
 10
910.6346157637657
 20
1075.48648926811
 30
0.0
  0
LINE
  5
19E
330
1F
100
AcDbEntity
  8
0
  6
CONTINUOUS
 62
     7
100
AcDbLine
 10
543.1503054922
 20
1065.1784028241
 30
0.0
 11
543.0152413671
 21
1066.8598796556
 31
0.0
  0
SPLINE
  5
19F
330
1F
100
AcDbEntity
  8
0
  6
CONTINUOUS
 62
     7
100
AcDbSpline
210
0.0
220
0.0
230
1.0
 70
     8
 71
     3
 72
    82
 73
    78
 74
     0
 42
0.00000001
 43
0.00000001
 40
0.0
 40
0.0
 40
0.0
 40
0.0
 40
0.0133335484102456
 40
0.0266670858884538
 40
0.0400006128895368
 40
0.0533341298457388
 40
0.0666676371673491
 40
0.0800011352432641
 40
0.0933346244416645
 40
0.106668105110612
 40
0.120001577578752
 40
0.1333350421559208
 40
0.146668499133748
 40
0.1600019487863295
 40
0.1733353913708588
 40
0.1866688271282886
 40
0.2000022562839153
 40
0.2133356790480753
 40
0.2266690956167122
 40
0.2400025061720849
 40
0.2533359108833881
 40
0.2666693099073307
 40
0.2800027033888801
 40
0.2933360914617873
 40
0.3066694742493083
 40
0.3200028518648289
 40
0.3333362244124266
 40
0.3466695919876205
 40
0.3600029546779325
 40
0.3733363125635661
 40
0.3866696657180037
 40
0.4000030142086846
 40
0.4133363580976149
 40
0.4266696974420396
 40
0.4400030322950107
 40
0.4533363627061246
 40
0.4666696887220718
 40
0.4800030103873224
 40
0.4933363277447696
 40
0.5066696408363145
 40
0.5200029497035513
 40
0.5333362543884174
 40
0.5466695549337773
 40
0.5600028513841091
 40
0.5733361437861174
 40
0.5866694321893778
 40
0.6000027166469639
 40
0.6133359972161241
 40
0.6266692739588691
 40
0.6400025469426314
 40
0.6533358162409039
 40
0.6666690819339136
 40
0.6800023441091643
 40
0.693335602862169
 40
0.7066688582970639
 40
0.7200021105272
 40
0.7333353596758205
 40
0.7466686058767411
 40
0.7600018492748694
 40
0.7733350900269721
 40
0.7866683283022243
 40
0.800001564282877
 40
0.8133347981649057
 40
0.8266680301586254
 40
0.8400012604893565
 40
0.8533344893980216
 40
0.8666677171418244
 40
0.8800009439948574
 40
0.893334170248763
 40
0.9066673962133469
 40
0.9200006222172454
 40
0.9333338486085154
 40
0.9466670757553355
 40
0.9600003040465862
 40
0.973333533892509
 40
0.9866667657253549
 40
1.0
 40
1.0
 40
1.0
 40
1.0
 10
543.0152356766282
 20
1066.859879094487
 30
0.0
 10
544.6183397768732
 20
1066.980602356657
 30
0.0
 10
547.8245466629945
 20
1067.222048782018
 30
0.0
 10
552.6347742619812
 20
1067.571878904973
 30
0.0
 10
557.4456458096874
 20
1067.912675589701
 30
0.0
 10
562.2572090474396
 20
1068.243552851342
 30
0.0
 10
567.0694262316644
 20
1068.564748006907
 30
0.0
 10
571.8822825241159
 20
1068.876197388654
 30
0.0
 10
576.6957569488358
 20
1069.1779179801
 30
0.0
 10
581.5098301742186
 20
1069.469905157073
 30
0.0
 10
586.3244824278252
 20
1069.752160087886
 30
0.0
 10
591.1396940551166
 20
1070.02468239149
 30
0.0
 10
595.9554453697466
 20
1070.287472104714
 30
0.0
 10
600.7717166936832
 20
1070.540529155143
 30
0.0
 10
605.5884883464735
 20
1070.783853502364
 30
0.0
 10
610.4057406481267
 20
1071.017445100115
 30
0.0
 10
615.223453918353
 20
1071.241303906431
 30
0.0
 10
620.04160847677
 20
1071.455429880922
 30
0.0
 10
624.8601846428611
 20
1071.659822985503
 30
0.0
 10
629.6791627359959
 20
1071.854483184201
 30
0.0
 10
634.4985230754321
 20
1072.039410443205
 30
0.0
 10
639.3182459803285
 20
1072.21460473085
 30
0.0
 10
644.1383117697417
 20
1072.380066017626
 30
0.0
 10
648.9587007626455
 20
1072.535794276173
 30
0.0
 10
653.7793932779309
 20
1072.681789481282
 30
0.0
 10
658.6003696344136
 20
1072.818051609895
 30
0.0
 10
663.4216101508434
 20
1072.944580641108
 30
0.0
 10
668.243095145907
 20
1073.061376556164
 30
0.0
 10
673.064804938244
 20
1073.168439338461
 30
0.0
 10
677.886719846445
 20
1073.265768973547
 30
0.0
 10
682.7088201890635
 20
1073.35336544912
 30
0.0
 10
687.53108628462
 20
1073.431228755032
 30
0.0
 10
692.3534984516142
 20
1073.499358883283
 30
0.0
 10
697.176037008525
 20
1073.557755828028
 30
0.0
 10
701.998682273825
 20
1073.60641958557
 30
0.0
 10
706.8214145659808
 20
1073.645350154366
 30
0.0
 10
711.6442142034673
 20
1073.674547535021
 30
0.0
 10
716.4670615047704
 20
1073.694011730295
 30
0.0
 10
721.2899367883944
 20
1073.703742745096
 30
0.0
 10
726.1128203728687
 20
1073.703740586485
 30
0.0
 10
730.9356925767567
 20
1073.694005263676
 30
0.0
 10
735.7585337186623
 20
1073.67453678803
 30
0.0
 10
740.5813241172392
 20
1073.645335173062
 30
0.0
 10
745.4040440911931
 20
1073.606400434438
 30
0.0
 10
750.2266739592933
 20
1073.557732589976
 30
0.0
 10
755.0491940403768
 20
1073.499331659642
 30
0.0
 10
759.8715846533581
 20
1073.431197665558
 30
0.0
 10
764.6938261172351
 20
1073.353330631993
 30
0.0
 10
769.5158987510968
 20
1073.26573058537
 30
0.0
 10
774.3377828741274
 20
1073.168397554262
 30
0.0
 10
779.1594588056203
 20
1073.061331569394
 30
0.0
 10
783.9809068649779
 20
1072.944532663641
 30
0.0
 10
788.8021073717241
 20
1072.818000872029
 30
0.0
 10
793.6230406455071
 20
1072.681736231738
 30
0.0
 10
798.4436870061107
 20
1072.535738782097
 30
0.0
 10
803.264026773457
 20
1072.380008564586
 30
0.0
 10
808.0840402676184
 20
1072.214545622836
 30
0.0
 10
812.9037078088209
 20
1072.039350002632
 30
0.0
 10
817.7230097174561
 20
1071.854421751907
 30
0.0
 10
822.5419263140806
 20
1071.659760920747
 30
0.0
 10
827.3604379194313
 20
1071.455367561386
 30
0.0
 10
832.1785248544275
 20
1071.241241728221
 30
0.0
 10
836.9961674401759
 20
1071.017383477758
 30
0.0
 10
841.8133459979958
 20
1070.78379286881
 30
0.0
 10
846.6300408493657
 20
1070.540469961764
 30
0.0
 10
851.4462323161413
 20
1070.287414821302
 30
0.0
 10
856.2619007197867
 20
1070.024627506263
 30
0.0
 10
861.0770263842672
 20
1069.752108107479
 30
0.0
 10
865.891589625303
 20
1069.469856606547
 30
0.0
 10
870.7055707904942
 20
1069.177873402923
 30
0.0
 10
875.5189501096188
 20
1068.876157346767
 30
0.0
 10
880.3317082533468
 20
1068.564713080481
 30
0.0
 10
885.1438242481394
 20
1068.243523639689
 30
0.0
 10
889.9552832579774
 20
1067.912652707803
 30
0.0
 10
894.7660475425856
 20
1067.571862996729
 30
0.0
 10
899.5761648428704
 20
1067.222040469722
 30
0.0
 10
902.7822972029817
 20
1066.980599560287
 30
0.0
 10
904.385363529827
 20
1066.859879094515
 30
0.0
  0
LINE
  5
1A0
330
1F
100
AcDbEntity
  8
0
  6
CONTINUOUS
 62
     7
100
AcDbLine
 10
904.2502937143
 20
1065.1784028241
 30
0.0
 11
904.3853578393
 21
1066.8598796556
 31
0.0
  0
SPLINE
  5
1A1
330
1F
100
AcDbEntity
  8
0
  6
CONTINUOUS
 62
     7
100
AcDbSpline
210
0.0
220
0.0
230
1.0
 70
     8
 71
     3
 72
    27
 73
    23
 74
     0
 42
0.00000001
 43
0.00000001
 40
0.0
 40
0.0
 40
0.0
 40
0.0
 40
0.039278712193693
 40
0.0781128131065372
 40
0.116584347733108
 40
0.1547776955389965
 40
0.1927790870218196
 40
0.2306760609789168
 40
0.2685568781077963
 40
0.3065099098829756
 40
0.3446230235725119
 40
0.3829829845907552
 40
0.4216748959913624
 40
0.4607816920615713
 40
0.5003836990150684
 40
0.572799016724113
 40
0.6439462350747781
 40
0.7143688747480492
 40
0.7846272727274841
 40
0.8552856774827646
 40
0.9268988925761996
 40
1.0
 40
1.0
 40
1.0
 40
1.0
 10
904.385363529827
 20
1066.859879094515
 30
0.0
 10
904.4654550643332
 20
1066.853888601926
 30
0.0
 10
904.6247315455848
 20
1066.841975425503
 30
0.0
 10
904.8621613150364
 20
1066.825618252898
 30
0.0
 10
905.0965311677188
 20
1066.810524446405
 30
0.0
 10
905.3278516958441
 20
1066.796791367475
 30
0.0
 10
905.5561161638973
 20
1066.784394848609
 30
0.0
 10
905.7813221492856
 20
1066.77334280424
 30
0.0
 10
906.0034660289082
 20
1066.763634521773
 30
0.0
 10
906.2225446219979
 20
1066.755271481279
 30
0.0
 10
906.4385551148127
 20
1066.748254391209
 30
0.0
 10
906.6514946861786
 20
1066.742584245902
 30
0.0
 10
906.8613629132169
 20
1066.738261047549
 30
0.0
 10
907.0681529964693
 20
1066.735287950869
 30
0.0
 10
907.3271367760282
 20
1066.733213154573
 30
0.0
 10
907.6280710689234
 20
1066.733688165889
 30
0.0
 10
907.9559274636346
 20
1066.739090941235
 30
0.0
 10
908.2538553193815
 20
1066.749336672802
 30
0.0
 10
908.5219609241674
 20
1066.764417444613
 30
0.0
 10
908.7594326609167
 20
1066.784428667815
 30
0.0
 10
908.9691782533005
 20
1066.809031256983
 30
0.0
 10
909.0816205724199
 20
1066.829114002336
 30
0.0
 10
909.1384197745027
 20
1066.839258616221
 30
0.0
  0
SPLINE
  5
1A2
330
1F
100
AcDbEntity
  8
0
  6
CONTINUOUS
 62
     7
100
AcDbSpline
210
0.0
220
0.0
230
1.0
 70
     8
 71
     3
 72
    10
 73
     6
 74
     0
 42
0.00000001
 43
0.00000001
 40
0.0
 40
0.0
 40
0.0
 40
0.0
 40
0.2969309360480737
 40
0.6302619669760136
 40
1.0
 40
1.0
 40
1.0
 40
1.0
 10
909.1384363760873
 20
1066.839274521668
 30
0.0
 10
909.332955050648
 20
1066.676830178238
 30
0.0
 10
909.7458380061055
 20
1066.332027805075
 30
0.0
 10
910.3973218581021
 20
1065.780650072316
 30
0.0
 10
910.8536539045535
 20
1065.390995576896
 30
0.0
 10
911.0936350414167
 20
1065.18607959626
 30
0.0
  0
LINE
  5
1A3
330
1F
100
AcDbEntity
  8
0
  6
CONTINUOUS
 62
     7
100
AcDbLine
 10
536.0042450254
 20
1065.3260267654
 30
0.0
 11
537.9271504705
 21
1067.0072130242
 31
0.0
  0
SPLINE
  5
1A4
330
1F
100
AcDbEntity
  8
0
  6
CONTINUOUS
 62
     7
100
AcDbSpline
210
0.0
220
0.0
230
1.0
 70
     8
 71
     3
 72
    25
 73
    21
 74
     0
 42
0.00000001
 43
0.00000001
 40
0.0
 40
0.0
 40
0.0
 40
0.0
 40
0.0278314503517833
 40
0.0555340244672612
 40
0.0831636056012728
 40
0.1107765164895836
 40
0.1384291780893338
 40
0.166177765305946
 40
0.1940778701214663
 40
0.2221841820268235
 40
0.250550194482557
 40
0.3758752503498259
 40
0.5001556200960056
 40
0.6243550564712113
 40
0.7499206230700701
 40
0.8007690510546578
 40
0.85087712873154
 40
0.9005654906229615
 40
0.9501629184007793
 40
1.0
 40
1.0
 40
1.0
 40
1.0
 10
537.927151473561
 20
1067.007213429629
 30
0.0
 10
537.927391530136
 20
1066.999438656432
 30
0.0
 10
537.9278705316806
 20
1066.98392511188
 30
0.0
 10
537.9411174601457
 20
1066.961688390655
 30
0.0
 10
537.9635632126481
 20
1066.9403028581
 30
0.0
 10
537.996093968286
 20
1066.919835636025
 30
0.0
 10
538.0384718353686
 20
1066.900268648287
 30
0.0
 10
538.0907604532813
 20
1066.881606344919
 30
0.0
 10
538.1529359625746
 20
1066.86384702597
 30
0.0
 10
538.2250205961273
 20
1066.846989968621
 30
0.0
 10
538.399913750549
 20
1066.812927095108
 30
0.0
 10
538.7474746416082
 20
1066.770163683823
 30
0.0
 10
539.3843050169021
 20
1066.737442077466
 30
0.0
 10
540.1609431094155
 20
1066.72980566188
 30
0.0
 10
540.8763199791608
 20
1066.744828621202
 30
0.0
 10
541.4437383295738
 20
1066.765974179551
 30
0.0
 10
541.8309276071313
 20
1066.783870037788
 30
0.0
 10
542.2221715571704
 20
1066.805470911798
 30
0.0
 10
542.6175238734286
 20
1066.830479513137
 30
0.0
 10
542.8824522349875
 20
1066.850063500474
 30
0.0
 10
543.0152356766282
 20
1066.859879094487
 30
0.0
  0
LINE
  5
1A5
330
1F
100
AcDbEntity
  8
0
  6
CONTINUOUS
 62
     7
100
AcDbLine
 10
880.9428510492
 20
1068.863698406
 30
0.0
 11
880.9509423797
 21
1069.0956089029
 31
0.0
  0
SPLINE
  5
1A6
330
1F
100
AcDbEntity
  8
0
  6
CONTINUOUS
 62
     7
100
AcDbSpline
210
0.0
220
0.0
230
1.0
 70
     8
 71
     3
 72
     8
 73
     4
 74
     0
 42
0.00000001
 43
0.00000001
 40
0.0
 40
0.0
 40
0.0
 40
0.0
 40
1.0
 40
1.0
 40
1.0
 40
1.0
 10
909.138420597036
 20
1066.839266897626
 30
0.0
 10
899.7440010047435
 20
1067.569689360411
 30
0.0
 10
890.3452960933244
 20
1068.244497968023
 30
0.0
 10
880.9428502991627
 20
1068.863697667761
 30
0.0
  0
LINE
  5
1A7
330
1F
100
AcDbEntity
  8
0
  6
CONTINUOUS
 62
     7
100
AcDbLine
 10
537.9299816911
 20
1067.0610937605
 30
0.0
 11
537.9271504705
 21
1067.0072130242
 31
0.0
  0
SPLINE
  5
1A8
330
1F
100
AcDbEntity
  8
0
  6
CONTINUOUS
 62
     7
100
AcDbSpline
210
0.0
220
0.0
230
1.0
 70
     8
 71
     3
 72
     8
 73
     4
 74
     0
 42
0.00000001
 43
0.00000001
 40
6.217889515168543
 40
6.217889515168543
 40
6.217889515168543
 40
6.217889515168543
 40
6.360344980728322
 40
6.360344980728322
 40
6.360344980728322
 40
6.360344980728322
 10
880.9509488221568
 20
1069.095609023406
 30
0.0
 10
766.7544665052919
 20
1076.560578892103
 30
0.0
 10
652.0306488494859
 20
1075.882407178951
 30
0.0
 10
537.9299804250452
 20
1067.061093885192
 30
0.0
  0
ARC
  5
1A9
330
1F
100
AcDbEntity
  8
0
  6
CONTINUOUS
 62
     7
100
AcDbCircle
 10
906.2502877086
 20
1072.3376667833
 30
0.0
 40
4.802483899473034
100
AcDbArc
 50
81.8364770838
 51
117.2806976353
  0
LINE
  5
1AA
330
1F
100
AcDbEntity
  8
0
  6
CONTINUOUS
 62
     7
100
AcDbLine
 10
906.9322345083
 20
1077.0914863179
 30
0.0
 11
909.3799588506
 21
1076.7403888831
 31
0.0
  0
LINE
  5
1AB
330
1F
100
AcDbEntity
  8
0
  6
CONTINUOUS
 62
     7
100
AcDbLine
 10
909.3799588506
 20
1076.7403888831
 30
0.0
 11
910.634621722
 21
1075.4864896962
 31
0.0
  0
CIRCLE
  5
1AC
330
1F
100
AcDbEntity
  8
0
  6
CONTINUOUS
 62
     7
100
AcDbCircle
 10
906.2499102684
 20
1072.3442369337
 30
0.0
 40
2.749493174829957
  0
CIRCLE
  5
1AD
330
1F
100
AcDbEntity
  8
0
  6
CONTINUOUS
 62
     7
100
AcDbCircle
 10
900.2501371681
 20
1072.3434601583
 30
0.0
 40
0.9997819973185522
  0
ARC
  5
1AE
330
1F
100
AcDbEntity
  8
0
  6
CONTINUOUS
 62
     7
100
AcDbCircle
 10
867.3647665755
 20
1147.7368794614
 30
0.0
 40
80.03338720669272
100
AcDbArc
 50
279.7677752902
 51
297.2814917221
  0
LINE
  5
1AF
330
1F
100
AcDbEntity
  8
0
  6
CONTINUOUS
 62
     7
100
AcDbLine
 10
536.0042450254
 20
1065.3260267654
 30
0.0
 11
536.0063609903
 21
1065.366205884
 31
0.0
  0
LINE
  5
1B0
330
1F
100
AcDbEntity
  8
0
  6
CONTINUOUS
 62
     7
100
AcDbLine
 10
536.0063609903
 20
1065.366205884
 30
0.0
 11
537.9299816911
 21
1067.0610937605
 31
0.0
  0
LINE
  5
1B1
330
1F
100
AcDbEntity
  8
0
  6
CONTINUOUS
 62
     7
100
AcDbLine
 10
537.9299816911
 20
1067.0610937605
 30
0.0
 11
536.0063609903
 21
1065.366205884
 31
0.0
  0
SPLINE
  5
1B2
330
1F
100
AcDbEntity
  8
0
  6
CONTINUOUS
 62
     7
100
AcDbSpline
210
0.0
220
0.0
230
1.0
 70
     8
 71
     3
 72
     9
 73
     5
 74
     0
 42
0.00000001
 43
0.00000001
 40
0.0
 40
0.0
 40
0.0
 40
0.0
 40
0.7057364385118493
 40
1.0
 40
1.0
 40
1.0
 40
1.0
 10
537.9299816911233
 20
1067.061093760472
 30
0.0
 10
543.803192808067
 20
1067.51802311128
 30
0.0
 10
552.1252955031301
 20
1068.165473527433
 30
0.0
 10
560.4573735662666
 20
1068.66575185703
 30
0.0
 10
562.9092005317224
 20
1068.812965540033
 30
0.0
  0
LINE
  5
1B3
330
1F
100
AcDbEntity
  8
0
  6
CONTINUOUS
 62
     7
100
AcDbLine
 10
880.9507486646
 20
1069.0899948904
 30
0.0
 11
881.6693571632
 21
1069.0388745943
 31
0.0
  0
LINE
  5
1B4
330
1F
100
AcDbEntity
  8
0
  6
CONTINUOUS
 62
     7
100
AcDbLine
 10
911.4758965795
 20
477.458626018
 30
0.0
 11
911.4971605365
 21
477.4777665596
 31
0.0
  0
ARC
  5
1B5
330
1F
100
AcDbEntity
  8
0
  6
CONTINUOUS
 62
     7
100
AcDbCircle
 10
723.702424532
 20
2607.0350756686
 30
0.0
 40
2140.000000000001
100
AcDbArc
 50
266.5683242022
 51
273.8784337568
  0
LINE
  5
1B6
330
1F
100
AcDbEntity
  8
0
  6
CONTINUOUS
 62
     7
100
AcDbLine
 10
535.887449724
 20
477.8640204902
 30
0.0
 11
535.9045264547
 21
477.8436515342
 31
0.0
  0
LINE
  5
1B7
330
1F
100
AcDbEntity
  8
0
  6
CONTINUOUS
 62
     7
100
AcDbLine
 10
904.2502937143
 20
492.2350756685
 30
0.0
 11
543.1503054922
 21
492.2350756685
 31
0.0
  0
LINE
  5
1B8
330
1F
100
AcDbEntity
  8
0
  6
CONTINUOUS
 62
     7
100
AcDbLine
 10
904.2502937143
 20
476.088313372
 30
0.0
 11
904.2502937143
 21
492.2350756685
 31
0.0
  0
SPLINE
  5
1B9
330
1F
100
AcDbEntity
  8
0
  6
CONTINUOUS
 62
     7
100
AcDbSpline
210
0.0
220
0.0
230
1.0
 70
     8
 71
     3
 72
    66
 73
    62
 74
     0
 42
0.00000001
 43
0.00000001
 40
0.0
 40
0.0
 40
0.0
 40
0.0
 40
0.012501724684122
 40
0.0250028272807396
 40
0.0375033527363874
 40
0.0500033460038257
 40
0.0625028520415569
 40
0.0750019158133406
 40
0.0875005822877098
 40
0.0999988964374859
 40
0.1124969032392936
 40
0.1249946476730759
 40
0.1374921747216085
 40
0.1499895293700148
 40
0.1624867566052797
 40
0.174983901415764
 40
0.1874810087907188
 40
0.1999781237197996
 40
0.2124752911925801
 40
0.2249725561980666
 40
0.237469963724212
 40
0.2499675587574304
 40
0.2624653862821109
 40
0.274963491280132
 40
0.2874619187303766
 40
0.2999607136082462
 40
0.312459920885176
 40
0.3249595855281505
 40
0.3374597524992176
 40
0.3499604667550053
 40
0.3624617732462374
 40
0.3749637169172491
 40
0.3874663427055045
 40
0.3999696955411127
 40
0.4124738203463456
 40
0.4249787620351556
 40
0.4374845655126935
 40
0.4499912756748278
 40
0.4624989374076628
 40
0.4750075955870594
 40
0.4875172950781548
 40
0.5000280807348836
 40
0.5263619213199325
 40
0.5526912170472303
 40
0.579016386480055
 40
0.6053378483785333
 40
0.6316560216797691
 40
0.657971325477928
 40
0.684284179004287
 40
0.7105950016072492
 40
0.7369042127323318
 40
0.7632122319021304
 40
0.7895194786962654
 40
0.8158263727313133
 40
0.8421333336407318
 40
0.8684407810547776
 40
0.894749134580428
 40
0.9210588137813065
 40
0.9473702381576182
 40
0.9736838271261014
 40
1.0
 40
1.0
 40
1.0
 40
1.0
 10
543.1502996032247
 20
476.0883132452117
 30
0.0
 10
544.6522653308975
 20
475.9751566420007
 30
0.0
 10
547.6561220482265
 20
475.7488490662665
 30
0.0
 10
552.1626073308873
 20
475.4202135404054
 30
0.0
 10
556.6694547791953
 20
475.0995146385515
 30
0.0
 10
561.1767234807704
 20
474.787528838728
 30
0.0
 10
565.6843976039803
 20
474.4840480983473
 30
0.0
 10
570.1924813904144
 20
474.1891281588194
 30
0.0
 10
574.7009737033854
 20
473.9027540851522
 30
0.0
 10
579.2098748472313
 20
473.6249298789843
 30
0.0
 10
583.719184740187
 20
473.3556544681524
 30
0.0
 10
588.2289034039393
 20
473.0949281399518
 30
0.0
 10
592.7390308324553
 20
472.8427508174246
 30
0.0
 10
597.24956702713
 20
472.5991225212092
 30
0.0
 10
601.7605119873674
 20
472.3640432457923
 30
0.0
 10
606.271865713105
 20
472.1375129926661
 30
0.0
 10
610.7836282041372
 20
471.9195317614438
 30
0.0
 10
615.2957994602968
 20
471.7100995522407
 30
0.0
 10
619.8083794814063
 20
471.5092163650357
 30
0.0
 10
624.3213682672905
 20
471.3168821998427
 30
0.0
 10
628.8347658177738
 20
471.1330970566643
 30
0.0
 10
633.3485721326808
 20
470.9578609355046
 30
0.0
 10
637.8627872118356
 20
470.7911738363657
 30
0.0
 10
642.3774110550629
 20
470.6330357592483
 30
0.0
 10
646.892443662187
 20
470.483446704152
 30
0.0
 10
651.4078850330325
 20
470.342406671075
 30
0.0
 10
655.9237351674238
 20
470.209915660014
 30
0.0
 10
660.4399940651855
 20
470.0859736709646
 30
0.0
 10
664.956661726142
 20
469.970580703921
 30
0.0
 10
669.4737381501183
 20
469.8637367588759
 30
0.0
 10
673.9912233369391
 20
469.7654418358209
 30
0.0
 10
678.5091172864282
 20
469.6756959347462
 30
0.0
 10
683.0274199984166
 20
469.5944990556411
 30
0.0
 10
687.546131472706
 20
469.5218511984909
 30
0.0
 10
692.0652517092088
 20
469.457752363291
 30
0.0
 10
696.5847807074252
 20
469.4022025499912
 30
0.0
 10
701.1047184683953
 20
469.3552017587066
 30
0.0
 10
705.6250649874115
 20
469.3167499889291
 30
0.0
 10
710.1458202812202
 20
469.286847242469
 30
0.0
 10
714.6669842864932
 20
469.2654935124791
 30
0.0
 10
719.1885572387794
 20
469.2526888244182
 30
0.0
 10
725.3758321001847
 20
469.2468658364819
 30
0.0
 10
733.2281272432388
 20
469.2625207838203
 30
0.0
 10
742.7446548264792
 20
469.3193801089125
 30
0.0
 10
752.2593891839837
 20
469.414122086212
 30
0.0
 10
761.7723292672591
 20
469.5467467700257
 30
0.0
 10
771.2834753480316
 20
469.7172541467405
 30
0.0
 10
780.7928273443791
 20
469.925644220238
 30
0.0
 10
790.3003852689495
 20
470.171916991637
 30
0.0
 10
799.8061491096321
 20
470.4560724549269
 30
0.0
 10
809.3101188587483
 20
470.7781106346822
 30
0.0
 10
818.8122945156114
 20
471.1380314395806
 30
0.0
 10
828.312676047116
 20
471.5358352105861
 30
0.0
 10
837.8112635428305
 20
471.9715206747672
 30
0.0
 10
847.3080566340568
 20
472.4450925817525
 30
0.0
 10
856.8030566625356
 20
472.9565332037831
 30
0.0
 10
866.296258586315
 20
473.5059087025604
 30
0.0
 10
875.7876811892507
 20
474.0929721398754
 30
0.0
 10
885.2772543284194
 20
474.7186451829846
 30
0.0
 10
894.7652397769091
 20
475.3794877214902
 30
0.0
 10
901.0885095122512
 20
475.8520303373556
 30
0.0
 10
904.250299603225
 20
476.0883132452403
 30
0.0
  0
LINE
  5
1BA
330
1F
100
AcDbEntity
  8
0
  6
CONTINUOUS
 62
     7
100
AcDbLine
 10
543.1503054922
 20
476.08565724
 30
0.0
 11
543.1503054922
 21
492.2350756685
 31
0.0
  0
LINE
  5
1BB
330
1F
100
AcDbEntity
  8
0
  6
CONTINUOUS
 62
     7
100
AcDbLine
 10
912.2502950256
 20
492.2350756685
 30
0.0
 11
904.2502937143
 21
492.2350756685
 31
0.0
  0
LINE
  5
1BC
330
1F
100
AcDbEntity
  8
0
  6
CONTINUOUS
 62
     7
100
AcDbLine
 10
911.396532995
 20
475.9443215887
 30
0.0
 11
912.2502950256
 21
492.2350756685
 31
0.0
  0
SPLINE
  5
1BD
330
1F
100
AcDbEntity
  8
0
  6
CONTINUOUS
 62
     7
100
AcDbSpline
210
0.0
220
0.0
230
1.0
 70
     8
 71
     3
 72
    39
 73
    35
 74
     0
 42
0.00000001
 43
0.00000001
 40
0.0
 40
0.0
 40
0.0
 40
0.0
 40
0.024457558518091
 40
0.0488495954656169
 40
0.0731761774770477
 40
0.0974373742944158
 40
0.1216332587911096
 40
0.1457639069958217
 40
0.1698293981166162
 40
0.1938298145651546
 40
0.2177652419810382
 40
0.2416357692562932
 40
0.2654414885599721
 40
0.2891824953629013
 40
0.3128588884625216
 40
0.3364707700078748
 40
0.3600182455246867
 40
0.3835014239405716
 40
0.4069204176103316
 40
0.4302753423413749
 40
0.4535663174192214
 40
0.4767934656330963
 40
0.4999569133016317
 40
0.542376136041199
 40
0.585402208668887
 40
0.6290356722006174
 40
0.6732769585479791
 40
0.7181263942651381
 40
0.7635842040649212
 40
0.8096505141201089
 40
0.856325355164643
 40
0.9036086654085205
 40
0.9515002932790101
 40
1.0
 40
1.0
 40
1.0
 40
1.0
 10
904.250299603225
 20
476.0883132452403
 30
0.0
 10
904.3418876449572
 20
476.0932227927318
 30
0.0
 10
904.5248183649138
 20
476.1030287350829
 30
0.0
 10
904.7985339208142
 20
476.1166371786623
 30
0.0
 10
905.0707721840752
 20
476.1294138256004
 30
0.0
 10
905.3411449456393
 20
476.1412817057441
 30
0.0
 10
905.6092631177854
 20
476.1522613599831
 30
0.0
 10
905.874748362206
 20
476.1623473064136
 30
0.0
 10
906.1372305996192
 20
476.171541007789
 30
0.0
 10
906.3963492546231
 20
476.1798420735593
 30
0.0
 10
906.6517534708985
 20
476.187250607752
 30
0.0
 10
906.903102568157
 20
476.193766582402
 30
0.0
 10
907.1500664013635
 20
476.199390004772
 30
0.0
 10
907.3923257129142
 20
476.2041208726828
 30
0.0
 10
907.6295724529726
 20
476.2079591866009
 30
0.0
 10
907.8615100768777
 20
476.2109049457913
 30
0.0
 10
908.0878538090743
 20
476.2129581516546
 30
0.0
 10
908.3083309074149
 20
476.2141187982481
 30
0.0
 10
908.5226808044231
 20
476.2143869067357
 30
0.0
 10
908.7306555847756
 20
476.2137623975531
 30
0.0
 10
908.9320190934178
 20
476.2122455654837
 30
0.0
 10
909.1265510149069
 20
476.2098353139393
 30
0.0
 10
909.3661548556124
 20
476.2056183826653
 30
0.0
 10
909.6442913636721
 20
476.198431720911
 30
0.0
 10
909.9501768360342
 20
476.1868564008171
 30
0.0
 10
910.2336026211996
 20
476.1721328758791
 30
0.0
 10
910.492073054746
 20
476.1542594474814
 30
0.0
 10
910.7231161542596
 20
476.1332362970295
 30
0.0
 10
910.9243186393747
 20
476.1090643799354
 30
0.0
 10
911.093247653378
 20
476.0817395341742
 30
0.0
 10
911.2278817102781
 20
476.0512776730196
 30
0.0
 10
911.3250913376525
 20
476.0176181440477
 30
0.0
 10
911.3865528831961
 20
475.9809916649455
 30
0.0
 10
911.393068604053
 20
475.9541800257244
 30
0.0
 10
911.3963470164953
 20
475.9406896363191
 30
0.0
  0
LINE
  5
1BE
330
1F
100
AcDbEntity
  8
0
  6
CONTINUOUS
 62
     7
100
AcDbLine
 10
543.1503054922
 20
492.2350756685
 30
0.0
 11
535.1503041809
 21
492.2350756685
 31
0.0
  0
SPLINE
  5
1BF
330
1F
100
AcDbEntity
  8
0
  6
CONTINUOUS
 62
     7
100
AcDbSpline
210
0.0
220
0.0
230
1.0
 70
     8
 71
     3
 72
    40
 73
    36
 74
     0
 42
0.00000001
 43
0.00000001
 40
0.0
 40
0.0
 40
0.0
 40
0.0
 40
0.0243176931545599
 40
0.0484824815400229
 40
0.0724943275995459
 40
0.0963531990848466
 40
0.1200590691314142
 40
0.1436119163360315
 40
0.1670117248366804
 40
0.1902584843949247
 40
0.2133521904808694
 40
0.2362928443607676
 40
0.2590804531873949
 40
0.2817150300932608
 40
0.3041965942867923
 40
0.3265251711515812
 40
0.3487007923488012
 40
0.370723495922926
 40
0.3925933264108586
 40
0.4143103349546023
 40
0.4358745794175944
 40
0.45728612450486
 40
0.4785450418870987
 40
0.4996514103288701
 40
0.5439796654345954
 40
0.5885372473810897
 40
0.6333250022233019
 40
0.6783437303168249
 40
0.7235941869480345
 40
0.7690770829598934
 40
0.8147930853729675
 40
0.8607428180013262
 40
0.9069268620629779
 40
0.9533457567845625
 40
1.0
 40
1.0
 40
1.0
 40
1.0
 10
536.0042521899552
 20
475.9406896363112
 30
0.0
 10
536.0048962770034
 20
475.9475131854901
 30
0.0
 10
536.0061804012096
 20
475.9611173787416
 30
0.0
 10
536.0212322030825
 20
475.9806270568961
 30
0.0
 10
536.0456530986661
 20
475.9993966947261
 30
0.0
 10
536.0801573543887
 20
476.0173676570868
 30
0.0
 10
536.124259083437
 20
476.0345555063506
 30
0.0
 10
536.1777769566679
 20
476.0509561129514
 30
0.0
 10
536.2404360312765
 20
476.0665705732168
 30
0.0
 10
536.3119745720603
 20
476.0813985967077
 30
0.0
 10
536.3921168408801
 20
476.0954402609651
 30
0.0
 10
536.4805814309633
 20
476.1086955458962
 30
0.0
 10
536.5770801460817
 20
476.1211644573179
 30
0.0
 10
536.6813193628535
 20
476.1328469941664
 30
0.0
 10
536.7930007072135
 20
476.1437431572417
 30
0.0
 10
536.9118218835014
 20
476.1538529467184
 30
0.0
 10
537.0374774351662
 20
476.1631763634302
 30
0.0
 10
537.1696594841748
 20
476.1717134062228
 30
0.0
 10
537.3080584737589
 20
476.1794640811708
 30
0.0
 10
537.4523637660614
 20
476.186428367684
 30
0.0
 10
537.6022646540409
 20
476.1926063436343
 30
0.0
 10
537.7574497156442
 20
476.1979977233067
 30
0.0
 10
537.9176121601232
 20
476.2026035634842
 30
0.0
 10
538.14327668477
 20
476.2078287928504
 30
0.0
 10
538.4447847615131
 20
476.2124235640175
 30
0.0
 10
538.8343209086704
 20
476.2147253985195
 30
0.0
 10
539.2473061621708
 20
476.2137669207723
 30
0.0
 10
539.6819683807879
 20
476.2095500800885
 30
0.0
 10
540.1363871204483
 20
476.2020740116543
 30
0.0
 10
540.6084808449805
 20
476.1913402504279
 30
0.0
 10
541.0960182605357
 20
476.1773435147132
 30
0.0
 10
541.5966280754822
 20
476.1601035609884
 30
0.0
 10
542.1077982231869
 20
476.1395461451315
 30
0.0
 10
542.6269267928739
 20
476.1159504780619
 30
0.0
 10
542.9755481537586
 20
476.0975411729991
 30
0.0
 10
543.1502996032243
 20
476.0883132452117
 30
0.0
  0
LINE
  5
1C0
330
1F
100
AcDbEntity
  8
0
  6
CONTINUOUS
 62
     7
100
AcDbLine
 10
536.0042450254
 20
475.9406894307
 30
0.0
 11
535.1503041809
 21
492.2350756685
 31
0.0
  0
SPLINE
  5
1C1
330
1F
100
AcDbEntity
  8
0
  6
CONTINUOUS
 62
     7
100
AcDbSpline
210
0.0
220
0.0
230
1.0
 70
     8
 71
     3
 72
    25
 73
    21
 74
     0
 42
0.00000001
 43
0.00000001
 40
0.0
 40
0.0
 40
0.0
 40
0.0
 40
0.0278494509731914
 40
0.055568915218389
 40
0.0832149688747453
 40
0.1108446383659251
 40
0.1385150507442023
 40
0.1662830809422648
 40
0.1942050067292066
 40
0.2223361816266991
 40
0.2507307348024004
 40
0.3760654099921995
 40
0.5004013040947741
 40
0.6245413315962219
 40
0.7500783067243206
 40
0.8008748423687091
 40
0.850945130707065
 40
0.9006059963717967
 40
0.950182150939987
 40
1.0
 40
1.0
 40
1.0
 40
1.0
 10
543.0152356760269
 20
474.4068370993028
 30
0.0
 10
542.9410613337329
 20
474.4123996481879
 30
0.0
 10
542.7930588563312
 20
474.4234987828779
 30
0.0
 10
542.5716695623294
 20
474.4388019059439
 30
0.0
 10
542.351618521472
 20
474.4530496717089
 30
0.0
 10
542.1328939125315
 20
474.4661506921149
 30
0.0
 10
541.9155023704135
 20
474.4781287154618
 30
0.0
 10
541.6994439131568
 20
474.4889767403241
 30
0.0
 10
541.4847257929122
 20
474.498696281817
 30
0.0
 10
541.271331262767
 20
474.5072859418154
 30
0.0
 10
540.819007767033
 20
474.523206691166
 30
0.0
 10
540.1576746441445
 20
474.5369576973926
 30
0.0
 10
539.38216757211
 20
474.5292119692318
 30
0.0
 10
538.7455788770301
 20
474.4963618261436
 30
0.0
 10
538.3710458251421
 20
474.4500049126024
 30
0.0
 10
538.1629906912299
 20
474.4064166326802
 30
0.0
 10
538.0544290403412
 20
474.3741190400302
 30
0.0
 10
537.9785824806125
 20
474.338868773003
 30
0.0
 10
537.9325654355438
 20
474.3008808265678
 30
0.0
 10
537.9289590503555
 20
474.2733177942938
 30
0.0
 10
537.9271514729725
 20
474.2595027659083
 30
0.0
  0
LINE
  5
1C2
330
1F
100
AcDbEntity
  8
0
  6
CONTINUOUS
 62
     7
100
AcDbLine
 10
537.9271504705
 20
474.2595031719
 30
0.0
 11
536.0042450254
 21
475.9406894307
 31
0.0
  0
LINE
  5
1C3
330
1F
100
AcDbEntity
  8
0
  6
CONTINUOUS
 62
     7
100
AcDbLine
 10
543.0152413671
 20
474.4068365406
 30
0.0
 11
543.1503054922
 21
476.088313372
 31
0.0
  0
SPLINE
  5
1C4
330
1F
100
AcDbEntity
  8
0
  6
CONTINUOUS
 62
     7
100
AcDbSpline
210
0.0
220
0.0
230
1.0
 70
     8
 71
     3
 72
    82
 73
    78
 74
     0
 42
0.00000001
 43
0.00000001
 40
0.0
 40
0.0
 40
0.0
 40
0.0
 40
0.0133335484377087
 40
0.0266670859427516
 40
0.0400006129700221
 40
0.0533341299517832
 40
0.0666676372982909
 40
0.0800011353984545
 40
0.0933346246204388
 40
0.1066681053123273
 40
0.1200015778027377
 40
0.1333350424014988
 40
0.1466684994002477
 40
0.1600019490730669
 40
0.173335391677166
 40
0.1866688274534673
 40
0.20000225662728
 40
0.2133356794089184
 40
0.2266690959943365
 40
0.2400025065657946
 40
0.2533359112924596
 40
0.2666693103310623
 40
0.2800027038265393
 40
0.2933360919126666
 40
0.3066694747126777
 40
0.3200028523399456
 40
0.3333362248985578
 40
0.3466695924840322
 40
0.3600029551838831
 40
0.3733363130782948
 40
0.3866696662407658
 40
0.4000030147387165
 40
0.413336358634157
 40
0.4266696979843108
 40
0.4400030328422541
 40
0.4533363632575587
 40
0.4666696892769195
 40
0.480003010944799
 40
0.4933363283040802
 40
0.5066696413966596
 40
0.5200029502641479
 40
0.533336254948451
 40
0.5466695554924443
 40
0.5600028519406008
 40
0.5733361443396124
 40
0.58666943273905
 40
0.600002717192003
 40
0.6133359977556896
 40
0.6266692744921242
 40
0.6400025474687469
 40
0.6533358167590434
 40
0.6666690824432036
 40
0.6800023446087708
 40
0.6933356033512394
 40
0.7066688587747175
 40
0.7200021109925805
 40
0.7333353601280735
 40
0.7466686063149697
 40
0.7600018496982132
 40
0.7733350904345425
 40
0.786668328693126
 40
0.8000015646562273
 40
0.8133347985198062
 40
0.8266680304941758
 40
0.8400012608046488
 40
0.8533344896921473
 40
0.8666677174138641
 40
0.8800009442439021
 40
0.8933341704738875
 40
0.9066673964136217
 40
0.9200006223917365
 40
0.9333338487562961
 40
0.9466670758754574
 40
0.960000304138102
 40
0.973333533954473
 40
0.9866667657568172
 40
1.0
 40
1.0
 40
1.0
 40
1.0
 10
904.3853635304158
 20
474.4068370993308
 30
0.0
 10
902.7822594268903
 20
474.2861138363857
 30
0.0
 10
899.5760525342828
 20
474.0446674094808
 30
0.0
 10
894.7658249256702
 20
473.694837284329
 30
0.0
 10
889.954953368559
 20
473.3540405975006
 30
0.0
 10
885.1433901216259
 20
473.0231633338618
 30
0.0
 10
880.3311729284447
 20
472.7019681763975
 30
0.0
 10
875.5183166272668
 20
472.3905187928492
 30
0.0
 10
870.7048421940482
 20
472.0887981996976
 30
0.0
 10
865.8907689603978
 20
471.796811021113
 30
0.0
 10
861.0761166987563
 20
471.5145560887804
 30
0.0
 10
856.2609050636668
 20
471.2420337837475
 30
0.0
 10
851.445153741477
 20
470.9792440691839
 30
0.0
 10
846.6288824102185
 20
470.7261870175016
 30
0.0
 10
841.8121107503478
 20
470.4828626691132
 30
0.0
 10
836.994858441856
 20
470.2492710702778
 30
0.0
 10
832.1771451650384
 20
470.02541226296
 30
0.0
 10
827.3589906002773
 20
469.8112862875475
 30
0.0
 10
822.5404144280908
 20
469.6068931821227
 30
0.0
 10
817.7214363291121
 20
469.4122329826579
 30
0.0
 10
812.9020759840836
 20
469.227305722963
 30
0.0
 10
808.0823530738519
 20
469.0521114346994
 30
0.0
 10
803.2622872793582
 20
468.8866501473766
 30
0.0
 10
798.4418982816327
 20
468.7309218883528
 30
0.0
 10
793.621205761786
 20
468.584926682835
 30
0.0
 10
788.8002294010056
 20
468.4486645538788
 30
0.0
 10
783.9789888805424
 20
468.3221355223884
 30
0.0
 10
779.1575038817099
 20
468.205339607117
 30
0.0
 10
774.3357940858721
 20
468.098276824666
 30
0.0
 10
769.5138791744399
 20
468.000947189486
 30
0.0
 10
764.6917788288628
 20
467.913350713876
 30
0.0
 10
759.8695127306203
 20
467.8354874079837
 30
0.0
 10
755.0471005612173
 20
467.7673572798057
 30
0.0
 10
750.2245620021743
 20
467.708960335187
 30
0.0
 10
745.4019167350216
 20
467.6602965778218
 30
0.0
 10
740.5791844412922
 20
467.6213660092524
 30
0.0
 10
735.7563848025148
 20
467.5921686288704
 30
0.0
 10
730.9335375002055
 20
467.5727044339157
 30
0.0
 10
726.1106622158628
 20
467.5629734194772
 30
0.0
 10
721.2877786309568
 20
467.5629755784925
 30
0.0
 10
716.4649064269272
 20
467.5727109017476
 30
0.0
 10
711.6420652851706
 20
467.5921793778778
 30
0.0
 10
706.8192748870366
 20
467.6213809933666
 30
0.0
 10
701.9965549138203
 20
467.6603157325467
 30
0.0
 10
697.1739250467552
 20
467.7089835775991
 30
0.0
 10
692.351404967005
 20
467.7673845085539
 30
0.0
 10
687.5290143556573
 20
467.8355185032898
 30
0.0
 10
682.7067728937157
 20
467.9133855375346
 30
0.0
 10
677.8847002620936
 20
468.0009855848641
 30
0.0
 10
673.0628161416062
 20
468.0983186167035
 30
0.0
 10
668.2411402129652
 20
468.2053846023267
 30
0.0
 10
663.4196921567681
 20
468.3221835088561
 30
0.0
 10
658.5984916534937
 20
468.4487153012632
 30
0.0
 10
653.7775583834945
 20
468.584979942368
 30
0.0
 10
648.9569120269894
 20
468.7309773928395
 30
0.0
 10
644.1365722640564
 20
468.8867076111952
 30
0.0
 10
639.3165587746253
 20
469.0521705538018
 30
0.0
 10
634.496891238471
 20
469.2273661748745
 30
0.0
 10
629.6775893352057
 20
469.4122944264774
 30
0.0
 10
624.8586727442724
 20
469.6069552585228
 30
0.0
 10
620.0401611449374
 20
469.8113486187747
 30
0.0
 10
615.2220742162827
 20
470.0254744528348
 30
0.0
 10
610.4044316372017
 20
470.2493327041951
 30
0.0
 10
605.5872530863786
 20
470.482923314042
 30
0.0
 10
600.7705582423357
 20
470.7262462219855
 30
0.0
 10
595.9543667832202
 20
470.9793013633413
 30
0.0
 10
591.1386983875674
 20
471.2420886792712
 30
0.0
 10
586.3235727314147
 20
471.5146080789393
 30
0.0
 10
581.5090094990426
 20
471.7968595807475
 30
0.0
 10
576.6950283428545
 20
472.0888427852368
 30
0.0
 10
571.8816490330721
 20
472.3905588422481
 30
0.0
 10
567.0688908990276
 20
472.7020031093759
 30
0.0
 10
562.2567749142621
 20
473.0231925509946
 30
0.0
 10
557.4453159147959
 20
473.3540634836909
 30
0.0
 10
552.6345516409053
 20
473.6948531955569
 30
0.0
 10
547.824434351685
 20
474.044675723336
 30
0.0
 10
544.6183019990676
 20
474.2861166332806
 30
0.0
 10
543.0152356760268
 20
474.4068370993028
 30
0.0
  0
LINE
  5
1C5
330
1F
100
AcDbEntity
  8
0
  6
CONTINUOUS
 62
     7
100
AcDbLine
 10
904.3853578393
 20
474.4068365406
 30
0.0
 11
904.2502937143
 21
476.088313372
 31
0.0
  0
SPLINE
  5
1C6
330
1F
100
AcDbEntity
  8
0
  6
CONTINUOUS
 62
     7
100
AcDbSpline
210
0.0
220
0.0
230
1.0
 70
     8
 71
     3
 72
    25
 73
    21
 74
     0
 42
0.00000001
 43
0.00000001
 40
0.0
 40
0.0
 40
0.0
 40
0.0
 40
0.0278314503475971
 40
0.0555340244599188
 40
0.0831636055917767
 40
0.1107765164789408
 40
0.1384291780786453
 40
0.166177765296191
 40
0.1940778701134936
 40
0.2221841820217215
 40
0.2505501944812842
 40
0.3758752501556574
 40
0.5001556200876465
 40
0.6243550562168417
 40
0.7499206230658152
 40
0.8007690510117279
 40
0.8508771286685158
 40
0.9005654905598719
 40
0.9501629183589607
 40
1.0
 40
1.0
 40
1.0
 40
1.0
 10
909.4734477334705
 20
474.2595027659157
 30
0.0
 10
909.4732076768955
 20
474.2672775391119
 30
0.0
 10
909.4727286753508
 20
474.2827910836616
 30
0.0
 10
909.4594817468825
 20
474.3050278048794
 30
0.0
 10
909.4370359943791
 20
474.326413337426
 30
0.0
 10
909.4045052387448
 20
474.3468805594898
 30
0.0
 10
909.3621273716568
 20
474.3664475472131
 30
0.0
 10
909.3098387537417
 20
474.3851098505638
 30
0.0
 10
909.2476632444534
 20
474.4028691694945
 30
0.0
 10
909.1755786108945
 20
474.4197262268208
 30
0.0
 10
909.0006854567004
 20
474.4537891002457
 30
0.0
 10
908.6531245653011
 20
474.4965525113637
 30
0.0
 10
908.0162941909576
 20
474.5292741175621
 30
0.0
 10
907.2396560983068
 20
474.5369105329457
 30
0.0
 10
906.5242792285078
 20
474.5218875733459
 30
0.0
 10
905.9568608777311
 20
474.5007420148239
 30
0.0
 10
905.569671600334
 20
474.4828461564658
 30
0.0
 10
905.1784276503008
 20
474.4612452823236
 30
0.0
 10
904.7830753338817
 20
474.4362366808371
 30
0.0
 10
904.5181469721638
 20
474.4166526933975
 30
0.0
 10
904.3853635304158
 20
474.4068370993308
 30
0.0
  0
LINE
  5
1C7
330
1F
100
AcDbEntity
  8
0
  6
CONTINUOUS
 62
     7
100
AcDbLine
 10
909.473448736
 20
474.2595031719
 30
0.0
 11
911.3963541811
 21
475.9406894307
 31
0.0
  0
LINE
  5
1C8
330
1F
100
AcDbEntity
  8
0
  6
CONTINUOUS
 62
     7
100
AcDbLine
 10
909.4706175153
 20
474.2056224357
 30
0.0
 11
909.473448736
 21
474.2595031719
 31
0.0
  0
SPLINE
  5
1C9
330
1F
100
AcDbEntity
  8
0
  6
CONTINUOUS
 62
     7
100
AcDbSpline
210
0.0
220
0.0
230
1.0
 70
     8
 71
     3
 72
     8
 73
     4
 74
     0
 42
0.00000001
 43
0.00000001
 40
3.064432980040948
 40
3.064432980040948
 40
3.064432980040948
 40
3.064432980040948
 40
3.218752327138636
 40
3.218752327138636
 40
3.218752327138636
 40
3.218752327138636
 10
537.9299804244885
 20
474.2056223109075
 30
0.0
 10
661.5331049678014
 20
464.6496582152013
 30
0.0
 10
785.8674942386369
 20
464.6496582157302
 30
0.0
 10
909.4706187819556
 20
474.2056223109149
 30
0.0
  0
LINE
  5
1CA
330
1F
100
AcDbEntity
  8
0
  6
CONTINUOUS
 62
     7
100
AcDbLine
 10
537.9271504705
 20
474.2595031719
 30
0.0
 11
537.9299816911
 21
474.2056224357
 31
0.0
  0
LINE
  5
1CB
330
1F
100
AcDbEntity
  8
0
  6
CONTINUOUS
 62
     7
100
AcDbLine
 10
911.3963541811
 20
475.9406894307
 30
0.0
 11
911.3942382162
 21
475.9005103122
 31
0.0
  0
LINE
  5
1CC
330
1F
100
AcDbEntity
  8
0
  6
CONTINUOUS
 62
     7
100
AcDbLine
 10
911.3942382162
 20
475.9005103122
 30
0.0
 11
909.4706175153
 21
474.2056224357
 31
0.0
  0
LINE
  5
1CD
330
1F
100
AcDbEntity
  8
0
  6
CONTINUOUS
 62
     7
100
AcDbLine
 10
536.0063609903
 20
475.9005103122
 30
0.0
 11
536.0042450254
 21
475.9406894307
 31
0.0
  0
LINE
  5
1CE
330
1F
100
AcDbEntity
  8
0
  6
CONTINUOUS
 62
     7
100
AcDbLine
 10
537.9299816911
 20
474.2056224357
 30
0.0
 11
536.0063609903
 21
475.9005103122
 31
0.0
  0
LINE
  5
1CF
330
1F
100
AcDbEntity
  8
0
  6
CONTINUOUS
 62
     7
100
AcDbLine
 10
910.8765271728
 20
466.021994115
 30
0.0
 11
911.3850889032
 21
475.7257401805
 31
0.0
  0
LINE
  5
1D0
330
1F
100
AcDbEntity
  8
0
  6
CONTINUOUS
 62
     7
100
AcDbLine
 10
909.3799588506
 20
464.526327313
 30
0.0
 11
910.8765271728
 21
466.021994115
 31
0.0
  0
LINE
  5
1D1
330
1F
100
AcDbEntity
  8
0
  6
CONTINUOUS
 62
     7
100
AcDbLine
 10
906.9322345083
 20
464.1752298783
 30
0.0
 11
909.3799588506
 21
464.526327313
 31
0.0
  0
SPLINE
  5
1D2
330
1F
100
AcDbEntity
  8
0
  6
CONTINUOUS
 62
     7
100
AcDbSpline
210
0.0
220
0.0
230
1.0
 70
     8
 71
     3
 72
    12
 73
     8
 74
     0
 42
0.00000001
 43
0.00000001
 40
0.0
 40
0.0
 40
0.0
 40
0.0
 40
0.4999999999999858
 40
0.4999999999999858
 40
0.7499999999999929
 40
0.7499999999999929
 40
1.0
 40
1.0
 40
1.0
 40
1.0
 10
904.0490615215462
 20
464.6607381503789
 30
0.0
 10
904.4917578330997
 20
464.4324214866013
 30
0.0
 10
904.9694161966829
 20
464.2745274701133
 30
0.0
 10
905.6960834863786
 20
464.1523350905773
 30
0.0
 10
905.9409489940433
 20
464.1301528758401
 30
0.0
 10
906.4360941107765
 20
464.1237835011712
 30
0.0
 10
906.6856801644365
 20
464.1398638116519
 30
0.0
 10
906.9322379570187
 20
464.1752297929912
 30
0.0
  0
SPLINE
  5
1D3
330
1F
100
AcDbEntity
  8
0
  6
CONTINUOUS
 62
     7
100
AcDbSpline
210
0.0
220
0.0
230
1.0
 70
     8
 71
     3
 72
    11
 73
     7
 74
     0
 42
0.00000001
 43
0.00000001
 40
0.0
 40
0.0
 40
0.0
 40
0.0
 40
0.2209183265411157
 40
0.4765586072075344
 40
0.738279012520138
 40
1.0
 40
1.0
 40
1.0
 40
1.0
 10
881.7458746259225
 20
472.2332861135966
 30
0.0
 10
883.455012314909
 20
471.8987891324961
 30
0.0
 10
887.1419145712404
 20
471.1772219455444
 30
0.0
 10
892.7224724069023
 20
469.5085195182933
 30
0.0
 10
898.4865760486441
 20
467.3754689001588
 30
0.0
 10
902.1949029304408
 20
465.565648737446
 30
0.0
 10
904.0490684335246
 20
464.660737649656
 30
0.0
  0
LINE
  5
1D4
330
1F
100
AcDbEntity
  8
0
  6
CONTINUOUS
 62
     7
100
AcDbLine
 10
536.0063609903
 20
475.9005103122
 30
0.0
 11
537.9299816911
 21
474.2056224357
 31
0.0
  0
SPLINE
  5
1D5
330
1F
100
AcDbEntity
  8
0
  6
CONTINUOUS
 62
     7
100
AcDbSpline
210
0.0
220
0.0
230
1.0
 70
     8
 71
     3
 72
    38
 73
    34
 74
     0
 42
0.00000001
 43
0.00000001
 40
-0.0625
 40
-0.0625
 40
0.0
 40
0.0
 40
0.0625
 40
0.0625
 40
0.125
 40
0.125
 40
0.1875
 40
0.1875
 40
0.25
 40
0.25
 40
0.3125
 40
0.3125
 40
0.375
 40
0.375
 40
0.4375
 40
0.4375
 40
0.5
 40
0.5
 40
0.5625
 40
0.5625
 40
0.625
 40
0.625
 40
0.6875
 40
0.6875
 40
0.75
 40
0.75
 40
0.8125
 40
0.8125
 40
0.875
 40
0.875
 40
0.9375
 40
0.9375
 40
1.0
 40
1.0
 40
1.0625
 40
1.0625
 10
905.8895139363002
 20
471.6719716032702
 30
0.0
 10
906.6110852701498
 20
471.6719716032703
 30
0.0
 10
906.9704270542775
 20
471.6003082914308
 30
0.0
 10
907.634944243948
 20
471.3252219118406
 30
0.0
 10
907.940263673279
 20
471.1213907506203
 30
0.0
 10
908.449119598598
 20
470.6129240996919
 30
0.0
 10
908.6529942483286
 20
470.3082427675428
 30
0.0
 10
908.9288565813055
 20
469.6427346211453
 30
0.0
 10
909.0002717790882
 20
469.2831940617165
 30
0.0
 10
909.0003274109032
 20
468.5645248298292
 30
0.0
 10
908.9288441978412
 20
468.2047047669773
 30
0.0
 10
908.6533994607277
 20
467.5398530963586
 30
0.0
 10
908.4496193901663
 20
467.2349572529358
 30
0.0
 10
907.940438146286
 20
466.7259890782076
 30
0.0
 10
907.635237343119
 20
466.5222539789575
 30
0.0
 10
906.9709291059353
 20
466.2471323705312
 30
0.0
 10
906.6111700608018
 20
466.1753954036138
 30
0.0
 10
905.8905486011126
 20
466.1752488195728
 30
0.0
 10
905.5307971752155
 20
466.2467903701689
 30
0.0
 10
904.8658615367106
 20
466.5219225705434
 30
0.0
 10
904.5605642369497
 20
466.7257566522716
 30
0.0
 10
904.0518802132007
 20
467.2338870873096
 30
0.0
 10
903.8480016699627
 20
467.5382891891497
 30
0.0
 10
903.5717822796393
 20
468.204268328089
 30
0.0
 10
903.5003841419795
 20
468.5635548064652
 30
0.0
 10
903.5002152161289
 20
469.2824480331576
 30
0.0
 10
903.5717355338287
 20
469.6423814193172
 30
0.0
 10
903.846860285977
 20
470.3067814498322
 30
0.0
 10
904.0503709377195
 20
470.6116306354363
 30
0.0
 10
904.560029151767
 20
471.1212697312305
 30
0.0
 10
904.8649692604035
 20
471.3248168205368
 30
0.0
 10
905.5292760198976
 20
471.6000582714872
 30
0.0
 10
905.8895139363002
 20
471.6719716032702
 30
0.0
 10
906.6110852701498
 20
471.6719716032703
 30
0.0
  0
SPLINE
  5
1D6
330
1F
100
AcDbEntity
  8
0
  6
CONTINUOUS
 62
     7
100
AcDbSpline
210
0.0
220
0.0
230
1.0
 70
     8
 71
     3
 72
    28
 73
    24
 74
     0
 42
0.00000001
 43
0.00000001
 40
-0.1250000000000016
 40
-0.1250000000000016
 40
0.0
 40
0.0
 40
0.1249999999999924
 40
0.1249999999999924
 40
0.1874999999999932
 40
0.1874999999999932
 40
0.2499999999999939
 40
0.2499999999999939
 40
0.3124999999999947
 40
0.3124999999999947
 40
0.3749999999999954
 40
0.3749999999999954
 40
0.4999999999999961
 40
0.4999999999999961
 40
0.6249999999999968
 40
0.6249999999999968
 40
0.6874999999999969
 40
0.6874999999999969
 40
0.7499999999999969
 40
0.7499999999999969
 40
0.8749999999999984
 40
0.8749999999999984
 40
1.0
 40
1.0
 40
1.124999999999992
 40
1.124999999999992
 10
899.9879100272797
 20
469.9230376559868
 30
0.0
 10
900.5126891791704
 20
469.9230376559869
 30
0.0
 10
900.7723127331865
 20
469.8152749188284
 30
0.0
 10
901.0498705106336
 20
469.5379294728674
 30
0.0
 10
901.1240067468991
 20
469.4271362611768
 30
0.0
 10
901.224320322527
 20
469.1851332988505
 30
0.0
 10
901.250289485357
 20
469.05439127724
 30
0.0
 10
901.2503097151081
 20
468.7930570110992
 30
0.0
 10
901.224315819449
 20
468.6622133518803
 30
0.0
 10
901.1241540968623
 20
468.420449108019
 30
0.0
 10
901.0500522530218
 20
468.3095778922288
 30
0.0
 10
900.7723170290872
 20
468.0319588878317
 30
0.0
 10
900.5125473077419
 20
467.9243093259374
 30
0.0
 10
899.9884589734226
 20
467.9242027193621
 30
0.0
 10
899.7283383834429
 20
468.0320266856168
 30
0.0
 10
899.4508743704889
 20
468.3091887410921
 30
0.0
 10
899.3767367184024
 20
468.4198804144885
 30
0.0
 10
899.2762933037393
 20
468.6620546468301
 30
0.0
 10
899.2503303445903
 20
468.7927042753305
 30
0.0
 10
899.2502382032172
 20
469.1848278535263
 30
0.0
 10
899.3576604132144
 20
469.4447974684483
 30
0.0
 10
899.7283209325217
 20
469.8154440835713
 30
0.0
 10
899.9879100272797
 20
469.9230376559868
 30
0.0
 10
900.5126891791704
 20
469.9230376559869
 30
0.0
  0
LINE
  5
1D7
330
1F
100
AcDbEntity
  8
0
  6
CONTINUOUS
 62
     7
100
AcDbLine
 10
1081.2693099804
 20
664.4360346683
 30
0.0
 11
1081.2693099804
 21
664.6360306033
 31
0.0
  0
LINE
  5
1D8
330
1F
100
AcDbEntity
  8
0
  6
CONTINUOUS
 62
     7
100
AcDbLine
 10
1081.2693099804
 20
694.6360317954
 30
0.0
 11
1081.2693099804
 21
694.8360351809
 31
0.0
  0
LINE
  5
1D9
330
1F
100
AcDbEntity
  8
0
  6
CONTINUOUS
 62
     7
100
AcDbLine
 10
1076.2693100921
 20
694.8360351809
 30
0.0
 11
1076.2693100921
 21
694.6360317954
 31
0.0
  0
LINE
  5
1DA
330
1F
100
AcDbEntity
  8
0
  6
CONTINUOUS
 62
     7
100
AcDbLine
 10
1076.2693100921
 20
664.6360306033
 30
0.0
 11
1076.2693100921
 21
664.4360346683
 31
0.0
  0
LINE
  5
1DB
330
1F
100
AcDbEntity
  8
0
  6
CONTINUOUS
 62
     7
100
AcDbLine
 10
1076.2693100921
 20
894.8360307106
 30
0.0
 11
1076.2693100921
 21
894.6360347756
 31
0.0
  0
LINE
  5
1DC
330
1F
100
AcDbEntity
  8
0
  6
CONTINUOUS
 62
     7
100
AcDbLine
 10
1076.2693100921
 20
864.6360335835
 30
0.0
 11
1076.2693100921
 21
864.436030198
 31
0.0
  0
LINE
  5
1DD
330
1F
100
AcDbEntity
  8
0
  6
CONTINUOUS
 62
     7
100
AcDbLine
 10
1081.2693099804
 20
864.436030198
 30
0.0
 11
1081.2693099804
 21
864.6360335835
 31
0.0
  0
LINE
  5
1DE
330
1F
100
AcDbEntity
  8
0
  6
CONTINUOUS
 62
     7
100
AcDbLine
 10
1081.2693099804
 20
894.6360347756
 30
0.0
 11
1081.2693099804
 21
894.8360307106
 31
0.0
  0
LINE
  5
1DF
330
1F
100
AcDbEntity
  8
0
  6
CONTINUOUS
 62
     7
100
AcDbLine
 10
1097.0693101487
 20
930.2860273012
 30
0.0
 11
1097.0693101487
 21
936.4206416496
 31
0.0
  0
LINE
  5
1E0
330
1F
100
AcDbEntity
  8
0
  6
CONTINUOUS
 62
     7
100
AcDbLine
 10
1097.0693101487
 20
622.8514237293
 30
0.0
 11
1097.0693101487
 21
628.9860380777
 31
0.0
  0
LINE
  5
1E1
330
1F
100
AcDbEntity
  8
0
  6
CONTINUOUS
 62
     7
100
AcDbLine
 10
1097.0893093697
 20
628.9860380777
 30
0.0
 11
1097.0893093697
 21
930.2860273012
 31
0.0
  0
LINE
  5
1E2
330
1F
100
AcDbEntity
  8
0
  6
CONTINUOUS
 62
     7
100
AcDbLine
 10
1074.2693102299
 20
694.6360317954
 30
0.0
 11
1074.2693102299
 21
664.6360306033
 31
0.0
  0
LINE
  5
1E3
330
1F
100
AcDbEntity
  8
0
  6
CONTINUOUS
 62
     7
100
AcDbLine
 10
1074.2693102299
 20
894.6360347756
 30
0.0
 11
1074.2693102299
 21
864.6360335835
 31
0.0
  0
LINE
  5
1E4
330
1F
100
AcDbEntity
  8
0
  6
CONTINUOUS
 62
     7
100
AcDbLine
 10
1083.2693103082
 20
864.6360335835
 30
0.0
 11
1083.2693103082
 21
894.6360347756
 31
0.0
  0
LINE
  5
1E5
330
1F
100
AcDbEntity
  8
0
  6
CONTINUOUS
 62
     7
100
AcDbLine
 10
1083.2693103082
 20
664.6360306033
 30
0.0
 11
1083.2693103082
 21
694.6360317954
 31
0.0
  0
LINE
  5
1E6
330
1F
100
AcDbEntity
  8
0
  6
CONTINUOUS
 62
     7
100
AcDbLine
 10
1096.53873009
 20
617.2420157083
 30
0.0
 11
1097.0657357327
 21
622.2561521419
 31
0.0
  0
LINE
  5
1E7
330
1F
100
AcDbEntity
  8
0
  6
CONTINUOUS
 62
     7
100
AcDbLine
 10
1097.0657357327
 20
937.015913237
 30
0.0
 11
1096.53873009
 21
942.0300496706
 31
0.0
  0
LINE
  5
1E8
330
1F
100
AcDbEntity
  8
0
  6
CONTINUOUS
 62
     7
100
AcDbLine
 10
1094.8545282088
 20
615.390635837
 30
0.0
 11
1096.5410956494
 21
617.2637565025
 31
0.0
  0
LINE
  5
1E9
330
1F
100
AcDbEntity
  8
0
  6
CONTINUOUS
 62
     7
100
AcDbLine
 10
1096.5410956494
 20
942.0083088764
 30
0.0
 11
1094.8545282088
 21
943.8814295419
 31
0.0
  0
LINE
  5
1EA
330
1F
100
AcDbEntity
  8
0
  6
CONTINUOUS
 62
     7
100
AcDbLine
 10
1099.9778156481
 20
620.5176038631
 30
0.0
 11
1099.9778156481
 21
622.1551520714
 31
0.0
  0
LINE
  5
1EB
330
1F
100
AcDbEntity
  8
0
  6
CONTINUOUS
 62
     7
100
AcDbLine
 10
1073.1693101195
 20
894.8360307106
 30
0.0
 11
1073.1693101195
 21
935.5860276111
 31
0.0
  0
LINE
  5
1EC
330
1F
100
AcDbEntity
  8
0
  6
CONTINUOUS
 62
     7
100
AcDbLine
 10
1086.2403652943
 20
894.8360307106
 30
0.0
 11
1086.2403652943
 21
936.0424799808
 31
0.0
  0
LINE
  5
1ED
330
1F
100
AcDbEntity
  8
0
  6
CONTINUOUS
 62
     7
100
AcDbLine
 10
1086.2403652943
 20
894.8360307106
 30
0.0
 11
1073.1693101195
 21
894.8360307106
 31
0.0
  0
LINE
  5
1EE
330
1F
100
AcDbEntity
  8
0
  6
CONTINUOUS
 62
     7
100
AcDbLine
 10
1086.2403652943
 20
936.0424799808
 30
0.0
 11
1073.1693101195
 21
935.5860276111
 31
0.0
  0
LINE
  5
1EF
330
1F
100
AcDbEntity
  8
0
  6
CONTINUOUS
 62
     7
100
AcDbLine
 10
1086.2403652943
 20
623.2295853981
 30
0.0
 11
1086.2403652943
 21
664.4360346683
 31
0.0
  0
LINE
  5
1F0
330
1F
100
AcDbEntity
  8
0
  6
CONTINUOUS
 62
     7
100
AcDbLine
 10
1086.2403652943
 20
623.2295853981
 30
0.0
 11
1073.1693101195
 21
623.6860377678
 31
0.0
  0
LINE
  5
1F1
330
1F
100
AcDbEntity
  8
0
  6
CONTINUOUS
 62
     7
100
AcDbLine
 10
1086.2403652943
 20
664.4360346683
 30
0.0
 11
1073.1693101195
 21
664.4360346683
 31
0.0
  0
LINE
  5
1F2
330
1F
100
AcDbEntity
  8
0
  6
CONTINUOUS
 62
     7
100
AcDbLine
 10
1073.1693101195
 20
623.6860377678
 30
0.0
 11
1073.1693101195
 21
664.4360346683
 31
0.0
  0
LINE
  5
1F3
330
1F
100
AcDbEntity
  8
0
  6
CONTINUOUS
 62
     7
100
AcDbLine
 10
1086.2403652943
 20
864.436030198
 30
0.0
 11
1073.1693101195
 21
864.436030198
 31
0.0
  0
LINE
  5
1F4
330
1F
100
AcDbEntity
  8
0
  6
CONTINUOUS
 62
     7
100
AcDbLine
 10
1086.2403652943
 20
694.8360351809
 30
0.0
 11
1086.2403652943
 21
864.436030198
 31
0.0
  0
LINE
  5
1F5
330
1F
100
AcDbEntity
  8
0
  6
CONTINUOUS
 62
     7
100
AcDbLine
 10
1086.2403652943
 20
694.8360351809
 30
0.0
 11
1073.1693101195
 21
694.8360351809
 31
0.0
  0
LINE
  5
1F6
330
1F
100
AcDbEntity
  8
0
  6
CONTINUOUS
 62
     7
100
AcDbLine
 10
1073.1693101195
 20
694.8360351809
 30
0.0
 11
1073.1693101195
 21
864.436030198
 31
0.0
  0
LINE
  5
1F7
330
1F
100
AcDbEntity
  8
0
  6
CONTINUOUS
 62
     7
100
AcDbLine
 10
1089.0153219304
 20
936.1393822321
 30
0.0
 11
1089.0153219304
 21
894.8360307106
 31
0.0
  0
LINE
  5
1F8
330
1F
100
AcDbEntity
  8
0
  6
CONTINUOUS
 62
     7
100
AcDbLine
 10
1089.0153219304
 20
894.8360307106
 30
0.0
 11
1086.2403652943
 21
894.8360307106
 31
0.0
  0
LINE
  5
1F9
330
1F
100
AcDbEntity
  8
0
  6
CONTINUOUS
 62
     7
100
AcDbLine
 10
1086.2403652943
 20
936.0424799808
 30
0.0
 11
1089.0153219304
 21
936.1393822321
 31
0.0
  0
LINE
  5
1FA
330
1F
100
AcDbEntity
  8
0
  6
CONTINUOUS
 62
     7
100
AcDbLine
 10
1089.0153219304
 20
664.4360346683
 30
0.0
 11
1089.0153219304
 21
623.1326831468
 31
0.0
  0
LINE
  5
1FB
330
1F
100
AcDbEntity
  8
0
  6
CONTINUOUS
 62
     7
100
AcDbLine
 10
1089.0153219304
 20
664.4360346683
 30
0.0
 11
1086.2403652943
 21
664.4360346683
 31
0.0
  0
LINE
  5
1FC
330
1F
100
AcDbEntity
  8
0
  6
CONTINUOUS
 62
     7
100
AcDbLine
 10
1089.0153219304
 20
623.1326831468
 30
0.0
 11
1086.2403652943
 21
623.2295853981
 31
0.0
  0
LINE
  5
1FD
330
1F
100
AcDbEntity
  8
0
  6
CONTINUOUS
 62
     7
100
AcDbLine
 10
1089.0153219304
 20
864.436030198
 30
0.0
 11
1089.0153219304
 21
694.8360351809
 31
0.0
  0
LINE
  5
1FE
330
1F
100
AcDbEntity
  8
0
  6
CONTINUOUS
 62
     7
100
AcDbLine
 10
1089.0153219304
 20
864.436030198
 30
0.0
 11
1086.2403652943
 21
864.436030198
 31
0.0
  0
LINE
  5
1FF
330
1F
100
AcDbEntity
  8
0
  6
CONTINUOUS
 62
     7
100
AcDbLine
 10
1089.0153219304
 20
694.8360351809
 30
0.0
 11
1086.2403652943
 21
694.8360351809
 31
0.0
  0
LINE
  5
200
330
1F
100
AcDbEntity
  8
0
  6
CONTINUOUS
 62
     7
100
AcDbLine
 10
1089.4318205617
 20
664.4360346683
 30
0.0
 11
1089.4318205617
 21
694.8360351809
 31
0.0
  0
LINE
  5
201
330
1F
100
AcDbEntity
  8
0
  6
CONTINUOUS
 62
     7
100
AcDbLine
 10
1089.4318205617
 20
894.8360307106
 30
0.0
 11
1089.4318205617
 21
864.436030198
 31
0.0
  0
SPLINE
  5
202
330
1F
100
AcDbEntity
  8
0
  6
CONTINUOUS
 62
     7
100
AcDbSpline
210
0.0
220
0.0
230
1.0
 70
     8
 71
     3
 72
    12
 73
     8
 74
     0
 42
0.00000001
 43
0.00000001
 40
0.0
 40
0.0
 40
0.0
 40
0.0
 40
0.2853352508856713
 40
0.5028813975240217
 40
0.7203811558937765
 40
0.9340094118681589
 40
1.0
 40
1.0
 40
1.0
 40
1.0
 10
1090.027772014519
 20
927.086032737134
 30
0.0
 10
1090.032662526872
 20
927.5666002468668
 30
0.0
 10
1090.041281678131
 20
928.4135634599605
 30
0.0
 10
1090.101609930813
 20
929.403930256886
 30
0.0
 10
1090.173531647677
 20
930.0350390269441
 30
0.0
 10
1090.238923333917
 20
930.267677493108
 30
0.0
 10
1090.276013421317
 20
930.2825235929159
 30
0.0
 10
1090.284766753694
 20
930.2860273011904
 30
0.0
  0
LINE
  5
203
330
1F
100
AcDbEntity
  8
0
  6
CONTINUOUS
 62
     7
100
AcDbLine
 10
1090.0277720145
 20
632.1860326418
 30
0.0
 11
1090.0277720145
 21
927.0860327371
 31
0.0
  0
SPLINE
  5
204
330
1F
100
AcDbEntity
  8
0
  6
CONTINUOUS
 62
     7
100
AcDbSpline
210
0.0
220
0.0
230
1.0
 70
     8
 71
     3
 72
    12
 73
     8
 74
     0
 42
0.00000001
 43
0.00000001
 40
0.0
 40
0.0
 40
0.0
 40
0.0
 40
0.2834549703097019
 40
0.5008218908373007
 40
0.7181229610908342
 40
0.9317428757879617
 40
1.0
 40
1.0
 40
1.0
 40
1.0
 10
1090.284766753694
 20
628.9860380777102
 30
0.0
 10
1090.246687832124
 20
629.0454733495985
 30
0.0
 10
1090.179408159867
 20
629.1504864499758
 30
0.0
 10
1090.099740266654
 20
629.8912429926764
 30
0.0
 10
1090.048518480727
 20
630.782599573092
 30
0.0
 10
1090.029323349207
 20
631.6026065785353
 30
0.0
 10
1090.028074440434
 20
632.0722962816482
 30
0.0
 10
1090.027772014519
 20
632.1860326417665
 30
0.0
  0
LINE
  5
205
330
1F
100
AcDbEntity
  8
0
  6
CONTINUOUS
 62
     7
100
AcDbLine
 10
1089.4318205617
 20
664.4360346683
 30
0.0
 11
1089.0153219304
 21
664.4360346683
 31
0.0
  0
LINE
  5
206
330
1F
100
AcDbEntity
  8
0
  6
CONTINUOUS
 62
     7
100
AcDbLine
 10
1089.4318205617
 20
864.436030198
 30
0.0
 11
1089.0153219304
 21
864.436030198
 31
0.0
  0
LINE
  5
207
330
1F
100
AcDbEntity
  8
0
  6
CONTINUOUS
 62
     7
100
AcDbLine
 10
1089.4318205617
 20
694.8360351809
 30
0.0
 11
1089.0153219304
 21
694.8360351809
 31
0.0
  0
LINE
  5
208
330
1F
100
AcDbEntity
  8
0
  6
CONTINUOUS
 62
     7
100
AcDbLine
 10
1089.4318205617
 20
894.8360307106
 30
0.0
 11
1089.0153219304
 21
894.8360307106
 31
0.0
  0
LWPOLYLINE
  5
209
330
1F
100
AcDbEntity
  8
0
  6
CONTINUOUS
 62
     7
100
AcDbPolyline
 90
        5
 70
   128
 43
0.0
 10
1097.0693101487
 20
622.8514237293
 10
1097.0693008355
 20
622.8514237293
 10
1096.1701982967
 20
622.8828204759
 10
1093.4847911201
 20
622.9765934833
 10
1089.0153219304
 20
623.1326831468
  0
LWPOLYLINE
  5
20A
330
1F
100
AcDbEntity
  8
0
  6
CONTINUOUS
 62
     7
100
AcDbPolyline
 90
        5
 70
   128
 43
0.0
 10
1097.0693101487
 20
936.4206416496
 10
1097.0693008355
 20
936.4206416496
 10
1096.1701982967
 20
936.389244903
 10
1093.4847911201
 20
936.2954718956
 10
1089.0153219304
 20
936.1393822321
  0
LINE
  5
20B
330
1F
100
AcDbEntity
  8
0
  6
CONTINUOUS
 62
     7
100
AcDbLine
 10
1084.769310554
 20
664.4360346683
 30
0.0
 11
1084.769310554
 21
694.8360351809
 31
0.0
  0
LINE
  5
20C
330
1F
100
AcDbEntity
  8
0
  6
CONTINUOUS
 62
     7
100
AcDbLine
 10
1084.769310554
 20
894.8360307106
 30
0.0
 11
1084.769310554
 21
864.436030198
 31
0.0
  0
LINE
  5
20D
330
1F
100
AcDbEntity
  8
0
  6
CONTINUOUS
 62
     7
100
AcDbLine
 10
1090.3048293046
 20
930.2860273012
 30
0.0
 11
1090.2847667537
 21
930.2860273012
 31
0.0
  0
SPLINE
  5
20E
330
1F
100
AcDbEntity
  8
0
  6
CONTINUOUS
 62
     7
100
AcDbSpline
210
0.0
220
0.0
230
1.0
 70
     8
 71
     3
 72
    11
 73
     7
 74
     0
 42
0.00000001
 43
0.00000001
 40
0.0
 40
0.0
 40
0.0
 40
0.0
 40
0.2480800586529777
 40
0.498597928572627
 40
0.7490827310467536
 40
1.0
 40
1.0
 40
1.0
 40
1.0
 10
1090.047838290712
 20
927.086032737134
 30
0.0
 10
1090.051537172934
 20
927.5027137185798
 30
0.0
 10
1090.058971285229
 20
928.3401702854342
 30
0.0
 10
1090.119091864003
 20
929.3945191820449
 30
0.0
 10
1090.204133632157
 20
930.141234015841
 30
0.0
 10
1090.271244785672
 20
930.2377351282092
 30
0.0
 10
1090.304829304596
 20
930.2860273011904
 30
0.0
  0
LINE
  5
20F
330
1F
100
AcDbEntity
  8
0
  6
CONTINUOUS
 62
     7
100
AcDbLine
 10
1090.0478382907
 20
927.0860327371
 30
0.0
 11
1090.0277720145
 21
927.0860327371
 31
0.0
  0
LINE
  5
210
330
1F
100
AcDbEntity
  8
0
  6
CONTINUOUS
 62
     7
100
AcDbLine
 10
1090.0478382907
 20
632.1860326418
 30
0.0
 11
1090.0277720145
 21
632.1860326418
 31
0.0
  0
SPLINE
  5
211
330
1F
100
AcDbEntity
  8
0
  6
CONTINUOUS
 62
     7
100
AcDbSpline
210
0.0
220
0.0
230
1.0
 70
     8
 71
     3
 72
    11
 73
     7
 74
     0
 42
0.00000001
 43
0.00000001
 40
0.0
 40
0.0
 40
0.0
 40
0.0
 40
0.248155361518775
 40
0.4986662700623602
 40
0.7491087140947804
 40
1.0
 40
1.0
 40
1.0
 40
1.0
 10
1090.304829304596
 20
628.9860380777102
 30
0.0
 10
1090.271592622832
 20
629.0316467882601
 30
0.0
 10
1090.204803769175
 20
629.123297137594
 30
0.0
 10
1090.119956237997
 20
629.8668485578561
 30
0.0
 10
1090.059584135435
 20
630.9234663809669
 30
0.0
 10
1090.051755908479
 20
631.7649261031098
 30
0.0
 10
1090.047838290712
 20
632.1860326417665
 30
0.0
  0
LINE
  5
212
330
1F
100
AcDbEntity
  8
0
  6
CONTINUOUS
 62
     7
100
AcDbLine
 10
1090.3048293046
 20
628.9860380777
 30
0.0
 11
1090.2847667537
 21
628.9860380777
 31
0.0
  0
LINE
  5
213
330
1F
100
AcDbEntity
  8
0
  6
CONTINUOUS
 62
     7
100
AcDbLine
 10
1090.7152650259
 20
628.9860380777
 30
0.0
 11
1097.0893093697
 21
628.9860380777
 31
0.0
  0
LINE
  5
214
330
1F
100
AcDbEntity
  8
0
  6
CONTINUOUS
 62
     7
100
AcDbLine
 10
1090.0478382907
 20
632.1860326418
 30
0.0
 11
1090.0478382907
 21
927.0860327371
 31
0.0
  0
LINE
  5
215
330
1F
100
AcDbEntity
  8
0
  6
CONTINUOUS
 62
     7
100
AcDbLine
 10
1090.7152650259
 20
930.2860273012
 30
0.0
 11
1097.0893093697
 21
930.2860273012
 31
0.0
  0
LINE
  5
216
330
1F
100
AcDbEntity
  8
0
  6
CONTINUOUS
 62
     7
100
AcDbLine
 10
1071.869310116
 20
623.1360359081
 30
0.0
 11
1071.869310116
 21
622.1860272773
 31
0.0
  0
LINE
  5
217
330
1F
100
AcDbEntity
  8
0
  6
CONTINUOUS
 62
     7
100
AcDbLine
 10
1088.1636963538
 20
622.1860272773
 30
0.0
 11
1088.2038754723
 21
622.5656194576
 31
0.0
  0
LINE
  5
218
330
1F
100
AcDbEntity
  8
0
  6
CONTINUOUS
 62
     7
100
AcDbLine
 10
1088.1600641958
 20
622.1860272773
 30
0.0
 11
1071.869310116
 21
622.1860272773
 31
0.0
  0
LINE
  5
219
330
1F
100
AcDbEntity
  8
0
  6
CONTINUOUS
 62
     7
100
AcDbLine
 10
1088.2038754723
 20
622.5656194576
 30
0.0
 11
1071.869310116
 21
623.1360359081
 31
0.0
  0
LINE
  5
21A
330
1F
100
AcDbEntity
  8
0
  6
CONTINUOUS
 62
     7
100
AcDbLine
 10
1071.869310116
 20
937.0860381016
 30
0.0
 11
1071.869310116
 21
936.1360294708
 31
0.0
  0
LINE
  5
21B
330
1F
100
AcDbEntity
  8
0
  6
CONTINUOUS
 62
     7
100
AcDbLine
 10
1088.1636963538
 20
937.0860381016
 30
0.0
 11
1071.869310116
 21
937.0860381016
 31
0.0
  0
LINE
  5
21C
330
1F
100
AcDbEntity
  8
0
  6
CONTINUOUS
 62
     7
100
AcDbLine
 10
1088.2038754723
 20
936.7064459213
 30
0.0
 11
1088.1636963538
 21
937.0860381016
 31
0.0
  0
LINE
  5
21D
330
1F
100
AcDbEntity
  8
0
  6
CONTINUOUS
 62
     7
100
AcDbLine
 10
1071.869310116
 20
936.1360294708
 30
0.0
 11
1088.2038754723
 21
936.7064459213
 31
0.0
  0
LINE
  5
21E
330
1F
100
AcDbEntity
  8
0
  6
CONTINUOUS
 62
     7
100
AcDbLine
 10
1071.869310116
 20
622.1860272773
 30
0.0
 11
1071.869310116
 21
614.186025966
 31
0.0
  0
SPLINE
  5
21F
330
1F
100
AcDbEntity
  8
0
  6
CONTINUOUS
 62
     7
100
AcDbSpline
210
0.0
220
0.0
230
1.0
 70
     8
 71
     3
 72
    39
 73
    35
 74
     0
 42
0.00000001
 43
0.00000001
 40
0.0
 40
0.0
 40
0.0
 40
0.0
 40
0.0244557828681348
 40
0.0488462212263652
 40
0.0731713818355343
 40
0.0974313345561546
 40
0.1216261523720997
 40
0.1457559114144416
 40
0.1698206909854093
 40
0.1938205735825011
 40
0.2177556449227125
 40
0.2416259939669032
 40
0.2654317129442863
 40
0.2891728973770455
 40
0.3128496461050616
 40
0.3364620613107636
 40
0.360010248544101
 40
0.3834943167475974
 40
0.4069143782815424
 40
0.4302705489492563
 40
0.4535629480224731
 40
0.4767916982667956
 40
0.4999569259672399
 40
0.5423761476154498
 40
0.5854022191398156
 40
0.6290356815562349
 40
0.6732769667762879
 40
0.7181264013541148
 40
0.7635842100025342
 40
0.8096505188943137
 40
0.8563253587633899
 40
0.9036086678197496
 40
0.9515002944906557
 40
1.0
 40
1.0
 40
1.0
 40
1.0
 10
1088.016072536899
 20
615.0322486505429
 30
0.0
 10
1088.011162884401
 20
615.0330064362906
 30
0.0
 10
1088.001356697727
 20
615.034519983024
 30
0.0
 10
1087.987748005564
 20
615.0501699714147
 30
0.0
 10
1087.974971128277
 20
615.0754990199742
 30
0.0
 10
1087.963103049708
 20
615.1113487316626
 30
0.0
 10
1087.952123225095
 20
615.1573307322395
 30
0.0
 10
1087.942037137434
 20
615.213366896978
 30
0.0
 10
1087.932843323664
 20
615.2792789139934
 30
0.0
 10
1087.924542174422
 20
615.3548984433106
 30
0.0
 10
1087.917133585656
 20
615.4400383603005
 30
0.0
 10
1087.910617585337
 20
615.5345010858853
 30
0.0
 10
1087.904994166202
 20
615.6380770323563
 30
0.0
 10
1087.900263330429
 20
615.750545698492
 30
0.0
 10
1087.89642507755
 20
615.8716760668996
 30
0.0
 10
1087.893479408305
 20
616.0012271979692
 30
0.0
 10
1087.891426321281
 20
616.1389487702703
 30
0.0
 10
1087.890265822464
 20
616.2845816698565
 30
0.0
 10
1087.889997890522
 20
616.437858461554
 30
0.0
 10
1087.890622605652
 20
616.5985042988573
 30
0.0
 10
1087.89213967071
 20
616.7662362140419
 30
0.0
 10
1087.894550191067
 20
616.9407684298822
 30
0.0
 10
1087.898767306378
 20
617.1721143743064
 30
0.0
 10
1087.905954054618
 20
617.4699811012713
 30
0.0
 10
1087.917529384851
 20
617.845390571271
 30
0.0
 10
1087.932252907096
 20
618.2463592852715
 30
0.0
 10
1087.950126336304
 20
618.6717702376463
 30
0.0
 10
1087.971149486601
 20
619.1202735842786
 30
0.0
 10
1087.995321403798
 20
619.5902655197153
 30
0.0
 10
1088.022646249584
 20
620.0798858251435
 30
0.0
 10
1088.053108110777
 20
620.5870170396339
 30
0.0
 10
1088.086767639777
 20
621.109270451657
 30
0.0
 10
1088.123394118903
 20
621.6440385642439
 30
0.0
 10
1088.150205758134
 20
622.0046097672357
 30
0.0
 10
1088.163696147545
 20
622.1860326894498
 30
0.0
  0
LINE
  5
220
330
1F
100
AcDbEntity
  8
0
  6
CONTINUOUS
 62
     7
100
AcDbLine
 10
1088.0160724125
 20
615.0322480091
 30
0.0
 11
1071.869310116
 21
614.186025966
 31
0.0
  0
LINE
  5
221
330
1F
100
AcDbEntity
  8
0
  6
CONTINUOUS
 62
     7
100
AcDbLine
 10
1071.869310116
 20
945.0860394129
 30
0.0
 11
1071.869310116
 21
937.0860381016
 31
0.0
  0
LINE
  5
222
330
1F
100
AcDbEntity
  8
0
  6
CONTINUOUS
 62
     7
100
AcDbLine
 10
1088.0187285445
 20
944.2396832594
 30
0.0
 11
1071.869310116
 21
945.0860394129
 31
0.0
  0
SPLINE
  5
223
330
1F
100
AcDbEntity
  8
0
  6
CONTINUOUS
 62
     7
100
AcDbSpline
210
0.0
220
0.0
230
1.0
 70
     8
 71
     3
 72
    40
 73
    36
 74
     0
 42
0.00000001
 43
0.00000001
 40
0.0
 40
0.0
 40
0.0
 40
0.0
 40
0.0243176931545599
 40
0.0484824815400229
 40
0.0724943275995459
 40
0.0963531990848466
 40
0.1200590691314142
 40
0.1436119163360315
 40
0.1670117248366804
 40
0.1902584843949247
 40
0.2133521904808694
 40
0.2362928443607676
 40
0.2590804531873949
 40
0.2817150300932608
 40
0.3041965942867923
 40
0.3265251711515812
 40
0.3487007923488012
 40
0.370723495922926
 40
0.3925933264108586
 40
0.4143103349546023
 40
0.4358745794175944
 40
0.45728612450486
 40
0.4785450418870987
 40
0.4996514103288701
 40
0.5439796654345954
 40
0.5885372473810897
 40
0.6333250022233019
 40
0.6783437303168249
 40
0.7235941869480345
 40
0.7690770829598934
 40
0.8147930853729675
 40
0.8607428180013262
 40
0.9069268620629779
 40
0.9533457567845625
 40
1.0
 40
1.0
 40
1.0
 40
1.0
 10
1088.163696148192
 20
937.0860326894502
 30
0.0
 10
1088.156872599013
 20
937.1769729206751
 30
0.0
 10
1088.143268405761
 20
937.3582815692208
 30
0.0
 10
1088.123758727607
 20
937.6291035036772
 30
0.0
 10
1088.104989089777
 20
937.8975119317441
 30
0.0
 10
1088.087018127416
 20
938.1631463176194
 30
0.0
 10
1088.069830278152
 20
938.4256515669565
 30
0.0
 10
1088.053429671552
 20
938.6846912893349
 30
0.0
 10
1088.037815211286
 20
938.9399444930006
 30
0.0
 10
1088.022987187795
 20
939.1911066174652
 30
0.0
 10
1088.008945523538
 20
939.4378893581832
 30
0.0
 10
1087.995690238607
 20
939.6800207573683
 30
0.0
 10
1087.983221327185
 20
939.9172451722288
 30
0.0
 10
1087.971538790337
 20
940.1493232261689
 30
0.0
 10
1087.960642627261
 20
940.3760317176033
 30
0.0
 10
1087.950532837785
 20
940.5971634949427
 30
0.0
 10
1087.941209421073
 20
940.8125273004201
 30
0.0
 10
1087.93267237828
 20
941.0219475755035
 30
0.0
 10
1087.924921703332
 20
941.2252642656929
 30
0.0
 10
1087.917957416819
 20
941.4223324938058
 30
0.0
 10
1087.911779440868
 20
941.6130225943947
 30
0.0
 10
1087.906388061196
 20
941.7972186990133
 30
0.0
 10
1087.901782221019
 20
941.9748225657764
 30
0.0
 10
1087.896556991652
 20
942.2088315503728
 30
0.0
 10
1087.891962220485
 20
942.4907798119958
 30
0.0
 10
1087.889660385983
 20
942.8068778753159
 30
0.0
 10
1087.890618863731
 20
943.0962357934716
 30
0.0
 10
1087.894835704414
 20
943.3569410113332
 30
0.0
 10
1087.902311772849
 20
943.5871994776465
 30
0.0
 10
1087.913045534075
 20
943.7853577088625
 30
0.0
 10
1087.92704226979
 20
943.949817552657
 30
0.0
 10
1087.944282223515
 20
944.0794425225383
 30
0.0
 10
1087.964839639372
 20
944.1720899431086
 30
0.0
 10
1087.988435306441
 20
944.2301957183472
 30
0.0
 10
1088.006844611504
 20
944.2366043232515
 30
0.0
 10
1088.016072539291
 20
944.2398167282323
 30
0.0
  0
LINE
  5
224
330
1F
100
AcDbEntity
  8
0
  6
CONTINUOUS
 62
     7
100
AcDbLine
 10
1075.3494814351
 20
664.6360306033
 30
0.0
 11
1075.3494814351
 21
694.6360317954
 31
0.0
  0
LINE
  5
225
330
1F
100
AcDbEntity
  8
0
  6
CONTINUOUS
 62
     7
100
AcDbLine
 10
1075.3494814351
 20
664.6360306033
 30
0.0
 11
1074.2693102299
 21
664.6360306033
 31
0.0
  0
LINE
  5
226
330
1F
100
AcDbEntity
  8
0
  6
CONTINUOUS
 62
     7
100
AcDbLine
 10
1075.3494814351
 20
694.6360317954
 30
0.0
 11
1074.2693102299
 21
694.6360317954
 31
0.0
  0
LINE
  5
227
330
1F
100
AcDbEntity
  8
0
  6
CONTINUOUS
 62
     7
100
AcDbLine
 10
1075.3494814351
 20
894.6360347756
 30
0.0
 11
1075.3494814351
 21
864.6360335835
 31
0.0
  0
LINE
  5
228
330
1F
100
AcDbEntity
  8
0
  6
CONTINUOUS
 62
     7
100
AcDbLine
 10
1075.3494814351
 20
894.6360347756
 30
0.0
 11
1074.2693102299
 21
894.6360347756
 31
0.0
  0
LINE
  5
229
330
1F
100
AcDbEntity
  8
0
  6
CONTINUOUS
 62
     7
100
AcDbLine
 10
1075.3494814351
 20
864.6360335835
 30
0.0
 11
1074.2693102299
 21
864.6360335835
 31
0.0
  0
LINE
  5
22A
330
1F
100
AcDbEntity
  8
0
  6
CONTINUOUS
 62
     7
100
AcDbLine
 10
1076.7000789135
 20
664.6360306033
 30
0.0
 11
1076.7000789135
 21
694.6360317954
 31
0.0
  0
LINE
  5
22B
330
1F
100
AcDbEntity
  8
0
  6
CONTINUOUS
 62
     7
100
AcDbLine
 10
1076.7000789135
 20
664.6360306033
 30
0.0
 11
1075.3494814351
 21
664.6360306033
 31
0.0
  0
LINE
  5
22C
330
1F
100
AcDbEntity
  8
0
  6
CONTINUOUS
 62
     7
100
AcDbLine
 10
1076.7000789135
 20
694.6360317954
 30
0.0
 11
1075.3494814351
 21
694.6360317954
 31
0.0
  0
LINE
  5
22D
330
1F
100
AcDbEntity
  8
0
  6
CONTINUOUS
 62
     7
100
AcDbLine
 10
1076.7000789135
 20
894.6360347756
 30
0.0
 11
1076.7000789135
 21
864.6360335835
 31
0.0
  0
LINE
  5
22E
330
1F
100
AcDbEntity
  8
0
  6
CONTINUOUS
 62
     7
100
AcDbLine
 10
1076.7000789135
 20
894.6360347756
 30
0.0
 11
1075.3494814351
 21
894.6360347756
 31
0.0
  0
LINE
  5
22F
330
1F
100
AcDbEntity
  8
0
  6
CONTINUOUS
 62
     7
100
AcDbLine
 10
1076.7000789135
 20
864.6360335835
 30
0.0
 11
1075.3494814351
 21
864.6360335835
 31
0.0
  0
LINE
  5
230
330
1F
100
AcDbEntity
  8
0
  6
CONTINUOUS
 62
     7
100
AcDbLine
 10
1082.1891391031
 20
894.6360347756
 30
0.0
 11
1082.1891391031
 21
864.6360335835
 31
0.0
  0
LINE
  5
231
330
1F
100
AcDbEntity
  8
0
  6
CONTINUOUS
 62
     7
100
AcDbLine
 10
1083.2693103082
 20
894.6360347756
 30
0.0
 11
1082.1891391031
 21
894.6360347756
 31
0.0
  0
LINE
  5
232
330
1F
100
AcDbEntity
  8
0
  6
CONTINUOUS
 62
     7
100
AcDbLine
 10
1083.2693103082
 20
864.6360335835
 30
0.0
 11
1082.1891391031
 21
864.6360335835
 31
0.0
  0
LINE
  5
233
330
1F
100
AcDbEntity
  8
0
  6
CONTINUOUS
 62
     7
100
AcDbLine
 10
1080.8385416246
 20
894.6360347756
 30
0.0
 11
1080.8385416246
 21
864.6360335835
 31
0.0
  0
LINE
  5
234
330
1F
100
AcDbEntity
  8
0
  6
CONTINUOUS
 62
     7
100
AcDbLine
 10
1082.1891391031
 20
894.6360347756
 30
0.0
 11
1080.8385416246
 21
894.6360347756
 31
0.0
  0
LINE
  5
235
330
1F
100
AcDbEntity
  8
0
  6
CONTINUOUS
 62
     7
100
AcDbLine
 10
1082.1891391031
 20
864.6360335835
 30
0.0
 11
1080.8385416246
 21
864.6360335835
 31
0.0
  0
LINE
  5
236
330
1F
100
AcDbEntity
  8
0
  6
CONTINUOUS
 62
     7
100
AcDbLine
 10
1082.1891391031
 20
664.6360306033
 30
0.0
 11
1082.1891391031
 21
694.6360317954
 31
0.0
  0
LINE
  5
237
330
1F
100
AcDbEntity
  8
0
  6
CONTINUOUS
 62
     7
100
AcDbLine
 10
1083.2693103082
 20
664.6360306033
 30
0.0
 11
1082.1891391031
 21
664.6360306033
 31
0.0
  0
LINE
  5
238
330
1F
100
AcDbEntity
  8
0
  6
CONTINUOUS
 62
     7
100
AcDbLine
 10
1083.2693103082
 20
694.6360317954
 30
0.0
 11
1082.1891391031
 21
694.6360317954
 31
0.0
  0
LINE
  5
239
330
1F
100
AcDbEntity
  8
0
  6
CONTINUOUS
 62
     7
100
AcDbLine
 10
1080.8385416246
 20
664.6360306033
 30
0.0
 11
1080.8385416246
 21
694.6360317954
 31
0.0
  0
LINE
  5
23A
330
1F
100
AcDbEntity
  8
0
  6
CONTINUOUS
 62
     7
100
AcDbLine
 10
1082.1891391031
 20
664.6360306033
 30
0.0
 11
1080.8385416246
 21
664.6360306033
 31
0.0
  0
LINE
  5
23B
330
1F
100
AcDbEntity
  8
0
  6
CONTINUOUS
 62
     7
100
AcDbLine
 10
1082.1891391031
 20
694.6360317954
 30
0.0
 11
1080.8385416246
 21
694.6360317954
 31
0.0
  0
LINE
  5
23C
330
1F
100
AcDbEntity
  8
0
  6
CONTINUOUS
 62
     7
100
AcDbLine
 10
1089.8987633488
 20
622.5064320453
 30
0.0
 11
1089.8448826126
 21
621.997408379
 31
0.0
  0
LINE
  5
23D
330
1F
100
AcDbEntity
  8
0
  6
CONTINUOUS
 62
     7
100
AcDbLine
 10
1088.1636963538
 20
622.1860272773
 30
0.0
 11
1089.8448826126
 21
621.997408379
 31
0.0
  0
LINE
  5
23E
330
1F
100
AcDbEntity
  8
0
  6
CONTINUOUS
 62
     7
100
AcDbLine
 10
1088.2038754723
 20
622.5656194576
 30
0.0
 11
1089.8987633488
 21
622.5064320453
 31
0.0
  0
SPLINE
  5
23F
330
1F
100
AcDbEntity
  8
0
  6
CONTINUOUS
 62
     7
100
AcDbSpline
210
0.0
220
0.0
230
1.0
 70
     8
 71
     3
 72
    25
 73
    21
 74
     0
 42
0.00000001
 43
0.00000001
 40
0.0
 40
0.0
 40
0.0
 40
0.0
 40
0.0278314503517833
 40
0.0555340244672612
 40
0.0831636056012728
 40
0.1107765164895836
 40
0.1384291780893338
 40
0.166177765305946
 40
0.1940778701214663
 40
0.2221841820268235
 40
0.250550194482557
 40
0.3758752503498259
 40
0.5001556200960056
 40
0.6243550564712113
 40
0.7499206230700701
 40
0.8007690510546578
 40
0.85087712873154
 40
0.9005654906229615
 40
0.9501629184007793
 40
1.0
 40
1.0
 40
1.0
 40
1.0
 10
1089.844883017996
 20
621.9974108193011
 30
0.0
 10
1089.837108244799
 20
621.9234838013751
 30
0.0
 10
1089.821594700247
 20
621.7759720917662
 30
0.0
 10
1089.799357979022
 20
621.555287027934
 30
0.0
 10
1089.777972446466
 20
621.3359063875057
 30
0.0
 10
1089.757505224391
 20
621.1178170333533
 30
0.0
 10
1089.737938236653
 20
620.9010262581118
 30
0.0
 10
1089.719275933285
 20
620.6855342450351
 30
0.0
 10
1089.701516614336
 20
620.4713484543056
 30
0.0
 10
1089.684659556988
 20
620.2584527393911
 30
0.0
 10
1089.650596683475
 20
619.8068194932284
 30
0.0
 10
1089.60783327219
 20
619.1460286664433
 30
0.0
 10
1089.575111665833
 20
618.3695422835419
 30
0.0
 10
1089.567475250247
 20
617.7308756776662
 30
0.0
 10
1089.582498209568
 20
617.3542254847123
 30
0.0
 10
1089.603643767917
 20
617.1445604492474
 30
0.0
 10
1089.621539626155
 20
617.0349672839025
 30
0.0
 10
1089.643140500165
 20
616.9582166200557
 30
0.0
 10
1089.668149101504
 20
616.9114114957439
 30
0.0
 10
1089.687733088841
 20
616.9073867648478
 30
0.0
 10
1089.697548682854
 20
616.905369549262
 30
0.0
  0
LINE
  5
240
330
1F
100
AcDbEntity
  8
0
  6
CONTINUOUS
 62
     7
100
AcDbLine
 10
1088.0160724125
 20
615.0322480091
 30
0.0
 11
1089.6975492439
 21
616.9053686746
 31
0.0
  0
SPLINE
  5
241
330
1F
100
AcDbEntity
  8
0
  6
CONTINUOUS
 62
     7
100
AcDbSpline
210
0.0
220
0.0
230
1.0
 70
     8
 71
     3
 72
    25
 73
    21
 74
     0
 42
0.00000001
 43
0.00000001
 40
0.0
 40
0.0
 40
0.0
 40
0.0
 40
0.0278494509731914
 40
0.055568915218389
 40
0.0832149688747453
 40
0.1108446383659251
 40
0.1385150507442023
 40
0.1662830809422648
 40
0.1942050067292066
 40
0.2223361816266991
 40
0.2507307348024004
 40
0.3760654099921995
 40
0.5004013040947741
 40
0.6245413315962219
 40
0.7500783067243206
 40
0.8008748423687091
 40
0.850945130707065
 40
0.9006059963717967
 40
0.950182150939987
 40
1.0
 40
1.0
 40
1.0
 40
1.0
 10
1089.6975486852
 20
942.3666958295134
 30
0.0
 10
1089.691986136315
 20
942.3663377993807
 30
0.0
 10
1089.680887001625
 20
942.3656234102136
 30
0.0
 10
1089.665583878559
 20
942.351977117706
 30
0.0
 10
1089.651336112794
 20
942.3290988321517
 30
0.0
 10
1089.638235092388
 20
942.2960988957208
 30
0.0
 10
1089.626257069041
 20
942.2532158405877
 30
0.0
 10
1089.615409044179
 20
942.2003856269091
 30
0.0
 10
1089.605689502686
 20
942.1376319230353
 30
0.0
 10
1089.597099842688
 20
942.0649326571684
 30
0.0
 10
1089.581179093337
 20
941.8887638576065
 30
0.0
 10
1089.56742808711
 20
941.5392587448492
 30
0.0
 10
1089.575173815271
 20
940.9003717103138
 30
0.0
 10
1089.608023958359
 20
940.1228377077559
 30
0.0
 10
1089.654380871901
 20
939.408157725356
 30
0.0
 10
1089.697969151823
 20
938.8417674069088
 30
0.0
 10
1089.730266744473
 20
938.4555527390901
 30
0.0
 10
1089.7655170115
 20
938.0653645388938
 30
0.0
 10
1089.803504957935
 20
937.6711459417323
 30
0.0
 10
1089.831067990209
 20
937.4070324335605
 30
0.0
 10
1089.844883018595
 20
937.2746545595992
 30
0.0
  0
LINE
  5
242
330
1F
100
AcDbEntity
  8
0
  6
CONTINUOUS
 62
     7
100
AcDbLine
 10
1089.8448826126
 20
937.2746569999
 30
0.0
 11
1088.1636963538
 21
937.0860381016
 31
0.0
  0
LINE
  5
243
330
1F
100
AcDbEntity
  8
0
  6
CONTINUOUS
 62
     7
100
AcDbLine
 10
1089.6975492439
 20
942.3666967043
 30
0.0
 11
1088.0160724125
 21
944.2398173698
 31
0.0
  0
LINE
  5
244
330
1F
100
AcDbEntity
  8
0
  6
CONTINUOUS
 62
     7
100
AcDbLine
 10
1089.8448826126
 20
937.2746569999
 30
0.0
 11
1089.8987633488
 21
936.7656333336
 31
0.0
  0
LINE
  5
245
330
1F
100
AcDbEntity
  8
0
  6
CONTINUOUS
 62
     7
100
AcDbLine
 10
1089.8987633488
 20
936.7656333336
 30
0.0
 11
1088.2038754723
 21
936.7064459213
 31
0.0
  0
SPLINE
  5
246
330
1F
100
AcDbEntity
  8
0
  6
CONTINUOUS
 62
     7
100
AcDbSpline
210
0.0
220
0.0
230
1.0
 70
     8
 71
     3
 72
    11
 73
     7
 74
     0
 42
0.00000001
 43
0.00000001
 40
0.0
 40
0.0
 40
0.0
 40
0.0
 40
0.2857064111118727
 40
0.5714023690826766
 40
0.8570958880099888
 40
1.0
 40
1.0
 40
1.0
 40
1.0
 10
1089.697549243947
 20
616.905368674634
 30
0.0
 10
1090.896493791831
 20
616.9681542694041
 30
0.0
 10
1093.294339021812
 20
617.0937231618075
 30
0.0
 10
1095.420080134361
 20
617.2050622827414
 30
0.0
 10
1096.510331069886
 20
617.2621513236408
 30
0.0
 10
1096.428661324866
 20
617.2578681417566
 30
0.0
 10
1096.401430790802
 20
617.2564400323611
 30
0.0
  0
SPLINE
  5
247
330
1F
100
AcDbEntity
  8
0
  6
CONTINUOUS
 62
     7
100
AcDbSpline
210
0.0
220
0.0
230
1.0
 70
     8
 71
     3
 72
    13
 73
     9
 74
     0
 42
0.00000001
 43
0.00000001
 40
0.0
 40
0.0
 40
0.0
 40
0.0
 40
0.0745888504807287
 40
0.2612225468607795
 40
0.4458417742643632
 40
0.6304609878126933
 40
0.8152305276869151
 40
1.0
 40
1.0
 40
1.0
 40
1.0
 10
1097.005833064695
 20
622.258253205655
 30
0.0
 10
1097.020798371529
 20
622.2577304498717
 30
0.0
 10
1097.073209362456
 20
622.2558996722653
 30
0.0
 10
1096.641913618892
 20
622.2709435162064
 30
0.0
 10
1095.729188549454
 20
622.3028373450652
 30
0.0
 10
1094.29079932997
 20
622.3530478529885
 30
0.0
 10
1092.406261922944
 20
622.4188751797982
 30
0.0
 10
1090.734596104999
 20
622.4772464270491
 30
0.0
 10
1089.898763348838
 20
622.5064320453386
 30
0.0
  0
SPLINE
  5
248
330
1F
100
AcDbEntity
  8
0
  6
CONTINUOUS
 62
     7
100
AcDbSpline
210
0.0
220
0.0
230
1.0
 70
     8
 71
     3
 72
    11
 73
     7
 74
     0
 42
0.00000001
 43
0.00000001
 40
0.0
 40
0.0
 40
0.0
 40
0.0
 40
0.1427946091228995
 40
0.4285063101266154
 40
0.7142388037148847
 40
1.0
 40
1.0
 40
1.0
 40
1.0
 10
1096.401430790802
 20
942.0156253465395
 30
0.0
 10
1096.428702595944
 20
942.0141937785537
 30
0.0
 10
1096.510541403891
 20
942.0098978466618
 30
0.0
 10
1095.420617572851
 20
942.0669766419929
 30
0.0
 10
1093.294938841206
 20
942.1783103059227
 30
0.0
 10
1090.89671925909
 20
942.3038991356276
 30
0.0
 10
1089.697549243947
 20
942.3666967042666
 30
0.0
  0
SPLINE
  5
249
330
1F
100
AcDbEntity
  8
0
  6
CONTINUOUS
 62
     7
100
AcDbSpline
210
0.0
220
0.0
230
1.0
 70
     8
 71
     3
 72
    13
 73
     9
 74
     0
 42
0.00000001
 43
0.00000001
 40
0.0
 40
0.0
 40
0.0
 40
0.0
 40
0.0950367212282744
 40
0.3050171886337885
 40
0.5149977277146868
 40
0.7249781796283309
 40
0.9349586244898697
 40
1.0
 40
1.0
 40
1.0
 40
1.0
 10
1089.898763348838
 20
936.7656333335619
 30
0.0
 10
1090.339734279948
 20
936.7810347692401
 30
0.0
 10
1091.755015783117
 20
936.8304651636266
 30
0.0
 10
1093.702404694259
 20
936.8984479070605
 30
0.0
 10
1095.494157635678
 20
936.9610372085145
 30
0.0
 10
1096.600007792972
 20
936.999635711146
 30
0.0
 10
1097.098556660576
 20
937.0170569170084
 30
0.0
 10
1097.017368823932
 20
937.0142279022721
 30
0.0
 10
1096.998168279906
 20
937.0135588535052
 30
0.0
  0
SPLINE
  5
24A
330
1F
100
AcDbEntity
  8
0
  6
CONTINUOUS
 62
     7
100
AcDbSpline
210
0.0
220
0.0
230
1.0
 70
     8
 71
     3
 72
    11
 73
     7
 74
     0
 42
0.00000001
 43
0.00000001
 40
0.0
 40
0.0
 40
0.0
 40
0.0
 40
0.1429933958757468
 40
0.4287089633936676
 40
0.714333137283543
 40
1.0
 40
1.0
 40
1.0
 40
1.0
 10
1094.714967658301
 20
615.3833193668108
 30
0.0
 10
1094.742201774276
 20
615.3847485825993
 30
0.0
 10
1094.823852465604
 20
615.3890335190848
 30
0.0
 10
1093.734860781091
 20
615.3319561965963
 30
0.0
 10
1091.610127829372
 20
615.2206143857809
 30
0.0
 10
1089.214150563346
 20
615.0950399291008
 30
0.0
 10
1088.016072412511
 20
615.0322480090838
 30
0.0
  0
SPLINE
  5
24B
330
1F
100
AcDbEntity
  8
0
  6
CONTINUOUS
 62
     7
100
AcDbSpline
210
0.0
220
0.0
230
1.0
 70
     8
 71
     3
 72
    11
 73
     7
 74
     0
 42
0.00000001
 43
0.00000001
 40
0.0
 40
0.0
 40
0.0
 40
0.0
 40
0.2856972743008435
 40
0.5713546404582438
 40
0.8571062825251701
 40
1.0
 40
1.0
 40
1.0
 40
1.0
 10
1088.016072412511
 20
944.2398173698167
 30
0.0
 10
1089.214272042911
 20
944.1770187174209
 30
0.0
 10
1091.610503931015
 20
944.0514301847732
 30
0.0
 10
1093.735238972786
 20
943.9400992293893
 30
0.0
 10
1094.824007284324
 20
943.883013593605
 30
0.0
 10
1094.74222927197
 20
943.8873128177197
 30
0.0
 10
1094.714967658301
 20
943.8887460120897
 30
0.0
  0
LINE
  5
24C
330
1F
100
AcDbEntity
  8
0
  6
CONTINUOUS
 62
     7
100
AcDbLine
 10
1081.8693098924
 20
622.7868271955
 30
0.0
 11
1081.8693098924
 21
623.3822179922
 31
0.0
  0
LINE
  5
24D
330
1F
100
AcDbEntity
  8
0
  6
CONTINUOUS
 62
     7
100
AcDbLine
 10
1081.8693098924
 20
935.8898473867
 30
0.0
 11
1081.8693098924
 21
936.4852381834
 31
0.0
  0
LINE
  5
24E
330
1F
100
AcDbEntity
  8
0
  6
CONTINUOUS
 62
     7
100
AcDbLine
 10
1071.869310116
 20
936.1360294708
 30
0.0
 11
1071.869310116
 21
623.1360359081
 31
0.0
  0
LINE
  5
24F
330
1F
100
AcDbEntity
  8
0
  6
CONTINUOUS
 62
     7
100
AcDbLine
 10
1099.4436481348
 20
622.1731228718
 30
0.0
 11
1099.4436481348
 21
620.4989476093
 31
0.0
  0
LWPOLYLINE
  5
250
330
1F
100
AcDbEntity
  8
0
  6
CONTINUOUS
 62
     7
100
AcDbPolyline
 90
        4
 70
   128
 43
0.0
 10
1096.7365765325
 20
620.4044146427
 10
1096.8507138393
 20
620.4084081539
 10
1098.0942883841
 20
620.4518301376
 10
1099.4436481348
 20
620.4989476093
  0
LINE
  5
251
330
1F
100
AcDbEntity
  8
0
  6
CONTINUOUS
 62
     7
100
AcDbLine
 10
1097.3756500832
 20
622.2453338989
 30
0.0
 11
1099.4436481348
 21
622.1731228718
 31
0.0
  0
LWPOLYLINE
  5
252
330
1F
100
AcDbEntity
  8
0
  6
CONTINUOUS
 62
     7
100
AcDbPolyline
 90
        8
 70
   128
 43
0.0
 10
1099.4436481348
 20
620.4989476093
 10
1099.6009317539
 20
620.5044461378
 10
1099.7317695371
 20
620.5090058931
 10
1099.8353773109
 20
620.5126268753
 10
1099.9111348144
 20
620.515279282
 10
1099.9585894249
 20
620.5169333109
 10
1099.9774580202
 20
620.517588962
 10
1099.9778156481
 20
620.5176038631
  0
SPLINE
  5
253
330
1F
100
AcDbEntity
  8
0
  6
CONTINUOUS
 62
     7
100
AcDbSpline
210
0.0
220
0.0
230
1.0
 70
     8
 71
     3
 72
     9
 73
     5
 74
     0
 42
0.00000001
 43
0.00000001
 40
0.0
 40
0.0
 40
0.0
 40
0.0
 40
0.3496685498313349
 40
1.0
 40
1.0
 40
1.0
 40
1.0
 10
1099.443648134847
 20
622.1731228717546
 30
0.0
 10
1099.556661681102
 20
622.1691734721516
 30
0.0
 10
1099.879863599918
 20
622.1578787772039
 30
0.0
 10
1099.927114050267
 20
622.1562265601
 30
0.0
 10
1099.957842504163
 20
622.1551520713549
 30
0.0
  0
LINE
  5
254
330
1F
100
AcDbEntity
  8
0
  6
CONTINUOUS
 62
     7
100
AcDbLine
 10
1639.9182835692
 20
894.8360307106
 30
0.0
 11
1639.9182835692
 21
894.6360347756
 31
0.0
  0
LINE
  5
255
330
1F
100
AcDbEntity
  8
0
  6
CONTINUOUS
 62
     7
100
AcDbLine
 10
1639.9182835692
 20
864.6360335835
 30
0.0
 11
1639.9182835692
 21
864.436030198
 31
0.0
  0
LINE
  5
256
330
1F
100
AcDbEntity
  8
0
  6
CONTINUOUS
 62
     7
100
AcDbLine
 10
1644.9182788008
 20
864.436030198
 30
0.0
 11
1644.9182788008
 21
864.6360335835
 31
0.0
  0
LINE
  5
257
330
1F
100
AcDbEntity
  8
0
  6
CONTINUOUS
 62
     7
100
AcDbLine
 10
1644.9182788008
 20
894.6360347756
 30
0.0
 11
1644.9182788008
 21
894.8360307106
 31
0.0
  0
LINE
  5
258
330
1F
100
AcDbEntity
  8
0
  6
CONTINUOUS
 62
     7
100
AcDbLine
 10
1644.9182788008
 20
664.4360346683
 30
0.0
 11
1644.9182788008
 21
664.6360306033
 31
0.0
  0
LINE
  5
259
330
1F
100
AcDbEntity
  8
0
  6
CONTINUOUS
 62
     7
100
AcDbLine
 10
1644.9182788008
 20
694.6360317954
 30
0.0
 11
1644.9182788008
 21
694.8360351809
 31
0.0
  0
LINE
  5
25A
330
1F
100
AcDbEntity
  8
0
  6
CONTINUOUS
 62
     7
100
AcDbLine
 10
1639.9182835692
 20
694.8360351809
 30
0.0
 11
1639.9182835692
 21
694.6360317954
 31
0.0
  0
LINE
  5
25B
330
1F
100
AcDbEntity
  8
0
  6
CONTINUOUS
 62
     7
100
AcDbLine
 10
1639.9182835692
 20
664.6360306033
 30
0.0
 11
1639.9182835692
 21
664.4360346683
 31
0.0
  0
ELLIPSE
  5
25C
330
1F
100
AcDbEntity
  8
0
  6
CONTINUOUS
 62
     7
100
AcDbEllipse
 10
1273.4578899666
 20
624.7931761522
 30
0.0
 11
4.5
 21
0.0
 31
0.0
210
0.0
220
0.0
230
1.0
 40
0.0349207695
 41
4.71238898038469
 42
6.230825429619871
  0
LINE
  5
25D
330
1F
100
AcDbEntity
  8
0
  6
CONTINUOUS
 62
     7
100
AcDbLine
 10
1273.4578857297
 20
624.6360314974
 30
0.0
 11
1271.1191782826
 21
624.6360314974
 31
0.0
  0
LINE
  5
25E
330
1F
100
AcDbEntity
  8
0
  6
CONTINUOUS
 62
     7
100
AcDbLine
 10
1271.1191782826
 20
624.6360314974
 30
0.0
 11
1271.7271009558
 21
625.0411195644
 31
0.0
  0
LINE
  5
25F
330
1F
100
AcDbEntity
  8
0
  6
CONTINUOUS
 62
     7
100
AcDbLine
 10
1271.7271009558
 20
625.0411195644
 30
0.0
 11
1278.768272149
 21
625.0411195644
 31
0.0
  0
LINE
  5
260
330
1F
100
AcDbEntity
  8
0
  6
CONTINUOUS
 62
     7
100
AcDbLine
 10
1636.0682854527
 20
625.0411195644
 30
0.0
 11
1643.1052098149
 21
625.0411195644
 31
0.0
  0
LINE
  5
261
330
1F
100
AcDbEntity
  8
0
  6
CONTINUOUS
 62
     7
100
AcDbLine
 10
1643.1052098149
 20
625.0411195644
 30
0.0
 11
1643.7131324881
 21
624.6360314974
 31
0.0
  0
LINE
  5
262
330
1F
100
AcDbEntity
  8
0
  6
CONTINUOUS
 62
     7
100
AcDbLine
 10
1643.7131324881
 20
624.6360314974
 30
0.0
 11
1641.3744250411
 21
624.6360314974
 31
0.0
  0
ELLIPSE
  5
263
330
1F
100
AcDbEntity
  8
0
  6
CONTINUOUS
 62
     7
100
AcDbEllipse
 10
1641.3744177775
 20
624.7931761522
 30
0.0
 11
4.5
 21
0.0
 31
0.0
210
0.0
220
0.0
230
1.0
 40
0.0349207695
 41
3.193952531150297
 42
4.71238898038469
  0
LINE
  5
264
330
1F
100
AcDbEntity
  8
0
  6
CONTINUOUS
 62
     7
100
AcDbLine
 10
1636.8805775517
 20
624.7849537023
 30
0.0
 11
1636.5695158118
 21
624.9922288545
 31
0.0
  0
LINE
  5
265
330
1F
100
AcDbEntity
  8
0
  6
CONTINUOUS
 62
     7
100
AcDbLine
 10
1636.5695158118
 20
624.9922288545
 30
0.0
 11
1636.0682854527
 21
624.9922288545
 31
0.0
  0
LINE
  5
266
330
1F
100
AcDbEntity
  8
0
  6
CONTINUOUS
 62
     7
100
AcDbLine
 10
1278.768272149
 20
624.9922288545
 30
0.0
 11
1278.262794959
 21
624.9922288545
 31
0.0
  0
LINE
  5
267
330
1F
100
AcDbEntity
  8
0
  6
CONTINUOUS
 62
     7
100
AcDbLine
 10
1278.262794959
 20
624.9922288545
 30
0.0
 11
1277.9517183179
 21
624.7849537023
 31
0.0
  0
LINE
  5
268
330
1F
100
AcDbEntity
  8
0
  6
CONTINUOUS
 62
     7
100
AcDbLine
 10
1278.262794959
 20
934.2798365244
 30
0.0
 11
1277.9517183179
 21
934.4871116766
 31
0.0
  0
LINE
  5
269
330
1F
100
AcDbEntity
  8
0
  6
CONTINUOUS
 62
     7
100
AcDbLine
 10
1636.5695158118
 20
934.2798365244
 30
0.0
 11
1636.0682854527
 21
934.2798365244
 31
0.0
  0
LINE
  5
26A
330
1F
100
AcDbEntity
  8
0
  6
CONTINUOUS
 62
     7
100
AcDbLine
 10
1278.768272149
 20
934.2798365244
 30
0.0
 11
1278.262794959
 21
934.2798365244
 31
0.0
  0
LINE
  5
26B
330
1F
100
AcDbEntity
  8
0
  6
CONTINUOUS
 62
     7
100
AcDbLine
 10
1636.8805775517
 20
934.4871116766
 30
0.0
 11
1636.5695158118
 21
934.2798365244
 31
0.0
  0
ELLIPSE
  5
26C
330
1F
100
AcDbEntity
  8
0
  6
CONTINUOUS
 62
     7
100
AcDbEllipse
 10
1641.3744177775
 20
934.4788892267
 30
0.0
 11
4.5
 21
0.0
 31
0.0
210
0.0
220
0.0
230
1.0
 40
0.0349207695
 41
1.570796326794897
 42
3.089232776029726
  0
LINE
  5
26D
330
1F
100
AcDbEntity
  8
0
  6
CONTINUOUS
 62
     7
100
AcDbLine
 10
1643.7131324881
 20
934.6360338815
 30
0.0
 11
1641.3744250411
 21
934.6360338815
 31
0.0
  0
LINE
  5
26E
330
1F
100
AcDbEntity
  8
0
  6
CONTINUOUS
 62
     7
100
AcDbLine
 10
1643.1052098149
 20
934.2309458145
 30
0.0
 11
1643.7131324881
 21
934.6360338815
 31
0.0
  0
LINE
  5
26F
330
1F
100
AcDbEntity
  8
0
  6
CONTINUOUS
 62
     7
100
AcDbLine
 10
1271.7271009558
 20
934.2309458145
 30
0.0
 11
1278.768272149
 21
934.2309458145
 31
0.0
  0
LINE
  5
270
330
1F
100
AcDbEntity
  8
0
  6
CONTINUOUS
 62
     7
100
AcDbLine
 10
1636.0682854527
 20
934.2309458145
 30
0.0
 11
1643.1052098149
 21
934.2309458145
 31
0.0
  0
LINE
  5
271
330
1F
100
AcDbEntity
  8
0
  6
CONTINUOUS
 62
     7
100
AcDbLine
 10
1271.1191782826
 20
934.6360338815
 30
0.0
 11
1271.7271009558
 21
934.2309458145
 31
0.0
  0
LINE
  5
272
330
1F
100
AcDbEntity
  8
0
  6
CONTINUOUS
 62
     7
100
AcDbLine
 10
1273.4578857297
 20
934.6360338815
 30
0.0
 11
1271.1191782826
 21
934.6360338815
 31
0.0
  0
ELLIPSE
  5
273
330
1F
100
AcDbEntity
  8
0
  6
CONTINUOUS
 62
     7
100
AcDbEllipse
 10
1273.4578899666
 20
934.4788892267
 30
0.0
 11
4.5
 21
0.0
 31
0.0
210
0.0
220
0.0
230
1.0
 40
0.0349207695
 41
0.0523598775600731
 42
1.570796326794897
  0
LINE
  5
274
330
1F
100
AcDbEntity
  8
0
  6
CONTINUOUS
 62
     7
100
AcDbLine
 10
1268.9161608094
 20
894.8360307106
 30
0.0
 11
1268.9161608094
 21
935.5860276111
 31
0.0
  0
LINE
  5
275
330
1F
100
AcDbEntity
  8
0
  6
CONTINUOUS
 62
     7
100
AcDbLine
 10
1273.4578857297
 20
935.5860276111
 30
0.0
 11
1268.9161608094
 21
935.5860276111
 31
0.0
  0
LINE
  5
276
330
1F
100
AcDbEntity
  8
0
  6
CONTINUOUS
 62
     7
100
AcDbLine
 10
1273.4578857297
 20
935.5860276111
 30
0.0
 11
1273.4578857297
 21
934.6360338815
 31
0.0
  0
LINE
  5
277
330
1F
100
AcDbEntity
  8
0
  6
CONTINUOUS
 62
     7
100
AcDbLine
 10
1271.1191782826
 20
934.6360338815
 30
0.0
 11
1271.1191782826
 21
894.8360307106
 31
0.0
  0
LINE
  5
278
330
1F
100
AcDbEntity
  8
0
  6
CONTINUOUS
 62
     7
100
AcDbLine
 10
1271.1191782826
 20
894.8360307106
 30
0.0
 11
1268.9161608094
 21
894.8360307106
 31
0.0
  0
LINE
  5
279
330
1F
100
AcDbEntity
  8
0
  6
CONTINUOUS
 62
     7
100
AcDbLine
 10
1271.1191782826
 20
864.436030198
 30
0.0
 11
1271.1191782826
 21
694.8360351809
 31
0.0
  0
LINE
  5
27A
330
1F
100
AcDbEntity
  8
0
  6
CONTINUOUS
 62
     7
100
AcDbLine
 10
1268.9161608094
 20
694.8360351809
 30
0.0
 11
1268.9161608094
 21
864.436030198
 31
0.0
  0
LINE
  5
27B
330
1F
100
AcDbEntity
  8
0
  6
CONTINUOUS
 62
     7
100
AcDbLine
 10
1271.1191782826
 20
864.436030198
 30
0.0
 11
1268.9161608094
 21
864.436030198
 31
0.0
  0
LINE
  5
27C
330
1F
100
AcDbEntity
  8
0
  6
CONTINUOUS
 62
     7
100
AcDbLine
 10
1271.1191782826
 20
694.8360351809
 30
0.0
 11
1268.9161608094
 21
694.8360351809
 31
0.0
  0
LINE
  5
27D
330
1F
100
AcDbEntity
  8
0
  6
CONTINUOUS
 62
     7
100
AcDbLine
 10
1271.1191782826
 20
664.4360346683
 30
0.0
 11
1271.1191782826
 21
624.6360314974
 31
0.0
  0
LINE
  5
27E
330
1F
100
AcDbEntity
  8
0
  6
CONTINUOUS
 62
     7
100
AcDbLine
 10
1273.4578857297
 20
624.6360314974
 30
0.0
 11
1273.4578857297
 21
623.6860377678
 31
0.0
  0
LINE
  5
27F
330
1F
100
AcDbEntity
  8
0
  6
CONTINUOUS
 62
     7
100
AcDbLine
 10
1273.4578857297
 20
623.6860377678
 30
0.0
 11
1268.9161608094
 21
623.6860377678
 31
0.0
  0
LINE
  5
280
330
1F
100
AcDbEntity
  8
0
  6
CONTINUOUS
 62
     7
100
AcDbLine
 10
1268.9161608094
 20
623.6860377678
 30
0.0
 11
1268.9161608094
 21
664.4360346683
 31
0.0
  0
LINE
  5
281
330
1F
100
AcDbEntity
  8
0
  6
CONTINUOUS
 62
     7
100
AcDbLine
 10
1271.1191782826
 20
664.4360346683
 30
0.0
 11
1268.9161608094
 21
664.4360346683
 31
0.0
  0
LINE
  5
282
330
1F
100
AcDbEntity
  8
0
  6
CONTINUOUS
 62
     7
100
AcDbLine
 10
1645.9161499614
 20
935.5860276111
 30
0.0
 11
1641.3744250411
 21
935.5860276111
 31
0.0
  0
ELLIPSE
  5
283
330
1F
100
AcDbEntity
  8
0
  6
CONTINUOUS
 62
     7
100
AcDbEllipse
 10
1641.3744177775
 20
935.7431761522
 30
0.0
 11
4.5
 21
0.0
 31
0.0
210
0.0
220
0.0
230
1.0
 40
0.0349207695
 41
3.193952531150297
 42
4.71238898038469
  0
LINE
  5
284
330
1F
100
AcDbEntity
  8
0
  6
CONTINUOUS
 62
     7
100
AcDbLine
 10
1636.8805775517
 20
935.7349498161
 30
0.0
 11
1636.5695158118
 21
935.9422249683
 31
0.0
  0
LINE
  5
285
330
1F
100
AcDbEntity
  8
0
  6
CONTINUOUS
 62
     7
100
AcDbLine
 10
1636.5695158118
 20
935.9422249683
 30
0.0
 11
1636.0682854527
 21
935.9422249683
 31
0.0
  0
LINE
  5
286
330
1F
100
AcDbEntity
  8
0
  6
CONTINUOUS
 62
     7
100
AcDbLine
 10
1278.768272149
 20
935.9422249683
 30
0.0
 11
1278.262794959
 21
935.9422249683
 31
0.0
  0
LINE
  5
287
330
1F
100
AcDbEntity
  8
0
  6
CONTINUOUS
 62
     7
100
AcDbLine
 10
1278.262794959
 20
935.9422249683
 30
0.0
 11
1277.9517183179
 21
935.7349498161
 31
0.0
  0
ELLIPSE
  5
288
330
1F
100
AcDbEntity
  8
0
  6
CONTINUOUS
 62
     7
100
AcDbEllipse
 10
1273.4578899666
 20
935.7431761522
 30
0.0
 11
4.5
 21
0.0
 31
0.0
210
0.0
220
0.0
230
1.0
 40
0.0349207695
 41
4.71238898038469
 42
6.230825429619871
  0
LINE
  5
289
330
1F
100
AcDbEntity
  8
0
  6
CONTINUOUS
 62
     7
100
AcDbLine
 10
1272.1676388854
 20
936.1360294708
 30
0.0
 11
1269.6214178675
 21
936.0559655317
 31
0.0
  0
LINE
  5
28A
330
1F
100
AcDbEntity
  8
0
  6
CONTINUOUS
 62
     7
100
AcDbLine
 10
1645.2311286801
 20
936.0424799808
 30
0.0
 11
1642.9857770079
 21
936.1360294708
 31
0.0
  0
LINE
  5
28B
330
1F
100
AcDbEntity
  8
0
  6
CONTINUOUS
 62
     7
100
AcDbLine
 10
1645.2311286801
 20
936.0424799808
 30
0.0
 11
1645.9161499614
 21
935.5860276111
 31
0.0
  0
LINE
  5
28C
330
1F
100
AcDbEntity
  8
0
  6
CONTINUOUS
 62
     7
100
AcDbLine
 10
1268.9161608094
 20
935.5860276111
 30
0.0
 11
1269.6214178675
 21
936.0559655317
 31
0.0
  0
LINE
  5
28D
330
1F
100
AcDbEntity
  8
0
  6
CONTINUOUS
 62
     7
100
AcDbLine
 10
1269.6214178675
 20
623.2160998472
 30
0.0
 11
1272.1676388854
 21
623.1360359081
 31
0.0
  0
ELLIPSE
  5
28E
330
1F
100
AcDbEntity
  8
0
  6
CONTINUOUS
 62
     7
100
AcDbEllipse
 10
1273.4578899666
 20
623.5288892267
 30
0.0
 11
4.5
 21
0.0
 31
0.0
210
0.0
220
0.0
230
1.0
 40
0.0349207695
 41
0.0523598775601109
 42
1.570796326794897
  0
LINE
  5
28F
330
1F
100
AcDbEntity
  8
0
  6
CONTINUOUS
 62
     7
100
AcDbLine
 10
1278.262794959
 20
623.3298404106
 30
0.0
 11
1277.9517183179
 21
623.5371155628
 31
0.0
  0
LINE
  5
290
330
1F
100
AcDbEntity
  8
0
  6
CONTINUOUS
 62
     7
100
AcDbLine
 10
1636.5695158118
 20
623.3298404106
 30
0.0
 11
1636.0682854527
 21
623.3298404106
 31
0.0
  0
LINE
  5
291
330
1F
100
AcDbEntity
  8
0
  6
CONTINUOUS
 62
     7
100
AcDbLine
 10
1278.768272149
 20
623.3298404106
 30
0.0
 11
1278.262794959
 21
623.3298404106
 31
0.0
  0
LINE
  5
292
330
1F
100
AcDbEntity
  8
0
  6
CONTINUOUS
 62
     7
100
AcDbLine
 10
1636.8805775517
 20
623.5371155628
 30
0.0
 11
1636.5695158118
 21
623.3298404106
 31
0.0
  0
ELLIPSE
  5
293
330
1F
100
AcDbEntity
  8
0
  6
CONTINUOUS
 62
     7
100
AcDbEllipse
 10
1641.3744177775
 20
623.5288892267
 30
0.0
 11
4.5
 21
0.0
 31
0.0
210
0.0
220
0.0
230
1.0
 40
0.0349207695
 41
1.570796326794897
 42
3.089232776029688
  0
LINE
  5
294
330
1F
100
AcDbEntity
  8
0
  6
CONTINUOUS
 62
     7
100
AcDbLine
 10
1645.9161499614
 20
623.6860377678
 30
0.0
 11
1641.3744250411
 21
623.6860377678
 31
0.0
  0
LINE
  5
295
330
1F
100
AcDbEntity
  8
0
  6
CONTINUOUS
 62
     7
100
AcDbLine
 10
1645.2311286801
 20
623.2295853981
 30
0.0
 11
1645.9161499614
 21
623.6860377678
 31
0.0
  0
LINE
  5
296
330
1F
100
AcDbEntity
  8
0
  6
CONTINUOUS
 62
     7
100
AcDbLine
 10
1642.9857770079
 20
623.1360359081
 30
0.0
 11
1645.2311286801
 21
623.2295853981
 31
0.0
  0
LINE
  5
297
330
1F
100
AcDbEntity
  8
0
  6
CONTINUOUS
 62
     7
100
AcDbLine
 10
1268.9161608094
 20
623.6860377678
 30
0.0
 11
1269.6214178675
 21
623.2160998472
 31
0.0
  0
LINE
  5
298
330
1F
100
AcDbEntity
  8
0
  6
CONTINUOUS
 62
     7
100
AcDbLine
 10
1271.7271009558
 20
664.4360346683
 30
0.0
 11
1271.7271009558
 21
625.0411195644
 31
0.0
  0
LINE
  5
299
330
1F
100
AcDbEntity
  8
0
  6
CONTINUOUS
 62
     7
100
AcDbLine
 10
1271.1191782826
 20
664.4360346683
 30
0.0
 11
1271.7271009558
 21
664.4360346683
 31
0.0
  0
LINE
  5
29A
330
1F
100
AcDbEntity
  8
0
  6
CONTINUOUS
 62
     7
100
AcDbLine
 10
1271.7271009558
 20
934.2309458145
 30
0.0
 11
1271.7271009558
 21
894.8360307106
 31
0.0
  0
LINE
  5
29B
330
1F
100
AcDbEntity
  8
0
  6
CONTINUOUS
 62
     7
100
AcDbLine
 10
1271.7271009558
 20
894.8360307106
 30
0.0
 11
1271.1191782826
 21
894.8360307106
 31
0.0
  0
LINE
  5
29C
330
1F
100
AcDbEntity
  8
0
  6
CONTINUOUS
 62
     7
100
AcDbLine
 10
1271.7271009558
 20
864.436030198
 30
0.0
 11
1271.7271009558
 21
694.8360351809
 31
0.0
  0
LINE
  5
29D
330
1F
100
AcDbEntity
  8
0
  6
CONTINUOUS
 62
     7
100
AcDbLine
 10
1271.7271009558
 20
864.436030198
 30
0.0
 11
1271.1191782826
 21
864.436030198
 31
0.0
  0
LINE
  5
29E
330
1F
100
AcDbEntity
  8
0
  6
CONTINUOUS
 62
     7
100
AcDbLine
 10
1271.1191782826
 20
694.8360351809
 30
0.0
 11
1271.7271009558
 21
694.8360351809
 31
0.0
  0
LINE
  5
29F
330
1F
100
AcDbEntity
  8
0
  6
CONTINUOUS
 62
     7
100
AcDbLine
 10
1277.9517183179
 20
624.7849537023
 30
0.0
 11
1277.9517183179
 21
623.5371155628
 31
0.0
  0
LINE
  5
2A0
330
1F
100
AcDbEntity
  8
0
  6
CONTINUOUS
 62
     7
100
AcDbLine
 10
1277.9517183179
 20
935.7349498161
 30
0.0
 11
1277.9517183179
 21
934.4871116766
 31
0.0
  0
LINE
  5
2A1
330
1F
100
AcDbEntity
  8
0
  6
CONTINUOUS
 62
     7
100
AcDbLine
 10
1645.9161499614
 20
623.6860377678
 30
0.0
 11
1645.9161499614
 21
664.4360346683
 31
0.0
  0
LINE
  5
2A2
330
1F
100
AcDbEntity
  8
0
  6
CONTINUOUS
 62
     7
100
AcDbLine
 10
1641.3744250411
 20
624.6360314974
 30
0.0
 11
1641.3744250411
 21
623.6860377678
 31
0.0
  0
LINE
  5
2A3
330
1F
100
AcDbEntity
  8
0
  6
CONTINUOUS
 62
     7
100
AcDbLine
 10
1643.7131324881
 20
662.4360306152
 30
0.0
 11
1643.7131324881
 21
624.6360314974
 31
0.0
  0
LINE
  5
2A4
330
1F
100
AcDbEntity
  8
0
  6
CONTINUOUS
 62
     7
100
AcDbLine
 10
1643.7131324881
 20
662.4360306152
 30
0.0
 11
1641.3744250411
 21
662.4360306152
 31
0.0
  0
LINE
  5
2A5
330
1F
100
AcDbEntity
  8
0
  6
CONTINUOUS
 62
     7
100
AcDbLine
 10
1641.3744250411
 20
664.4360346683
 30
0.0
 11
1641.3744250411
 21
662.4360306152
 31
0.0
  0
LINE
  5
2A6
330
1F
100
AcDbEntity
  8
0
  6
CONTINUOUS
 62
     7
100
AcDbLine
 10
1645.9161499614
 20
664.4360346683
 30
0.0
 11
1641.3744250411
 21
664.4360346683
 31
0.0
  0
LINE
  5
2A7
330
1F
100
AcDbEntity
  8
0
  6
CONTINUOUS
 62
     7
100
AcDbLine
 10
1643.7131324881
 20
862.4360335954
 30
0.0
 11
1643.7131324881
 21
696.8360317835
 31
0.0
  0
LINE
  5
2A8
330
1F
100
AcDbEntity
  8
0
  6
CONTINUOUS
 62
     7
100
AcDbLine
 10
1641.3744250411
 20
862.4360335954
 30
0.0
 11
1641.3744250411
 21
864.436030198
 31
0.0
  0
LINE
  5
2A9
330
1F
100
AcDbEntity
  8
0
  6
CONTINUOUS
 62
     7
100
AcDbLine
 10
1645.9161499614
 20
694.8360351809
 30
0.0
 11
1645.9161499614
 21
864.436030198
 31
0.0
  0
LINE
  5
2AA
330
1F
100
AcDbEntity
  8
0
  6
CONTINUOUS
 62
     7
100
AcDbLine
 10
1641.3744250411
 20
696.8360317835
 30
0.0
 11
1641.3744250411
 21
694.8360351809
 31
0.0
  0
LINE
  5
2AB
330
1F
100
AcDbEntity
  8
0
  6
CONTINUOUS
 62
     7
100
AcDbLine
 10
1645.9161499614
 20
694.8360351809
 30
0.0
 11
1641.3744250411
 21
694.8360351809
 31
0.0
  0
LINE
  5
2AC
330
1F
100
AcDbEntity
  8
0
  6
CONTINUOUS
 62
     7
100
AcDbLine
 10
1645.9161499614
 20
864.436030198
 30
0.0
 11
1641.3744250411
 21
864.436030198
 31
0.0
  0
LINE
  5
2AD
330
1F
100
AcDbEntity
  8
0
  6
CONTINUOUS
 62
     7
100
AcDbLine
 10
1643.7131324881
 20
862.4360335954
 30
0.0
 11
1641.3744250411
 21
862.4360335954
 31
0.0
  0
LINE
  5
2AE
330
1F
100
AcDbEntity
  8
0
  6
CONTINUOUS
 62
     7
100
AcDbLine
 10
1643.7131324881
 20
696.8360317835
 30
0.0
 11
1641.3744250411
 21
696.8360317835
 31
0.0
  0
LINE
  5
2AF
330
1F
100
AcDbEntity
  8
0
  6
CONTINUOUS
 62
     7
100
AcDbLine
 10
1641.3744250411
 20
894.8360307106
 30
0.0
 11
1641.3744250411
 21
896.8360347637
 31
0.0
  0
LINE
  5
2B0
330
1F
100
AcDbEntity
  8
0
  6
CONTINUOUS
 62
     7
100
AcDbLine
 10
1643.7131324881
 20
934.6360338815
 30
0.0
 11
1643.7131324881
 21
896.8360347637
 31
0.0
  0
LINE
  5
2B1
330
1F
100
AcDbEntity
  8
0
  6
CONTINUOUS
 62
     7
100
AcDbLine
 10
1641.3744250411
 20
935.5860276111
 30
0.0
 11
1641.3744250411
 21
934.6360338815
 31
0.0
  0
LINE
  5
2B2
330
1F
100
AcDbEntity
  8
0
  6
CONTINUOUS
 62
     7
100
AcDbLine
 10
1645.9161499614
 20
894.8360307106
 30
0.0
 11
1645.9161499614
 21
935.5860276111
 31
0.0
  0
LINE
  5
2B3
330
1F
100
AcDbEntity
  8
0
  6
CONTINUOUS
 62
     7
100
AcDbLine
 10
1645.9161499614
 20
894.8360307106
 30
0.0
 11
1641.3744250411
 21
894.8360307106
 31
0.0
  0
LINE
  5
2B4
330
1F
100
AcDbEntity
  8
0
  6
CONTINUOUS
 62
     7
100
AcDbLine
 10
1643.7131324881
 20
896.8360347637
 30
0.0
 11
1641.3744250411
 21
896.8360347637
 31
0.0
  0
LINE
  5
2B5
330
1F
100
AcDbEntity
  8
0
  6
CONTINUOUS
 62
     7
100
AcDbLine
 10
1636.8805775517
 20
624.7849537023
 30
0.0
 11
1636.8805775517
 21
623.5371155628
 31
0.0
  0
LINE
  5
2B6
330
1F
100
AcDbEntity
  8
0
  6
CONTINUOUS
 62
     7
100
AcDbLine
 10
1636.8805775517
 20
935.7349498161
 30
0.0
 11
1636.8805775517
 21
934.4871116766
 31
0.0
  0
LINE
  5
2B7
330
1F
100
AcDbEntity
  8
0
  6
CONTINUOUS
 62
     7
100
AcDbLine
 10
1643.1052098149
 20
934.2309458145
 30
0.0
 11
1643.1052098149
 21
896.8360347637
 31
0.0
  0
LINE
  5
2B8
330
1F
100
AcDbEntity
  8
0
  6
CONTINUOUS
 62
     7
100
AcDbLine
 10
1643.1052098149
 20
862.4360335954
 30
0.0
 11
1643.1052098149
 21
696.8360317835
 31
0.0
  0
LINE
  5
2B9
330
1F
100
AcDbEntity
  8
0
  6
CONTINUOUS
 62
     7
100
AcDbLine
 10
1643.1052098149
 20
662.4360306152
 30
0.0
 11
1643.1052098149
 21
625.0411195644
 31
0.0
  0
LINE
  5
2BA
330
1F
100
AcDbEntity
  8
0
  6
CONTINUOUS
 62
     7
100
AcDbLine
 10
1636.8805775517
 20
664.4360346683
 30
0.0
 11
1636.8805775517
 21
662.4360306152
 31
0.0
  0
LINE
  5
2BB
330
1F
100
AcDbEntity
  8
0
  6
CONTINUOUS
 62
     7
100
AcDbLine
 10
1641.3744250411
 20
662.4360306152
 30
0.0
 11
1636.8805775517
 21
662.4360306152
 31
0.0
  0
LINE
  5
2BC
330
1F
100
AcDbEntity
  8
0
  6
CONTINUOUS
 62
     7
100
AcDbLine
 10
1641.3744250411
 20
664.4360346683
 30
0.0
 11
1636.8805775517
 21
664.4360346683
 31
0.0
  0
LINE
  5
2BD
330
1F
100
AcDbEntity
  8
0
  6
CONTINUOUS
 62
     7
100
AcDbLine
 10
1636.8805775517
 20
894.8360307106
 30
0.0
 11
1636.8805775517
 21
896.8360347637
 31
0.0
  0
LINE
  5
2BE
330
1F
100
AcDbEntity
  8
0
  6
CONTINUOUS
 62
     7
100
AcDbLine
 10
1641.3744250411
 20
894.8360307106
 30
0.0
 11
1636.8805775517
 21
894.8360307106
 31
0.0
  0
LINE
  5
2BF
330
1F
100
AcDbEntity
  8
0
  6
CONTINUOUS
 62
     7
100
AcDbLine
 10
1641.3744250411
 20
896.8360347637
 30
0.0
 11
1636.8805775517
 21
896.8360347637
 31
0.0
  0
LINE
  5
2C0
330
1F
100
AcDbEntity
  8
0
  6
CONTINUOUS
 62
     7
100
AcDbLine
 10
1636.8805775517
 20
696.8360317835
 30
0.0
 11
1636.8805775517
 21
694.8360351809
 31
0.0
  0
LINE
  5
2C1
330
1F
100
AcDbEntity
  8
0
  6
CONTINUOUS
 62
     7
100
AcDbLine
 10
1641.3744250411
 20
694.8360351809
 30
0.0
 11
1636.8805775517
 21
694.8360351809
 31
0.0
  0
LINE
  5
2C2
330
1F
100
AcDbEntity
  8
0
  6
CONTINUOUS
 62
     7
100
AcDbLine
 10
1641.3744250411
 20
696.8360317835
 30
0.0
 11
1636.8805775517
 21
696.8360317835
 31
0.0
  0
LINE
  5
2C3
330
1F
100
AcDbEntity
  8
0
  6
CONTINUOUS
 62
     7
100
AcDbLine
 10
1636.8805775517
 20
862.4360335954
 30
0.0
 11
1636.8805775517
 21
864.436030198
 31
0.0
  0
LINE
  5
2C4
330
1F
100
AcDbEntity
  8
0
  6
CONTINUOUS
 62
     7
100
AcDbLine
 10
1641.3744250411
 20
864.436030198
 30
0.0
 11
1636.8805775517
 21
864.436030198
 31
0.0
  0
LINE
  5
2C5
330
1F
100
AcDbEntity
  8
0
  6
CONTINUOUS
 62
     7
100
AcDbLine
 10
1641.3744250411
 20
862.4360335954
 30
0.0
 11
1636.8805775517
 21
862.4360335954
 31
0.0
  0
LINE
  5
2C6
330
1F
100
AcDbEntity
  8
0
  6
CONTINUOUS
 62
     7
100
AcDbLine
 10
1277.5175580853
 20
862.4360335954
 30
0.0
 11
1277.5175580853
 21
896.8360347637
 31
0.0
  0
LINE
  5
2C7
330
1F
100
AcDbEntity
  8
0
  6
CONTINUOUS
 62
     7
100
AcDbLine
 10
1276.4665940875
 20
862.4360335954
 30
0.0
 11
1276.4665940875
 21
896.8360347637
 31
0.0
  0
LINE
  5
2C8
330
1F
100
AcDbEntity
  8
0
  6
CONTINUOUS
 62
     7
100
AcDbLine
 10
1277.5175580853
 20
896.8360347637
 30
0.0
 11
1276.4665940875
 21
896.8360347637
 31
0.0
  0
LINE
  5
2C9
330
1F
100
AcDbEntity
  8
0
  6
CONTINUOUS
 62
     7
100
AcDbLine
 10
1277.5175580853
 20
862.4360335954
 30
0.0
 11
1276.4665940875
 21
862.4360335954
 31
0.0
  0
LINE
  5
2CA
330
1F
100
AcDbEntity
  8
0
  6
CONTINUOUS
 62
     7
100
AcDbLine
 10
1276.4665940875
 20
696.8360317835
 30
0.0
 11
1276.4665940875
 21
662.4360306152
 31
0.0
  0
LINE
  5
2CB
330
1F
100
AcDbEntity
  8
0
  6
CONTINUOUS
 62
     7
100
AcDbLine
 10
1277.5175580853
 20
696.8360317835
 30
0.0
 11
1277.5175580853
 21
662.4360306152
 31
0.0
  0
LINE
  5
2CC
330
1F
100
AcDbEntity
  8
0
  6
CONTINUOUS
 62
     7
100
AcDbLine
 10
1277.5175580853
 20
696.8360317835
 30
0.0
 11
1276.4665940875
 21
696.8360317835
 31
0.0
  0
LINE
  5
2CD
330
1F
100
AcDbEntity
  8
0
  6
CONTINUOUS
 62
     7
100
AcDbLine
 10
1277.5175580853
 20
662.4360306152
 30
0.0
 11
1276.4665940875
 21
662.4360306152
 31
0.0
  0
LINE
  5
2CE
330
1F
100
AcDbEntity
  8
0
  6
CONTINUOUS
 62
     7
100
AcDbLine
 10
1278.2565811747
 20
892.836034108
 30
0.0
 11
1278.2565811747
 21
896.8360347637
 31
0.0
  0
LINE
  5
2CF
330
1F
100
AcDbEntity
  8
0
  6
CONTINUOUS
 62
     7
100
AcDbLine
 10
1278.6160567874
 20
892.836034108
 30
0.0
 11
1278.2565811747
 21
892.836034108
 31
0.0
  0
LINE
  5
2D0
330
1F
100
AcDbEntity
  8
0
  6
CONTINUOUS
 62
     7
100
AcDbLine
 10
1278.6160567874
 20
866.4360342511
 30
0.0
 11
1278.6160567874
 21
892.836034108
 31
0.0
  0
LINE
  5
2D1
330
1F
100
AcDbEntity
  8
0
  6
CONTINUOUS
 62
     7
100
AcDbLine
 10
1278.6160567874
 20
866.4360342511
 30
0.0
 11
1278.2565811747
 21
866.4360342511
 31
0.0
  0
LINE
  5
2D2
330
1F
100
AcDbEntity
  8
0
  6
CONTINUOUS
 62
     7
100
AcDbLine
 10
1278.2565811747
 20
862.4360335954
 30
0.0
 11
1278.2565811747
 21
866.4360342511
 31
0.0
  0
LINE
  5
2D3
330
1F
100
AcDbEntity
  8
0
  6
CONTINUOUS
 62
     7
100
AcDbLine
 10
1278.2565811747
 20
896.8360347637
 30
0.0
 11
1277.5175580853
 21
896.8360347637
 31
0.0
  0
LINE
  5
2D4
330
1F
100
AcDbEntity
  8
0
  6
CONTINUOUS
 62
     7
100
AcDbLine
 10
1278.2565811747
 20
862.4360335954
 30
0.0
 11
1277.5175580853
 21
862.4360335954
 31
0.0
  0
LINE
  5
2D5
330
1F
100
AcDbEntity
  8
0
  6
CONTINUOUS
 62
     7
100
AcDbLine
 10
1278.2565811747
 20
696.8360317835
 30
0.0
 11
1278.2565811747
 21
692.8360311278
 31
0.0
  0
LINE
  5
2D6
330
1F
100
AcDbEntity
  8
0
  6
CONTINUOUS
 62
     7
100
AcDbLine
 10
1278.6160567874
 20
692.8360311278
 30
0.0
 11
1278.2565811747
 21
692.8360311278
 31
0.0
  0
LINE
  5
2D7
330
1F
100
AcDbEntity
  8
0
  6
CONTINUOUS
 62
     7
100
AcDbLine
 10
1278.6160567874
 20
692.8360311278
 30
0.0
 11
1278.6160567874
 21
666.4360312709
 31
0.0
  0
LINE
  5
2D8
330
1F
100
AcDbEntity
  8
0
  6
CONTINUOUS
 62
     7
100
AcDbLine
 10
1278.6160567874
 20
666.4360312709
 30
0.0
 11
1278.2565811747
 21
666.4360312709
 31
0.0
  0
LINE
  5
2D9
330
1F
100
AcDbEntity
  8
0
  6
CONTINUOUS
 62
     7
100
AcDbLine
 10
1278.2565811747
 20
666.4360312709
 30
0.0
 11
1278.2565811747
 21
662.4360306152
 31
0.0
  0
LINE
  5
2DA
330
1F
100
AcDbEntity
  8
0
  6
CONTINUOUS
 62
     7
100
AcDbLine
 10
1278.2565811747
 20
696.8360317835
 30
0.0
 11
1277.5175580853
 21
696.8360317835
 31
0.0
  0
LINE
  5
2DB
330
1F
100
AcDbEntity
  8
0
  6
CONTINUOUS
 62
     7
100
AcDbLine
 10
1278.2565811747
 20
662.4360306152
 30
0.0
 11
1277.5175580853
 21
662.4360306152
 31
0.0
  0
LINE
  5
2DC
330
1F
100
AcDbEntity
  8
0
  6
CONTINUOUS
 62
     7
100
AcDbLine
 10
1278.7367114896
 20
894.8360307106
 30
0.0
 11
1278.7367114896
 21
896.8360347637
 31
0.0
  0
LINE
  5
2DD
330
1F
100
AcDbEntity
  8
0
  6
CONTINUOUS
 62
     7
100
AcDbLine
 10
1278.4368107194
 20
892.836034108
 30
0.0
 11
1278.4368107194
 21
894.8360307106
 31
0.0
  0
LINE
  5
2DE
330
1F
100
AcDbEntity
  8
0
  6
CONTINUOUS
 62
     7
100
AcDbLine
 10
1278.7367114896
 20
896.8360347637
 30
0.0
 11
1278.2565811747
 21
896.8360347637
 31
0.0
  0
LINE
  5
2DF
330
1F
100
AcDbEntity
  8
0
  6
CONTINUOUS
 62
     7
100
AcDbLine
 10
1278.7367114896
 20
894.8360307106
 30
0.0
 11
1278.4368107194
 21
894.8360307106
 31
0.0
  0
LINE
  5
2E0
330
1F
100
AcDbEntity
  8
0
  6
CONTINUOUS
 62
     7
100
AcDbLine
 10
1278.7367114896
 20
862.4360335954
 30
0.0
 11
1278.7367114896
 21
864.436030198
 31
0.0
  0
LINE
  5
2E1
330
1F
100
AcDbEntity
  8
0
  6
CONTINUOUS
 62
     7
100
AcDbLine
 10
1278.4368107194
 20
864.436030198
 30
0.0
 11
1278.4368107194
 21
866.4360342511
 31
0.0
  0
LINE
  5
2E2
330
1F
100
AcDbEntity
  8
0
  6
CONTINUOUS
 62
     7
100
AcDbLine
 10
1278.7367114896
 20
862.4360335954
 30
0.0
 11
1278.2565811747
 21
862.4360335954
 31
0.0
  0
LINE
  5
2E3
330
1F
100
AcDbEntity
  8
0
  6
CONTINUOUS
 62
     7
100
AcDbLine
 10
1278.7367114896
 20
864.436030198
 30
0.0
 11
1278.4368107194
 21
864.436030198
 31
0.0
  0
LINE
  5
2E4
330
1F
100
AcDbEntity
  8
0
  6
CONTINUOUS
 62
     7
100
AcDbLine
 10
1278.7367114896
 20
696.8360317835
 30
0.0
 11
1278.7367114896
 21
694.8360351809
 31
0.0
  0
LINE
  5
2E5
330
1F
100
AcDbEntity
  8
0
  6
CONTINUOUS
 62
     7
100
AcDbLine
 10
1278.4368107194
 20
692.8360311278
 30
0.0
 11
1278.4368107194
 21
694.8360351809
 31
0.0
  0
LINE
  5
2E6
330
1F
100
AcDbEntity
  8
0
  6
CONTINUOUS
 62
     7
100
AcDbLine
 10
1278.7367114896
 20
696.8360317835
 30
0.0
 11
1278.2565811747
 21
696.8360317835
 31
0.0
  0
LINE
  5
2E7
330
1F
100
AcDbEntity
  8
0
  6
CONTINUOUS
 62
     7
100
AcDbLine
 10
1278.7367114896
 20
694.8360351809
 30
0.0
 11
1278.4368107194
 21
694.8360351809
 31
0.0
  0
LINE
  5
2E8
330
1F
100
AcDbEntity
  8
0
  6
CONTINUOUS
 62
     7
100
AcDbLine
 10
1278.7367114896
 20
664.4360346683
 30
0.0
 11
1278.7367114896
 21
662.4360306152
 31
0.0
  0
LINE
  5
2E9
330
1F
100
AcDbEntity
  8
0
  6
CONTINUOUS
 62
     7
100
AcDbLine
 10
1278.4368107194
 20
664.4360346683
 30
0.0
 11
1278.4368107194
 21
666.4360312709
 31
0.0
  0
LINE
  5
2EA
330
1F
100
AcDbEntity
  8
0
  6
CONTINUOUS
 62
     7
100
AcDbLine
 10
1278.7367114896
 20
662.4360306152
 30
0.0
 11
1278.2565811747
 21
662.4360306152
 31
0.0
  0
LINE
  5
2EB
330
1F
100
AcDbEntity
  8
0
  6
CONTINUOUS
 62
     7
100
AcDbLine
 10
1278.7367114896
 20
664.4360346683
 30
0.0
 11
1278.4368107194
 21
664.4360346683
 31
0.0
  0
LINE
  5
2EC
330
1F
100
AcDbEntity
  8
0
  6
CONTINUOUS
 62
     7
100
AcDbLine
 10
1278.768272149
 20
666.4360312709
 30
0.0
 11
1278.6160567874
 21
666.4360312709
 31
0.0
  0
LINE
  5
2ED
330
1F
100
AcDbEntity
  8
0
  6
CONTINUOUS
 62
     7
100
AcDbLine
 10
1278.768272149
 20
692.8360311278
 30
0.0
 11
1278.6160567874
 21
692.8360311278
 31
0.0
  0
LINE
  5
2EE
330
1F
100
AcDbEntity
  8
0
  6
CONTINUOUS
 62
     7
100
AcDbLine
 10
1278.768272149
 20
866.4360342511
 30
0.0
 11
1278.6160567874
 21
866.4360342511
 31
0.0
  0
LINE
  5
2EF
330
1F
100
AcDbEntity
  8
0
  6
CONTINUOUS
 62
     7
100
AcDbLine
 10
1278.768272149
 20
892.836034108
 30
0.0
 11
1278.6160567874
 21
892.836034108
 31
0.0
  0
LINE
  5
2F0
330
1F
100
AcDbEntity
  8
0
  6
CONTINUOUS
 62
     7
100
AcDbLine
 10
1276.0340431803
 20
694.8360351809
 30
0.0
 11
1276.0340431803
 21
696.8360317835
 31
0.0
  0
LINE
  5
2F1
330
1F
100
AcDbEntity
  8
0
  6
CONTINUOUS
 62
     7
100
AcDbLine
 10
1276.0340431803
 20
662.4360306152
 30
0.0
 11
1276.0340431803
 21
664.4360346683
 31
0.0
  0
LINE
  5
2F2
330
1F
100
AcDbEntity
  8
0
  6
CONTINUOUS
 62
     7
100
AcDbLine
 10
1275.983632552
 20
666.4360312709
 30
0.0
 11
1275.983632552
 21
664.4360346683
 31
0.0
  0
LINE
  5
2F3
330
1F
100
AcDbEntity
  8
0
  6
CONTINUOUS
 62
     7
100
AcDbLine
 10
1276.1230925196
 20
692.8360311278
 30
0.0
 11
1276.1230925196
 21
666.4360312709
 31
0.0
  0
LINE
  5
2F4
330
1F
100
AcDbEntity
  8
0
  6
CONTINUOUS
 62
     7
100
AcDbLine
 10
1275.983632552
 20
694.8360351809
 30
0.0
 11
1275.983632552
 21
692.8360311278
 31
0.0
  0
LINE
  5
2F5
330
1F
100
AcDbEntity
  8
0
  6
CONTINUOUS
 62
     7
100
AcDbLine
 10
1276.4665940875
 20
696.8360317835
 30
0.0
 11
1276.0340431803
 21
696.8360317835
 31
0.0
  0
LINE
  5
2F6
330
1F
100
AcDbEntity
  8
0
  6
CONTINUOUS
 62
     7
100
AcDbLine
 10
1276.4665940875
 20
662.4360306152
 30
0.0
 11
1276.0340431803
 21
662.4360306152
 31
0.0
  0
LINE
  5
2F7
330
1F
100
AcDbEntity
  8
0
  6
CONTINUOUS
 62
     7
100
AcDbLine
 10
1276.0340431803
 20
896.8360347637
 30
0.0
 11
1276.0340431803
 21
894.8360307106
 31
0.0
  0
LINE
  5
2F8
330
1F
100
AcDbEntity
  8
0
  6
CONTINUOUS
 62
     7
100
AcDbLine
 10
1276.0340431803
 20
864.436030198
 30
0.0
 11
1276.0340431803
 21
862.4360335954
 31
0.0
  0
LINE
  5
2F9
330
1F
100
AcDbEntity
  8
0
  6
CONTINUOUS
 62
     7
100
AcDbLine
 10
1275.983632552
 20
866.4360342511
 30
0.0
 11
1275.983632552
 21
864.436030198
 31
0.0
  0
LINE
  5
2FA
330
1F
100
AcDbEntity
  8
0
  6
CONTINUOUS
 62
     7
100
AcDbLine
 10
1276.1230925196
 20
866.4360342511
 30
0.0
 11
1276.1230925196
 21
892.836034108
 31
0.0
  0
LINE
  5
2FB
330
1F
100
AcDbEntity
  8
0
  6
CONTINUOUS
 62
     7
100
AcDbLine
 10
1275.983632552
 20
894.8360307106
 30
0.0
 11
1275.983632552
 21
892.836034108
 31
0.0
  0
LINE
  5
2FC
330
1F
100
AcDbEntity
  8
0
  6
CONTINUOUS
 62
     7
100
AcDbLine
 10
1276.4665940875
 20
896.8360347637
 30
0.0
 11
1276.0340431803
 21
896.8360347637
 31
0.0
  0
LINE
  5
2FD
330
1F
100
AcDbEntity
  8
0
  6
CONTINUOUS
 62
     7
100
AcDbLine
 10
1276.4665940875
 20
862.4360335954
 30
0.0
 11
1276.0340431803
 21
862.4360335954
 31
0.0
  0
LINE
  5
2FE
330
1F
100
AcDbEntity
  8
0
  6
CONTINUOUS
 62
     7
100
AcDbLine
 10
1278.262794959
 20
935.9422249683
 30
0.0
 11
1278.262794959
 21
934.2798365244
 31
0.0
  0
LINE
  5
2FF
330
1F
100
AcDbEntity
  8
0
  6
CONTINUOUS
 62
     7
100
AcDbLine
 10
1278.262794959
 20
624.9922288545
 30
0.0
 11
1278.262794959
 21
623.3298404106
 31
0.0
  0
LINE
  5
300
330
1F
100
AcDbEntity
  8
0
  6
CONTINUOUS
 62
     7
100
AcDbLine
 10
1636.4961424941
 20
662.4360306152
 30
0.0
 11
1636.4961424941
 21
664.4360346683
 31
0.0
  0
LINE
  5
301
330
1F
100
AcDbEntity
  8
0
  6
CONTINUOUS
 62
     7
100
AcDbLine
 10
1636.8805775517
 20
662.4360306152
 30
0.0
 11
1636.4961424941
 21
662.4360306152
 31
0.0
  0
LINE
  5
302
330
1F
100
AcDbEntity
  8
0
  6
CONTINUOUS
 62
     7
100
AcDbLine
 10
1636.8805775517
 20
664.4360346683
 30
0.0
 11
1636.4961424941
 21
664.4360346683
 31
0.0
  0
LINE
  5
303
330
1F
100
AcDbEntity
  8
0
  6
CONTINUOUS
 62
     7
100
AcDbLine
 10
1636.5695158118
 20
935.9422249683
 30
0.0
 11
1636.5695158118
 21
934.2798365244
 31
0.0
  0
LINE
  5
304
330
1F
100
AcDbEntity
  8
0
  6
CONTINUOUS
 62
     7
100
AcDbLine
 10
1636.4961424941
 20
694.8360351809
 30
0.0
 11
1636.4961424941
 21
696.8360317835
 31
0.0
  0
LINE
  5
305
330
1F
100
AcDbEntity
  8
0
  6
CONTINUOUS
 62
     7
100
AcDbLine
 10
1636.8805775517
 20
694.8360351809
 30
0.0
 11
1636.4961424941
 21
694.8360351809
 31
0.0
  0
LINE
  5
306
330
1F
100
AcDbEntity
  8
0
  6
CONTINUOUS
 62
     7
100
AcDbLine
 10
1636.8805775517
 20
696.8360317835
 30
0.0
 11
1636.4961424941
 21
696.8360317835
 31
0.0
  0
LINE
  5
307
330
1F
100
AcDbEntity
  8
0
  6
CONTINUOUS
 62
     7
100
AcDbLine
 10
1636.4961424941
 20
896.8360347637
 30
0.0
 11
1636.4961424941
 21
894.8360307106
 31
0.0
  0
LINE
  5
308
330
1F
100
AcDbEntity
  8
0
  6
CONTINUOUS
 62
     7
100
AcDbLine
 10
1636.8805775517
 20
894.8360307106
 30
0.0
 11
1636.4961424941
 21
894.8360307106
 31
0.0
  0
LINE
  5
309
330
1F
100
AcDbEntity
  8
0
  6
CONTINUOUS
 62
     7
100
AcDbLine
 10
1636.8805775517
 20
896.8360347637
 30
0.0
 11
1636.4961424941
 21
896.8360347637
 31
0.0
  0
LINE
  5
30A
330
1F
100
AcDbEntity
  8
0
  6
CONTINUOUS
 62
     7
100
AcDbLine
 10
1636.4961424941
 20
864.436030198
 30
0.0
 11
1636.4961424941
 21
862.4360335954
 31
0.0
  0
LINE
  5
30B
330
1F
100
AcDbEntity
  8
0
  6
CONTINUOUS
 62
     7
100
AcDbLine
 10
1636.8805775517
 20
864.436030198
 30
0.0
 11
1636.4961424941
 21
864.436030198
 31
0.0
  0
LINE
  5
30C
330
1F
100
AcDbEntity
  8
0
  6
CONTINUOUS
 62
     7
100
AcDbLine
 10
1636.8805775517
 20
862.4360335954
 30
0.0
 11
1636.4961424941
 21
862.4360335954
 31
0.0
  0
LINE
  5
30D
330
1F
100
AcDbEntity
  8
0
  6
CONTINUOUS
 62
     7
100
AcDbLine
 10
1636.5695158118
 20
624.9922288545
 30
0.0
 11
1636.5695158118
 21
623.3298404106
 31
0.0
  0
LINE
  5
30E
330
1F
100
AcDbEntity
  8
0
  6
CONTINUOUS
 62
     7
100
AcDbLine
 10
1270.2435562485
 20
692.8360311278
 30
0.0
 11
1270.2435562485
 21
666.4360312709
 31
0.0
  0
LINE
  5
30F
330
1F
100
AcDbEntity
  8
0
  6
CONTINUOUS
 62
     7
100
AcDbLine
 10
1276.1230925196
 20
666.4360312709
 30
0.0
 11
1270.2435562485
 21
666.4360312709
 31
0.0
  0
LINE
  5
310
330
1F
100
AcDbEntity
  8
0
  6
CONTINUOUS
 62
     7
100
AcDbLine
 10
1276.1230925196
 20
692.8360311278
 30
0.0
 11
1270.2435562485
 21
692.8360311278
 31
0.0
  0
LINE
  5
311
330
1F
100
AcDbEntity
  8
0
  6
CONTINUOUS
 62
     7
100
AcDbLine
 10
1276.1230925196
 20
866.4360342511
 30
0.0
 11
1270.2435562485
 21
866.4360342511
 31
0.0
  0
LINE
  5
312
330
1F
100
AcDbEntity
  8
0
  6
CONTINUOUS
 62
     7
100
AcDbLine
 10
1270.2435562485
 20
866.4360342511
 30
0.0
 11
1270.2435562485
 21
892.836034108
 31
0.0
  0
LINE
  5
313
330
1F
100
AcDbEntity
  8
0
  6
CONTINUOUS
 62
     7
100
AcDbLine
 10
1276.1230925196
 20
892.836034108
 30
0.0
 11
1270.2435562485
 21
892.836034108
 31
0.0
  0
LINE
  5
314
330
1F
100
AcDbEntity
  8
0
  6
CONTINUOUS
 62
     7
100
AcDbLine
 10
1638.2986167544
 20
894.8360307106
 30
0.0
 11
1638.2986167544
 21
894.6360347756
 31
0.0
  0
LINE
  5
315
330
1F
100
AcDbEntity
  8
0
  6
CONTINUOUS
 62
     7
100
AcDbLine
 10
1638.2986167544
 20
864.6360335835
 30
0.0
 11
1638.2986167544
 21
864.436030198
 31
0.0
  0
LINE
  5
316
330
1F
100
AcDbEntity
  8
0
  6
CONTINUOUS
 62
     7
100
AcDbLine
 10
1638.2986167544
 20
664.4360346683
 30
0.0
 11
1638.2986167544
 21
664.6360306033
 31
0.0
  0
LINE
  5
317
330
1F
100
AcDbEntity
  8
0
  6
CONTINUOUS
 62
     7
100
AcDbLine
 10
1638.2986167544
 20
694.6360317954
 30
0.0
 11
1638.2986167544
 21
694.8360351809
 31
0.0
  0
LINE
  5
318
330
1F
100
AcDbEntity
  8
0
  6
CONTINUOUS
 62
     7
100
AcDbLine
 10
1278.7367114896
 20
664.4360346683
 30
0.0
 11
1278.768272149
 21
664.4360346683
 31
0.0
  0
LINE
  5
319
330
1F
100
AcDbEntity
  8
0
  6
CONTINUOUS
 62
     7
100
AcDbLine
 10
1271.7271009558
 20
664.4360346683
 30
0.0
 11
1276.0340431803
 21
664.4360346683
 31
0.0
  0
LINE
  5
31A
330
1F
100
AcDbEntity
  8
0
  6
CONTINUOUS
 62
     7
100
AcDbLine
 10
1278.768272149
 20
864.436030198
 30
0.0
 11
1278.7367114896
 21
864.436030198
 31
0.0
  0
LINE
  5
31B
330
1F
100
AcDbEntity
  8
0
  6
CONTINUOUS
 62
     7
100
AcDbLine
 10
1276.0340431803
 20
864.436030198
 30
0.0
 11
1271.7271009558
 21
864.436030198
 31
0.0
  0
LINE
  5
31C
330
1F
100
AcDbEntity
  8
0
  6
CONTINUOUS
 62
     7
100
AcDbLine
 10
1276.0340431803
 20
894.8360307106
 30
0.0
 11
1271.7271009558
 21
894.8360307106
 31
0.0
  0
LINE
  5
31D
330
1F
100
AcDbEntity
  8
0
  6
CONTINUOUS
 62
     7
100
AcDbLine
 10
1278.768272149
 20
894.8360307106
 30
0.0
 11
1278.7367114896
 21
894.8360307106
 31
0.0
  0
LINE
  5
31E
330
1F
100
AcDbEntity
  8
0
  6
CONTINUOUS
 62
     7
100
AcDbLine
 10
1271.7271009558
 20
694.8360351809
 30
0.0
 11
1276.0340431803
 21
694.8360351809
 31
0.0
  0
LINE
  5
31F
330
1F
100
AcDbEntity
  8
0
  6
CONTINUOUS
 62
     7
100
AcDbLine
 10
1278.7367114896
 20
694.8360351809
 30
0.0
 11
1278.768272149
 21
694.8360351809
 31
0.0
  0
LINE
  5
320
330
1F
100
AcDbEntity
  8
0
  6
CONTINUOUS
 62
     7
100
AcDbLine
 10
1286.91828345
 20
927.1360261329
 30
0.0
 11
1627.9182741517
 21
927.1360261329
 31
0.0
  0
LINE
  5
321
330
1F
100
AcDbEntity
  8
0
  6
CONTINUOUS
 62
     7
100
AcDbLine
 10
1286.91828345
 20
632.136039246
 30
0.0
 11
1286.91828345
 21
927.1360261329
 31
0.0
  0
LINE
  5
322
330
1F
100
AcDbEntity
  8
0
  6
CONTINUOUS
 62
     7
100
AcDbLine
 10
1627.9182741517
 20
632.136039246
 30
0.0
 11
1286.91828345
 21
632.136039246
 31
0.0
  0
LINE
  5
323
330
1F
100
AcDbEntity
  8
0
  6
CONTINUOUS
 62
     7
100
AcDbLine
 10
1627.9182741517
 20
927.1360261329
 30
0.0
 11
1627.9182741517
 21
632.136039246
 31
0.0
  0
CIRCLE
  5
324
330
1F
100
AcDbEntity
  8
0
  6
CONTINUOUS
 62
     7
100
AcDbCircle
 10
1530.4182788008
 20
629.6360326895
 30
0.0
 40
1.449999999999932
  0
CIRCLE
  5
325
330
1F
100
AcDbEntity
  8
0
  6
CONTINUOUS
 62
     7
100
AcDbCircle
 10
1630.4182788008
 20
629.6360326895
 30
0.0
 40
1.449999999999932
  0
CIRCLE
  5
326
330
1F
100
AcDbEntity
  8
0
  6
CONTINUOUS
 62
     7
100
AcDbCircle
 10
1457.4182788008
 20
629.6360326895
 30
0.0
 40
1.449999999999932
  0
CIRCLE
  5
327
330
1F
100
AcDbEntity
  8
0
  6
CONTINUOUS
 62
     7
100
AcDbCircle
 10
1384.4182788008
 20
629.6360326895
 30
0.0
 40
1.450000000000159
  0
CIRCLE
  5
328
330
1F
100
AcDbEntity
  8
0
  6
CONTINUOUS
 62
     7
100
AcDbCircle
 10
1284.4182788008
 20
629.6360326895
 30
0.0
 40
1.450000000000159
  0
CIRCLE
  5
329
330
1F
100
AcDbEntity
  8
0
  6
CONTINUOUS
 62
     7
100
AcDbCircle
 10
1284.4182788008
 20
929.6360326895
 30
0.0
 40
1.450000000000045
  0
CIRCLE
  5
32A
330
1F
100
AcDbEntity
  8
0
  6
CONTINUOUS
 62
     7
100
AcDbCircle
 10
1384.4182788008
 20
929.6360326895
 30
0.0
 40
1.450000000000045
  0
CIRCLE
  5
32B
330
1F
100
AcDbEntity
  8
0
  6
CONTINUOUS
 62
     7
100
AcDbCircle
 10
1457.4182788008
 20
929.6360326895
 30
0.0
 40
1.449999999999932
  0
CIRCLE
  5
32C
330
1F
100
AcDbEntity
  8
0
  6
CONTINUOUS
 62
     7
100
AcDbCircle
 10
1630.4182788008
 20
929.6360326895
 30
0.0
 40
1.449999999999932
  0
CIRCLE
  5
32D
330
1F
100
AcDbEntity
  8
0
  6
CONTINUOUS
 62
     7
100
AcDbCircle
 10
1530.4182788008
 20
929.6360326895
 30
0.0
 40
1.449999999999932
  0
CIRCLE
  5
32E
330
1F
100
AcDbEntity
  8
0
  6
CONTINUOUS
 62
     7
100
AcDbCircle
 10
1284.4182788008
 20
729.6360326895
 30
0.0
 40
1.449999999999932
  0
CIRCLE
  5
32F
330
1F
100
AcDbEntity
  8
0
  6
CONTINUOUS
 62
     7
100
AcDbCircle
 10
1284.4182788008
 20
879.6360326895
 30
0.0
 40
1.450000000000045
  0
CIRCLE
  5
330
330
1F
100
AcDbEntity
  8
0
  6
CONTINUOUS
 62
     7
100
AcDbCircle
 10
1284.4182788008
 20
679.6360326895
 30
0.0
 40
1.450000000000045
  0
CIRCLE
  5
331
330
1F
100
AcDbEntity
  8
0
  6
CONTINUOUS
 62
     7
100
AcDbCircle
 10
1284.4182788008
 20
829.6360326895
 30
0.0
 40
1.449999999999932
  0
CIRCLE
  5
332
330
1F
100
AcDbEntity
  8
0
  6
CONTINUOUS
 62
     7
100
AcDbCircle
 10
1630.4182788008
 20
829.6360326895
 30
0.0
 40
1.450000000000045
  0
CIRCLE
  5
333
330
1F
100
AcDbEntity
  8
0
  6
CONTINUOUS
 62
     7
100
AcDbCircle
 10
1630.4182788008
 20
679.6360326895
 30
0.0
 40
1.449999999999932
  0
CIRCLE
  5
334
330
1F
100
AcDbEntity
  8
0
  6
CONTINUOUS
 62
     7
100
AcDbCircle
 10
1630.4182788008
 20
879.6360326895
 30
0.0
 40
1.449999999999932
  0
CIRCLE
  5
335
330
1F
100
AcDbEntity
  8
0
  6
CONTINUOUS
 62
     7
100
AcDbCircle
 10
1630.4182788008
 20
729.6360326895
 30
0.0
 40
1.450000000000045
  0
LINE
  5
336
330
1F
100
AcDbEntity
  8
0
  6
CONTINUOUS
 62
     7
100
AcDbLine
 10
1278.768272149
 20
623.1360359081
 30
0.0
 11
1278.768272149
 21
936.1360294708
 31
0.0
  0
LINE
  5
337
330
1F
100
AcDbEntity
  8
0
  6
CONTINUOUS
 62
     7
100
AcDbLine
 10
1636.0682854527
 20
936.1360294708
 30
0.0
 11
1636.0682854527
 21
623.1360359081
 31
0.0
  0
LINE
  5
338
330
1F
100
AcDbEntity
  8
0
  6
CONTINUOUS
 62
     7
100
AcDbLine
 10
1268.8682833785
 20
622.1860272773
 30
0.0
 11
1268.8682833785
 21
623.1360359081
 31
0.0
  0
LINE
  5
339
330
1F
100
AcDbEntity
  8
0
  6
CONTINUOUS
 62
     7
100
AcDbLine
 10
1645.9682742232
 20
937.0860381016
 30
0.0
 11
1645.9682742232
 21
936.1360294708
 31
0.0
  0
LINE
  5
33A
330
1F
100
AcDbEntity
  8
0
  6
CONTINUOUS
 62
     7
100
AcDbLine
 10
1645.9682742232
 20
623.1360359081
 30
0.0
 11
1645.9682742232
 21
622.1860272773
 31
0.0
  0
ARC
  5
33B
330
1F
100
AcDbEntity
  8
0
  6
CONTINUOUS
 62
     7
100
AcDbCircle
 10
1637.9682788008
 20
622.1860326895
 30
0.0
 40
8.0
100
AcDbArc
 50
270.0
 51
0.0
  0
ARC
  5
33C
330
1F
100
AcDbEntity
  8
0
  6
CONTINUOUS
 62
     7
100
AcDbCircle
 10
1637.9682788008
 20
937.0860326895
 30
0.0
 40
8.000000000000114
100
AcDbArc
 50
0.0
 51
90.0
  0
LINE
  5
33D
330
1F
100
AcDbEntity
  8
0
  6
CONTINUOUS
 62
     7
100
AcDbLine
 10
1637.9682729119
 20
614.186025966
 30
0.0
 11
1276.8682846898
 21
614.186025966
 31
0.0
  0
LINE
  5
33E
330
1F
100
AcDbEntity
  8
0
  6
CONTINUOUS
 62
     7
100
AcDbLine
 10
1276.8682846898
 20
945.0860394129
 30
0.0
 11
1637.9682729119
 21
945.0860394129
 31
0.0
  0
ARC
  5
33F
330
1F
100
AcDbEntity
  8
0
  6
CONTINUOUS
 62
     7
100
AcDbCircle
 10
1276.8682788008
 20
622.1860326895
 30
0.0
 40
8.0
100
AcDbArc
 50
180.0
 51
270.0
  0
ARC
  5
340
330
1F
100
AcDbEntity
  8
0
  6
CONTINUOUS
 62
     7
100
AcDbCircle
 10
1276.8682788008
 20
937.0860326895
 30
0.0
 40
8.000000000000114
100
AcDbArc
 50
90.0
 51
180.0
  0
LINE
  5
341
330
1F
100
AcDbEntity
  8
0
  6
CONTINUOUS
 62
     7
100
AcDbLine
 10
1636.0682854527
 20
623.1360359081
 30
0.0
 11
1645.9682742232
 21
623.1360359081
 31
0.0
  0
LINE
  5
342
330
1F
100
AcDbEntity
  8
0
  6
CONTINUOUS
 62
     7
100
AcDbLine
 10
1278.768272149
 20
623.1360359081
 30
0.0
 11
1268.8682833785
 21
623.1360359081
 31
0.0
  0
LINE
  5
343
330
1F
100
AcDbEntity
  8
0
  6
CONTINUOUS
 62
     7
100
AcDbLine
 10
1278.768272149
 20
936.1360294708
 30
0.0
 11
1268.8682833785
 21
936.1360294708
 31
0.0
  0
LINE
  5
344
330
1F
100
AcDbEntity
  8
0
  6
CONTINUOUS
 62
     7
100
AcDbLine
 10
1636.0682854527
 20
936.1360294708
 30
0.0
 11
1645.9682742232
 21
936.1360294708
 31
0.0
  0
LINE
  5
345
330
1F
100
AcDbEntity
  8
0
  6
CONTINUOUS
 62
     7
100
AcDbLine
 10
1268.8682833785
 20
936.1360294708
 30
0.0
 11
1268.8682833785
 21
937.0860381016
 31
0.0
  0
CIRCLE
  5
346
330
1F
100
AcDbEntity
  8
0
  6
CONTINUOUS
 62
     7
100
AcDbCircle
 10
1284.4182788008
 20
629.6360326895
 30
0.0
 40
1.100000000000023
  0
CIRCLE
  5
347
330
1F
100
AcDbEntity
  8
0
  6
CONTINUOUS
 62
     7
100
AcDbCircle
 10
1284.4182788008
 20
929.6360326895
 30
0.0
 40
1.099999999999909
  0
CIRCLE
  5
348
330
1F
100
AcDbEntity
  8
0
  6
CONTINUOUS
 62
     7
100
AcDbCircle
 10
1284.4182788008
 20
829.6360326895
 30
0.0
 40
1.100000000000023
  0
CIRCLE
  5
349
330
1F
100
AcDbEntity
  8
0
  6
CONTINUOUS
 62
     7
100
AcDbCircle
 10
1284.4182788008
 20
679.6360326895
 30
0.0
 40
1.099999999999909
  0
CIRCLE
  5
34A
330
1F
100
AcDbEntity
  8
0
  6
CONTINUOUS
 62
     7
100
AcDbCircle
 10
1284.4182788008
 20
879.6360326895
 30
0.0
 40
1.099999999999909
  0
CIRCLE
  5
34B
330
1F
100
AcDbEntity
  8
0
  6
CONTINUOUS
 62
     7
100
AcDbCircle
 10
1284.4182788008
 20
729.6360326895
 30
0.0
 40
1.100000000000023
  0
CIRCLE
  5
34C
330
1F
100
AcDbEntity
  8
0
  6
CONTINUOUS
 62
     7
100
AcDbCircle
 10
1384.4182788008
 20
929.6360326895
 30
0.0
 40
1.099999999999909
  0
CIRCLE
  5
34D
330
1F
100
AcDbEntity
  8
0
  6
CONTINUOUS
 62
     7
100
AcDbCircle
 10
1384.4182788008
 20
629.6360326895
 30
0.0
 40
1.100000000000023
  0
CIRCLE
  5
34E
330
1F
100
AcDbEntity
  8
0
  6
CONTINUOUS
 62
     7
100
AcDbCircle
 10
1457.4182788008
 20
929.6360326895
 30
0.0
 40
1.100000000000023
  0
CIRCLE
  5
34F
330
1F
100
AcDbEntity
  8
0
  6
CONTINUOUS
 62
     7
100
AcDbCircle
 10
1457.4182788008
 20
629.6360326895
 30
0.0
 40
1.099999999999909
  0
CIRCLE
  5
350
330
1F
100
AcDbEntity
  8
0
  6
CONTINUOUS
 62
     7
100
AcDbCircle
 10
1530.4182788008
 20
929.6360326895
 30
0.0
 40
1.100000000000023
  0
CIRCLE
  5
351
330
1F
100
AcDbEntity
  8
0
  6
CONTINUOUS
 62
     7
100
AcDbCircle
 10
1530.4182788008
 20
629.6360326895
 30
0.0
 40
1.100000000000136
  0
CIRCLE
  5
352
330
1F
100
AcDbEntity
  8
0
  6
CONTINUOUS
 62
     7
100
AcDbCircle
 10
1630.4182788008
 20
679.6360326895
 30
0.0
 40
1.100000000000023
  0
CIRCLE
  5
353
330
1F
100
AcDbEntity
  8
0
  6
CONTINUOUS
 62
     7
100
AcDbCircle
 10
1630.4182788008
 20
829.6360326895
 30
0.0
 40
1.100000000000023
  0
CIRCLE
  5
354
330
1F
100
AcDbEntity
  8
0
  6
CONTINUOUS
 62
     7
100
AcDbCircle
 10
1630.4182788008
 20
629.6360326895
 30
0.0
 40
1.099999999999909
  0
CIRCLE
  5
355
330
1F
100
AcDbEntity
  8
0
  6
CONTINUOUS
 62
     7
100
AcDbCircle
 10
1630.4182788008
 20
879.6360326895
 30
0.0
 40
1.100000000000023
  0
CIRCLE
  5
356
330
1F
100
AcDbEntity
  8
0
  6
CONTINUOUS
 62
     7
100
AcDbCircle
 10
1630.4182788008
 20
729.6360326895
 30
0.0
 40
1.100000000000023
  0
CIRCLE
  5
357
330
1F
100
AcDbEntity
  8
0
  6
CONTINUOUS
 62
     7
100
AcDbCircle
 10
1630.4182788008
 20
929.6360326895
 30
0.0
 40
1.100000000000023
  0
LINE
  5
358
330
1F
100
AcDbEntity
  8
0
  6
CONTINUOUS
 62
     7
100
AcDbLine
 10
1638.1756374711
 20
894.6360347756
 30
0.0
 11
1638.1756374711
 21
864.6360335835
 31
0.0
  0
LINE
  5
359
330
1F
100
AcDbEntity
  8
0
  6
CONTINUOUS
 62
     7
100
AcDbLine
 10
1645.3431258076
 20
894.6360347756
 30
0.0
 11
1645.3431258076
 21
864.6360335835
 31
0.0
  0
LINE
  5
35A
330
1F
100
AcDbEntity
  8
0
  6
CONTINUOUS
 62
     7
100
AcDbLine
 10
1645.3431258076
 20
894.6360347756
 30
0.0
 11
1638.1756374711
 21
894.6360347756
 31
0.0
  0
LINE
  5
35B
330
1F
100
AcDbEntity
  8
0
  6
CONTINUOUS
 62
     7
100
AcDbLine
 10
1645.3431258076
 20
864.6360335835
 30
0.0
 11
1638.1756374711
 21
864.6360335835
 31
0.0
  0
LINE
  5
35C
330
1F
100
AcDbEntity
  8
0
  6
CONTINUOUS
 62
     7
100
AcDbLine
 10
1645.3431258076
 20
664.6360306033
 30
0.0
 11
1645.3431258076
 21
694.6360317954
 31
0.0
  0
LINE
  5
35D
330
1F
100
AcDbEntity
  8
0
  6
CONTINUOUS
 62
     7
100
AcDbLine
 10
1638.1756374711
 20
664.6360306033
 30
0.0
 11
1638.1756374711
 21
694.6360317954
 31
0.0
  0
LINE
  5
35E
330
1F
100
AcDbEntity
  8
0
  6
CONTINUOUS
 62
     7
100
AcDbLine
 10
1645.3431258076
 20
694.6360317954
 30
0.0
 11
1638.1756374711
 21
694.6360317954
 31
0.0
  0
LINE
  5
35F
330
1F
100
AcDbEntity
  8
0
  6
CONTINUOUS
 62
     7
100
AcDbLine
 10
1645.3431258076
 20
664.6360306033
 30
0.0
 11
1638.1756374711
 21
664.6360306033
 31
0.0
  0
LINE
  5
360
330
1F
100
AcDbEntity
  8
0
  6
CONTINUOUS
 62
     7
100
AcDbLine
 10
1638.1756374711
 20
894.6360347756
 30
0.0
 11
1636.0682854527
 21
894.6360347756
 31
0.0
  0
LINE
  5
361
330
1F
100
AcDbEntity
  8
0
  6
CONTINUOUS
 62
     7
100
AcDbLine
 10
1638.1756374711
 20
864.6360335835
 30
0.0
 11
1636.0682854527
 21
864.6360335835
 31
0.0
  0
LINE
  5
362
330
1F
100
AcDbEntity
  8
0
  6
CONTINUOUS
 62
     7
100
AcDbLine
 10
1638.1756374711
 20
694.6360317954
 30
0.0
 11
1636.0682854527
 21
694.6360317954
 31
0.0
  0
LINE
  5
363
330
1F
100
AcDbEntity
  8
0
  6
CONTINUOUS
 62
     7
100
AcDbLine
 10
1638.1756374711
 20
664.6360306033
 30
0.0
 11
1636.0682854527
 21
664.6360306033
 31
0.0
  0
ENDSEC
  0
SECTION
  2
OBJECTS
  0
DICTIONARY
  5
C
330
0
100
AcDbDictionary
  3
ACAD_GROUP
350
D
  3
ACAD_LAYOUT
350
1A
  3
ACAD_MLEADERSTYLE
350
385
  3
ACAD_MLINESTYLE
350
17
  3
ACAD_PLOTSETTINGS
350
19
  3
ACAD_TABLESTYLE
350
384
  3
ACAD_VISUALSTYLE
350
2A
  3
ACDBHEADERROUNDTRIPXREC
350
364
  3
ACDBVARIABLEDICTIONARY
350
386
  0
DICTIONARY
  5
D
102
{ACAD_REACTORS
330
C
102
}
330
C
100
AcDbDictionary
  0
DICTIONARY
  5
1A
102
{ACAD_REACTORS
330
C
102
}
330
C
100
AcDbDictionary
  0
DICTIONARY
  5
385
102
{ACAD_REACTORS
330
C
102
}
330
C
100
AcDbDictionary
  0
DICTIONARY
  5
17
102
{ACAD_REACTORS
330
C
102
}
330
C
100
AcDbDictionary
  3
STANDARD
350
18
  0
DICTIONARY
  5
19
102
{ACAD_REACTORS
330
C
102
}
330
C
100
AcDbDictionary
  0
DICTIONARY
  5
384
102
{ACAD_REACTORS
330
C
102
}
330
C
100
AcDbDictionary
  0
DICTIONARY
  5
2A
102
{ACAD_REACTORS
330
C
102
}
330
C
100
AcDbDictionary
  3
2DWIREFRAME
350
2F
  3
3D_HIDDEN
350
31
  3
3DWIREFRAME
350
30
  3
BASIC
350
32
  3
BRIGHTEN
350
36
  3
COLORCHANGE
350
3A
  3
CONCEPTUAL
350
34
  3
DIM
350
35
  3
FACEPATTERN
350
39
  3
FLAT
350
2B
  3
FLATWITHEDGES
350
2C
  3
GOURAUD
350
2D
  3
GOURAUDWITHEDGES
350
2E
  3
LINEPATTERN
350
38
  3
REALISTIC
350
33
  3
THICKEN
350
37
  0
DICTIONARY
  5
364
102
{ACAD_REACTORS
330
C
102
}
330
C
100
AcDbDictionary
  3
CEPSNTYPE
350
36D
  3
DIMSTYLEDATA
350
383
  3
FINGERPRINTGUID
350
36E
  3
HYPERLINKBASE
350
367
  3
INSUNITS
350
36C
  3
LAYOUTDICT
350
369
  3
LWETCUNION
350
36B
  3
PLOTSETDICT
350
36A
  3
PSVPSCALE
350
370
  3
PUCSBASE
350
373
  3
PUCSORGBACK
350
379
  3
PUCSORGBOTTOM
350
375
  3
PUCSORGFRONT
350
378
  3
PUCSORGLEFT
350
376
  3
PUCSORGRIGHT
350
377
  3
PUCSORGTOP
350
374
  3
PUCSORTHOREF
350
371
  3
PUCSORTHOVIEW
350
372
  3
STYLESHEET
350
368
  3
TSTACKALIGN
350
365
  3
TSTACKSIZE
350
366
  3
UCSBASE
350
37C
  3
UCSORGBACK
350
382
  3
UCSORGBOTTOM
350
37E
  3
UCSORGFRONT
350
381
  3
UCSORGLEFT
350
37F
  3
UCSORGRIGHT
350
380
  3
UCSORGTOP
350
37D
  3
UCSORTHOREF
350
37A
  3
UCSORTHOVIEW
350
37B
  3
VERSIONGUID
350
36F
  0
DICTIONARY
  5
386
102
{ACAD_REACTORS
330
C
102
}
330
C
100
AcDbDictionary
  3
PSOLHEIGHT
350
388
  3
PSOLWIDTH
350
387
  0
MLINESTYLE
  5
18
102
{ACAD_REACTORS
330
17
102
}
330
17
100
AcDbMlineStyle
  2
Standard
 70
     0
  3

 62
   256
 51
90.0
 52
90.0
 71
     2
 49
0.5
 62
   256
  6
BYLAYER
 49
-0.5
 62
   256
  6
BYLAYER
  0
VISUALSTYLE
  5
2F
102
{ACAD_REACTORS
330
2A
102
}
330
2A
100
AcDbVisualStyle
  2
2dWireframe
 70
     4
 71
     0
 72
     2
 73
     0
 90
        0
 40
-0.6
 41
-30.0
 62
     5
 63
     7
 74
     1
 91
        4
 64
     7
 65
   257
 75
     1
175
     1
 42
1.0
 92
        0
 66
   257
 43
1.0
 76
     1
 77
     6
 78
     2
 67
     7
 79
     5
170
     0
171
     0
290
     0
174
     0
 93
        1
 44
0.0
173
     0
291
     0
 45
0.0
1001
ACAD
1000
AcDbSavedByObjectVersion
1070
     0
  0
VISUALSTYLE
  5
31
102
{ACAD_REACTORS
330
2A
102
}
330
2A
100
AcDbVisualStyle
  2
3D Hidden
 70
     6
 71
     1
 72
     2
 73
     2
 90
        0
 40
-0.6
 41
-30.0
 62
     5
 63
     7
 74
     2
 91
        2
 64
     7
 65
   257
 75
     2
175
     1
 42
40.0
 92
        0
 66
   257
 43
1.0
 76
     1
 77
     6
 78
     2
 67
     7
 79
     3
170
     0
171
     0
290
     0
174
     0
 93
        1
 44
0.0
173
     0
291
     0
 45
0.0
1001
ACAD
1000
AcDbSavedByObjectVersion
1070
     0
  0
VISUALSTYLE
  5
30
102
{ACAD_REACTORS
330
2A
102
}
330
2A
100
AcDbVisualStyle
  2
3dWireframe
 70
     5
 71
     0
 72
     2
 73
     0
 90
        0
 40
-0.6
 41
-30.0
 62
     5
 63
     7
 74
     1
 91
        4
 64
     7
 65
   257
 75
     1
175
     1
 42
1.0
 92
        0
 66
   257
 43
1.0
 76
     1
 77
     6
 78
     2
 67
     7
 79
     5
170
     0
171
     0
290
     0
174
     0
 93
        1
 44
0.0
173
     0
291
     0
 45
0.0
1001
ACAD
1000
AcDbSavedByObjectVersion
1070
     0
  0
VISUALSTYLE
  5
32
102
{ACAD_REACTORS
330
2A
102
}
330
2A
100
AcDbVisualStyle
  2
Basic
 70
     7
 71
     1
 72
     0
 73
     1
 90
        0
 40
-0.6
 41
-30.0
 62
     5
 63
     7
 74
     0
 91
        4
 64
     7
 65
   257
 75
     1
175
     1
 42
1.0
 92
        8
 66
     7
 43
1.0
 76
     1
 77
     6
 78
     2
 67
     7
 79
     5
170
     0
171
     0
290
     0
174
     0
 93
        1
 44
0.0
173
     0
291
     1
 45
0.0
1001
ACAD
1000
AcDbSavedByObjectVersion
1070
     0
  0
VISUALSTYLE
  5
36
102
{ACAD_REACTORS
330
2A
102
}
330
2A
100
AcDbVisualStyle
  2
Brighten
 70
    12
 71
     2
 72
     2
 73
     0
 90
        0
 40
-0.6
 41
-30.0
 62
     5
 63
     7
 74
     1
 91
        4
 64
     7
 65
   257
 75
     1
175
     1
 42
1.0
 92
        8
 66
     7
 43
1.0
 76
     1
 77
     6
 78
     2
 67
     7
 79
     5
170
     0
171
     0
290
     0
174
     0
 93
        1
 44
50.0
173
     0
291
     1
 45
0.0
1001
ACAD
1000
AcDbSavedByObjectVersion
1070
     0
  0
VISUALSTYLE
  5
3A
102
{ACAD_REACTORS
330
2A
102
}
330
2A
100
AcDbVisualStyle
  2
ColorChange
 70
    16
 71
     2
 72
     2
 73
     3
 90
        0
 40
-0.6
 41
-30.0
 62
     5
 63
     8
 74
     1
 91
        4
 64
     7
 65
   257
 75
     1
175
     1
 42
1.0
 92
        8
 66
     8
 43
1.0
 76
     1
 77
     6
 78
     2
 67
     7
 79
     5
170
     0
171
     0
290
     0
174
     0
 93
        1
 44
0.0
173
     0
291
     1
 45
0.0
1001
ACAD
1000
AcDbSavedByObjectVersion
1070
     0
  0
VISUALSTYLE
  5
34
102
{ACAD_REACTORS
330
2A
102
}
330
2A
100
AcDbVisualStyle
  2
Conceptual
 70
     9
 71
     3
 72
     2
 73
     0
 90
        0
 40
-0.6
 41
-30.0
 62
     5
 63
     7
 74
     2
 91
        2
 64
     7
 65
   257
 75
     1
175
     1
 42
40.0
 92
        8
 66
     7
 43
1.0
 76
     1
 77
     6
 78
     2
 67
     7
 79
     3
170
     0
171
     0
290
     0
174
     0
 93
        1
 44
0.0
173
     0
291
     0
 45
0.0
1001
ACAD
1000
AcDbSavedByObjectVersion
1070
     0
  0
VISUALSTYLE
  5
35
102
{ACAD_REACTORS
330
2A
102
}
330
2A
100
AcDbVisualStyle
  2
Dim
 70
    11
 71
     2
 72
     2
 73
     0
 90
        0
 40
-0.6
 41
-30.0
 62
     5
 63
     7
 74
     1
 91
        4
 64
     7
 65
   257
 75
     1
175
     1
 42
1.0
 92
        8
 66
     7
 43
1.0
 76
     1
 77
     6
 78
     2
 67
     7
 79
     5
170
     0
171
     0
290
     0
174
     0
 93
        1
 44
-50.0
173
     0
291
     1
 45
0.0
1001
ACAD
1000
AcDbSavedByObjectVersion
1070
     0
  0
VISUALSTYLE
  5
39
102
{ACAD_REACTORS
330
2A
102
}
330
2A
100
AcDbVisualStyle
  2
Facepattern
 70
    15
 71
     2
 72
     2
 73
     0
 90
        0
 40
-0.6
 41
-30.0
 62
     5
 63
     7
 74
     1
 91
        4
 64
     7
 65
   257
 75
     1
175
     1
 42
1.0
 92
        8
 66
     7
 43
1.0
 76
     1
 77
     6
 78
     2
 67
     7
 79
     5
170
     0
171
     0
290
     0
174
     0
 93
        1
 44
0.0
173
     0
291
     1
 45
0.0
1001
ACAD
1000
AcDbSavedByObjectVersion
1070
     0
  0
VISUALSTYLE
  5
2B
102
{ACAD_REACTORS
330
2A
102
}
330
2A
100
AcDbVisualStyle
  2
Flat
 70
     0
 71
     2
 72
     1
 73
     1
 90
        2
 40
-0.6
 41
30.0
 62
     5
 63
     7
 74
     0
 91
        4
 64
     7
 65
   257
 75
     1
175
     1
 42
1.0
 92
        8
 66
     7
 43
1.0
 76
     1
 77
     6
 78
     2
 67
     7
 79
     5
170
     0
171
     0
290
     0
174
     0
 93
       13
 44
0.0
173
     0
291
     1
 45
0.0
1001
ACAD
1000
AcDbSavedByObjectVersion
1070
     0
  0
VISUALSTYLE
  5
2C
102
{ACAD_REACTORS
330
2A
102
}
330
2A
100
AcDbVisualStyle
  2
FlatWithEdges
 70
     1
 71
     2
 72
     1
 73
     1
 90
        2
 40
-0.6
 41
30.0
 62
     5
 63
     7
 74
     1
 91
        4
 64
     7
 65
   257
 75
     1
175
     1
 42
1.0
 92
        0
 66
   257
 43
1.0
 76
     1
 77
     6
 78
     2
 67
     7
 79
     5
170
     0
171
     0
290
     0
174
     0
 93
       13
 44
0.0
173
     0
291
     1
 45
0.0
1001
ACAD
1000
AcDbSavedByObjectVersion
1070
     0
  0
VISUALSTYLE
  5
2D
102
{ACAD_REACTORS
330
2A
102
}
330
2A
100
AcDbVisualStyle
  2
Gouraud
 70
     2
 71
     2
 72
     2
 73
     1
 90
        2
 40
-0.6
 41
30.0
 62
     5
 63
     7
 74
     0
 91
        4
 64
     7
 65
   257
 75
     1
175
     1
 42
1.0
 92
        0
 66
     7
 43
1.0
 76
     1
 77
     6
 78
     2
 67
     7
 79
     5
170
     0
171
     0
290
     0
174
     0
 93
       13
 44
0.0
173
     0
291
     1
 45
0.0
1001
ACAD
1000
AcDbSavedByObjectVersion
1070
     0
  0
VISUALSTYLE
  5
2E
102
{ACAD_REACTORS
330
2A
102
}
330
2A
100
AcDbVisualStyle
  2
GouraudWithEdges
 70
     3
 71
     2
 72
     2
 73
     1
 90
        2
 40
-0.6
 41
30.0
 62
     5
 63
     7
 74
     1
 91
        4
 64
     7
 65
   257
 75
     1
175
     1
 42
1.0
 92
        0
 66
   257
 43
1.0
 76
     1
 77
     6
 78
     2
 67
     7
 79
     5
170
     0
171
     0
290
     0
174
     0
 93
       13
 44
0.0
173
     0
291
     1
 45
0.0
1001
ACAD
1000
AcDbSavedByObjectVersion
1070
     0
  0
VISUALSTYLE
  5
38
102
{ACAD_REACTORS
330
2A
102
}
330
2A
100
AcDbVisualStyle
  2
Linepattern
 70
    14
 71
     2
 72
     2
 73
     0
 90
        0
 40
-0.6
 41
-30.0
 62
     5
 63
     7
 74
     1
 91
        4
 64
     7
 65
   257
 75
     7
175
     7
 42
1.0
 92
        8
 66
     7
 43
1.0
 76
     1
 77
     6
 78
     2
 67
     7
 79
     5
170
     0
171
     0
290
     0
174
     0
 93
        1
 44
0.0
173
     0
291
     1
 45
0.0
1001
ACAD
1000
AcDbSavedByObjectVersion
1070
     0
  0
VISUALSTYLE
  5
33
102
{ACAD_REACTORS
330
2A
102
}
330
2A
100
AcDbVisualStyle
  2
Realistic
 70
     8
 71
     2
 72
     2
 73
     0
 90
        0
 40
-0.6
 41
-30.0
 62
     5
 63
     7
 74
     1
 91
        0
 64
     7
 65
   257
 75
     1
175
     1
 42
1.0
 92
        8
 66
     8
 43
1.0
 76
     1
 77
     6
 78
     2
 67
     7
 79
     5
170
     0
171
     0
290
     0
174
     0
 93
       13
 44
0.0
173
     0
291
     0
 45
0.0
1001
ACAD
1000
AcDbSavedByObjectVersion
1070
     0
  0
VISUALSTYLE
  5
37
102
{ACAD_REACTORS
330
2A
102
}
330
2A
100
AcDbVisualStyle
  2
Thicken
 70
    13
 71
     2
 72
     2
 73
     0
 90
        0
 40
-0.6
 41
-30.0
 62
     5
 63
     7
 74
     1
 91
        4
 64
     7
 65
   257
 75
     1
175
     1
 42
1.0
 92
       12
 66
     7
 43
1.0
 76
     1
 77
     6
 78
     2
 67
     7
 79
     5
170
     0
171
     0
290
     0
174
     0
 93
        1
 44
0.0
173
     0
291
     1
 45
0.0
1001
ACAD
1000
AcDbSavedByObjectVersion
1070
     0
  0
XRECORD
  5
36D
102
{ACAD_REACTORS
330
364
102
}
330
364
100
AcDbXrecord
 90
        0
  0
XRECORD
  5
383
102
{ACAD_REACTORS
330
364
102
}
330
364
100
AcDbXrecord
1000
DSTYLE
1002
{
1070
   179
 70
     2
1070
   143
 40
0.0393700787
1070
    41
 40
30.0
1070
    44
 40
5.0
1070
    42
 40
5.0
1070
   147
 40
7.62
1070
    73
 70
     1
1070
    74
 70
     1
1070
   340
340
11
1070
   140
 40
17.5
1070
   284
 70
     0
1070
    78
 70
     0
1002
}
  0
XRECORD
  5
36E
102
{ACAD_REACTORS
330
364
102
}
330
364
100
AcDbXrecord
  1
{B43A0E0F-C0DC-4EF2-9FAF-70AE8CC0BA3C}
  0
XRECORD
  5
367
102
{ACAD_REACTORS
330
364
102
}
330
364
100
AcDbXrecord
  1

  0
XRECORD
  5
36C
102
{ACAD_REACTORS
330
364
102
}
330
364
100
AcDbXrecord
 90
        4
  0
XRECORD
  5
369
102
{ACAD_REACTORS
330
364
102
}
330
364
100
AcDbXrecord
340
1A
  0
XRECORD
  5
36B
102
{ACAD_REACTORS
330
364
102
}
330
364
100
AcDbXrecord
 90
    10269
  0
XRECORD
  5
36A
102
{ACAD_REACTORS
330
364
102
}
330
364
100
AcDbXrecord
340
19
  0
XRECORD
  5
370
102
{ACAD_REACTORS
330
364
102
}
330
364
100
AcDbXrecord
 40
0.0
  0
XRECORD
  5
373
102
{ACAD_REACTORS
330
364
102
}
330
364
100
AcDbXrecord
340
0
  0
XRECORD
  5
379
102
{ACAD_REACTORS
330
364
102
}
330
364
100
AcDbXrecord
 10
0.0
 20
0.0
 30
0.0
  0
XRECORD
  5
375
102
{ACAD_REACTORS
330
364
102
}
330
364
100
AcDbXrecord
 10
0.0
 20
0.0
 30
0.0
  0
XRECORD
  5
378
102
{ACAD_REACTORS
330
364
102
}
330
364
100
AcDbXrecord
 10
0.0
 20
0.0
 30
0.0
  0
XRECORD
  5
376
102
{ACAD_REACTORS
330
364
102
}
330
364
100
AcDbXrecord
 10
0.0
 20
0.0
 30
0.0
  0
XRECORD
  5
377
102
{ACAD_REACTORS
330
364
102
}
330
364
100
AcDbXrecord
 10
0.0
 20
0.0
 30
0.0
  0
XRECORD
  5
374
102
{ACAD_REACTORS
330
364
102
}
330
364
100
AcDbXrecord
 10
0.0
 20
0.0
 30
0.0
  0
XRECORD
  5
371
102
{ACAD_REACTORS
330
364
102
}
330
364
100
AcDbXrecord
340
0
  0
XRECORD
  5
372
102
{ACAD_REACTORS
330
364
102
}
330
364
100
AcDbXrecord
 70
     0
  0
XRECORD
  5
368
102
{ACAD_REACTORS
330
364
102
}
330
364
100
AcDbXrecord
  1

  0
XRECORD
  5
365
102
{ACAD_REACTORS
330
364
102
}
330
364
100
AcDbXrecord
 90
        1
  0
XRECORD
  5
366
102
{ACAD_REACTORS
330
364
102
}
330
364
100
AcDbXrecord
 90
       70
  0
XRECORD
  5
37C
102
{ACAD_REACTORS
330
364
102
}
330
364
100
AcDbXrecord
340
0
  0
XRECORD
  5
382
102
{ACAD_REACTORS
330
364
102
}
330
364
100
AcDbXrecord
 10
0.0
 20
0.0
 30
0.0
  0
XRECORD
  5
37E
102
{ACAD_REACTORS
330
364
102
}
330
364
100
AcDbXrecord
 10
0.0
 20
0.0
 30
0.0
  0
XRECORD
  5
381
102
{ACAD_REACTORS
330
364
102
}
330
364
100
AcDbXrecord
 10
0.0
 20
0.0
 30
0.0
  0
XRECORD
  5
37F
102
{ACAD_REACTORS
330
364
102
}
330
364
100
AcDbXrecord
 10
0.0
 20
0.0
 30
0.0
  0
XRECORD
  5
380
102
{ACAD_REACTORS
330
364
102
}
330
364
100
AcDbXrecord
 10
0.0
 20
0.0
 30
0.0
  0
XRECORD
  5
37D
102
{ACAD_REACTORS
330
364
102
}
330
364
100
AcDbXrecord
 10
0.0
 20
0.0
 30
0.0
  0
XRECORD
  5
37A
102
{ACAD_REACTORS
330
364
102
}
330
364
100
AcDbXrecord
340
0
  0
XRECORD
  5
37B
102
{ACAD_REACTORS
330
364
102
}
330
364
100
AcDbXrecord
 70
     0
  0
XRECORD
  5
36F
102
{ACAD_REACTORS
330
364
102
}
330
364
100
AcDbXrecord
  1
{FAEB1C32-E019-11D5-929B-00C0DF256EC4}
  0
DICTIONARYVAR
  5
388
102
{ACAD_REACTORS
330
386
102
}
330
386
100
DictionaryVariables
280
     0
  1
80.000000
  0
DICTIONARYVAR
  5
387
102
{ACAD_REACTORS
330
386
102
}
330
386
100
DictionaryVariables
280
     0
  1
5.000000
  0
ENDSEC
  0
EOF
