  0
SECTION
  2
HEADER
  9
$ACADVER
  1
AC1014
  9
$ACADMAINTVER
 70
     9
  9
$DWGCODEPAGE
  3
ANSI_1252
  9
$INSBASE
 10
0.0
 20
0.0
 30
0.0
  9
$EXTMIN
 10
0.0
 20
0.0
 30
0.0
  9
$EXTMAX
 10
210.0
 20
148.5
 30
0.0
  9
$LIMMIN
 10
0.0
 20
0.0
  9
$LIMMAX
 10
210.0
 20
148.5
  9
$ORTHOMODE
 70
     0
  9
$REGENMODE
 70
     1
  9
$FILLMODE
 70
     1
  9
$QTEXTMODE
 70
     0
  9
$MIRRTEXT
 70
     1
  9
$DRAGMODE
 70
     2
  9
$LTSCALE
 40
1.0
  9
$OSMODE
 70
    37
  9
$ATTMODE
 70
     1
  9
$TEXTSIZE
 40
1.75
  9
$TRACEWID
 40
1.0
  9
$TEXTSTYLE
  7
STANDARD
  9
$CLAYER
  8
0
  9
$CELTYPE
  6
BYLAYER
  9
$CECOLOR
 62
   256
  9
$CELTSCALE
 40
1.0
  9
$DELOBJ
 70
     1
  9
$DISPSILH
 70
     0
  9
$DIMSCALE
 40
1.0
  9
$DIMASZ
 40
3.0
  9
$DIMEXO
 40
0.5
  9
$DIMDLI
 40
3.75
  9
$DIMRND
 40
0.0
  9
$DIMDLE
 40
0.0
  9
$DIMEXE
 40
0.5
  9
$DIMTP
 40
0.0
  9
$DIMTM
 40
0.0
  9
$DIMTXT
 40
1.75
  9
$DIMCEN
 40
2.5
  9
$DIMTSZ
 40
0.0
  9
$DIMTOL
 70
     0
  9
$DIMLIM
 70
     0
  9
$DIMTIH
 70
     1
  9
$DIMTOH
 70
     1
  9
$DIMSE1
 70
     0
  9
$DIMSE2
 70
     0
  9
$DIMTAD
 70
     1
  9
$DIMZIN
 70
     0
  9
$DIMBLK
  1

  9
$DIMASO
 70
     1
  9
$DIMSHO
 70
     1
  9
$DIMPOST
  1

  9
$DIMAPOST
  1

  9
$DIMALT
 70
     0
  9
$DIMALTD
 70
     3
  9
$DIMALTF
 40
0.0393700787
  9
$DIMLFAC
 40
1.0
  9
$DIMTOFL
 70
     1
  9
$DIMTVP
 40
0.0
  9
$DIMTIX
 70
     0
  9
$DIMSOXD
 70
     0
  9
$DIMSAH
 70
     0
  9
$DIMBLK1
  1

  9
$DIMBLK2
  1

  9
$DIMSTYLE
  2
ISO-25
  9
$DIMCLRD
 70
     0
  9
$DIMCLRE
 70
     0
  9
$DIMCLRT
 70
     0
  9
$DIMTFAC
 40
1.0
  9
$DIMGAP
 40
0.762
  9
$DIMJUST
 70
     0
  9
$DIMSD1
 70
     0
  9
$DIMSD2
 70
     0
  9
$DIMTOLJ
 70
     0
  9
$DIMTZIN
 70
     0
  9
$DIMALTZ
 70
     0
  9
$DIMALTTZ
 70
     0
  9
$DIMFIT
 70
     3
  9
$DIMUPT
 70
     0
  9
$DIMUNIT
 70
     2
  9
$DIMDEC
 70
     2
  9
$DIMTDEC
 70
     2
  9
$DIMALTU
 70
     2
  9
$DIMALTTD
 70
     3
  9
$DIMTXSTY
  7
STANDARD
  9
$DIMAUNIT
 70
     0
  9
$LUNITS
 70
     2
  9
$LUPREC
 70
     2
  9
$SKETCHINC
 40
1.0
  9
$FILLETRAD
 40
10.0
  9
$AUNITS
 70
     0
  9
$AUPREC
 70
     2
  9
$MENU
  1
.
  9
$ELEVATION
 40
0.0
  9
$PELEVATION
 40
0.0
  9
$THICKNESS
 40
0.0
  9
$LIMCHECK
 70
     0
  9
$CHAMFERA
 40
10.0
  9
$CHAMFERB
 40
10.0
  9
$CHAMFERC
 40
20.0
  9
$CHAMFERD
 40
0.0
  9
$SKPOLY
 70
     0
  9
$TDCREATE
 40
2455264.517367118
  9
$TDUPDATE
 40
2455264.51736713
  9
$TDINDWG
 40
0.0000000116
  9
$TDUSRTIMER
 40
0.0000000116
  9
$USRTIMER
 70
     1
  9
$ANGBASE
 50
0.0
  9
$ANGDIR
 70
     0
  9
$PDMODE
 70
     0
  9
$PDSIZE
 40
-1.0
  9
$PLINEWID
 40
0.0
  9
$COORDS
 70
     1
  9
$SPLFRAME
 70
     0
  9
$SPLINETYPE
 70
     6
  9
$SPLINESEGS
 70
     8
  9
$ATTDIA
 70
     0
  9
$ATTREQ
 70
     1
  9
$HANDLING
 70
     1
  9
$HANDSEED
  5
240
  9
$SURFTAB1
 70
     6
  9
$SURFTAB2
 70
     6
  9
$SURFTYPE
 70
     6
  9
$SURFU
 70
     6
  9
$SURFV
 70
     6
  9
$UCSNAME
  2

  9
$UCSORG
 10
0.0
 20
0.0
 30
0.0
  9
$UCSXDIR
 10
1.0
 20
0.0
 30
0.0
  9
$UCSYDIR
 10
0.0
 20
1.0
 30
0.0
  9
$PUCSNAME
  2

  9
$PUCSORG
 10
0.0
 20
0.0
 30
0.0
  9
$PUCSXDIR
 10
1.0
 20
0.0
 30
0.0
  9
$PUCSYDIR
 10
0.0
 20
1.0
 30
0.0
  9
$USERI1
 70
     0
  9
$USERI2
 70
     0
  9
$USERI3
 70
     0
  9
$USERI4
 70
     0
  9
$USERI5
 70
     0
  9
$USERR1
 40
0.0
  9
$USERR2
 40
0.0
  9
$USERR3
 40
0.0
  9
$USERR4
 40
0.0
  9
$USERR5
 40
0.0
  9
$WORLDVIEW
 70
     1
  9
$SHADEDGE
 70
     3
  9
$SHADEDIF
 70
    70
  9
$TILEMODE
 70
     1
  9
$MAXACTVP
 70
    64
  9
$PINSBASE
 10
0.0
 20
0.0
 30
0.0
  9
$PLIMCHECK
 70
     0
  9
$PEXTMIN
 10
1.0000000000E+20
 20
1.0000000000E+20
 30
1.0000000000E+20
  9
$PEXTMAX
 10
-1.0000000000E+20
 20
-1.0000000000E+20
 30
-1.0000000000E+20
  9
$PLIMMIN
 10
0.0
 20
0.0
  9
$PLIMMAX
 10
420.0
 20
297.0
  9
$UNITMODE
 70
     0
  9
$VISRETAIN
 70
     1
  9
$PLINEGEN
 70
     0
  9
$PSLTSCALE
 70
     1
  9
$TREEDEPTH
 70
  3020
  9
$PICKSTYLE
 70
     1
  9
$CMLSTYLE
  2
STANDARD
  9
$CMLJUST
 70
     0
  9
$CMLSCALE
 40
20.0
  9
$PROXYGRAPHICS
 70
     1
  9
$MEASUREMENT
 70
     1
  0
ENDSEC
  0
SECTION
  2
CLASSES
  0
CLASS
  1
ACDBDICTIONARYWDFLT
  2
AcDbDictionaryWithDefault
  3
ObjectDBX Classes
 90
        0
280
     0
281
     0
  0
CLASS
  1
VISUALSTYLE
  2
AcDbVisualStyle
  3
ObjectDBX Classes
 90
     4095
280
     0
281
     0
  0
CLASS
  1
DICTIONARYVAR
  2
AcDbDictionaryVar
  3
ObjectDBX Classes
 90
        0
280
     0
281
     0
  0
CLASS
  1
XRECORD
  2
AcDbXrecord
  3
AutoCAD 2000
 90
        0
280
     0
281
     0
  0
CLASS
  1
LWPOLYLINE
  2
AcDbPolyline
  3
AutoCAD 2000
 90
        0
280
     0
281
     1
  0
CLASS
  1
HATCH
  2
AcDbHatch
  3
AutoCAD 2000
 90
        0
280
     0
281
     1
  0
CLASS
  1
ACDBPLACEHOLDER
  2
AcDbPlaceHolder
  3
ObjectDBX Classes
 90
        0
280
     0
281
     0
  0
CLASS
  1
LAYOUT
  2
AcDbLayout
  3
ObjectDBX Classes
 90
        0
280
     0
281
     0
  0
ENDSEC
  0
SECTION
  2
TABLES
  0
TABLE
  2
VPORT
  5
8
330
0
100
AcDbSymbolTable
 70
     1
  0
VPORT
  5
29
330
8
100
AcDbSymbolTableRecord
100
AcDbViewportTableRecord
  2
*ACTIVE
 70
     0
 10
0.0
 20
0.0
 11
1.0
 21
1.0
 12
105.0
 22
74.25
 13
0.0
 23
0.0
 14
10.0
 24
10.0
 15
10.0
 25
10.0
 16
0.0
 26
0.0
 36
1.0
 17
0.0
 27
0.0
 37
0.0
 40
148.5
 41
1.4141414141
 42
50.0
 43
0.0
 44
0.0
 50
0.0
 51
0.0
 71
     0
 72
  2000
 73
     1
 74
     3
 75
     0
 76
     0
 77
     0
 78
     0
  0
ENDTAB
  0
TABLE
  2
LTYPE
  5
5
330
0
100
AcDbSymbolTable
 70
     6
  0
LTYPE
  5
14
330
5
100
AcDbSymbolTableRecord
100
AcDbLinetypeTableRecord
  2
BYBLOCK
 70
     0
  3

 72
    65
 73
     0
 40
0.0
  0
LTYPE
  5
15
330
5
100
AcDbSymbolTableRecord
100
AcDbLinetypeTableRecord
  2
BYLAYER
 70
     0
  3

 72
    65
 73
     0
 40
0.0
  0
LTYPE
  5
16
330
5
100
AcDbSymbolTableRecord
100
AcDbLinetypeTableRecord
  2
CONTINUOUS
 70
     0
  3
Solid line
 72
    65
 73
     0
 40
0.0
  0
LTYPE
  5
3B
330
5
100
AcDbSymbolTableRecord
100
AcDbLinetypeTableRecord
  2
HIDDEN
 70
     0
  3
Hidden __ __ __ __ __ __ __ __ __ __ __ __ __ __
 72
    65
 73
     2
 40
1.905
 49
1.27
 74
     0
 49
-0.635
 74
     0
  0
LTYPE
  5
3C
330
5
100
AcDbSymbolTableRecord
100
AcDbLinetypeTableRecord
  2
PHANTOM
 70
     0
  3
Phantom ______  __  __  ______  __  __  ______
 72
    65
 73
     6
 40
12.7
 49
6.35
 74
     0
 49
-1.27
 74
     0
 49
1.27
 74
     0
 49
-1.27
 74
     0
 49
1.27
 74
     0
 49
-1.27
 74
     0
  0
LTYPE
  5
3D
330
5
100
AcDbSymbolTableRecord
100
AcDbLinetypeTableRecord
  2
CENTER
 70
     0
  3
Center ____ _ ____ _ ____ _ ____ _ ____ _ ____
 72
    65
 73
     4
 40
10.16
 49
6.35
 74
     0
 49
-1.27
 74
     0
 49
1.27
 74
     0
 49
-1.27
 74
     0
  0
LTYPE
  5
3E
330
5
100
AcDbSymbolTableRecord
100
AcDbLinetypeTableRecord
  2
CENTERX2
 70
     0
  3
Center (2x) ________  __  ________  __  _____
 72
    65
 73
     4
 40
20.32
 49
12.7
 74
     0
 49
-2.54
 74
     0
 49
2.54
 74
     0
 49
-2.54
 74
     0
  0
LTYPE
  5
3F
330
5
100
AcDbSymbolTableRecord
100
AcDbLinetypeTableRecord
  2
DOT2
 70
     0
  3
Dot (.5x) ........................................
 72
    65
 73
     2
 40
0.635
 49
0.0
 74
     0
 49
-0.635
 74
     0
  0
ENDTAB
  0
TABLE
  2
LAYER
  5
2
330
0
100
AcDbSymbolTable
 70
     1
  0
LAYER
  5
10
330
2
100
AcDbSymbolTableRecord
100
AcDbLayerTableRecord
  2
0
 70
     0
 62
     7
  6
CONTINUOUS
  0
ENDTAB
  0
TABLE
  2
STYLE
  5
3
330
0
100
AcDbSymbolTable
 70
     1
  0
STYLE
  5
11
330
3
100
AcDbSymbolTableRecord
100
AcDbTextStyleTableRecord
  2
STANDARD
 70
     0
 40
0.0
 41
1.0
 50
0.0
 71
     0
 42
2.5
  3
txt
  4

  0
ENDTAB
  0
TABLE
  2
VIEW
  5
6
330
0
100
AcDbSymbolTable
 70
     0
  0
ENDTAB
  0
TABLE
  2
UCS
  5
7
330
0
100
AcDbSymbolTable
 70
     0
  0
ENDTAB
  0
TABLE
  2
APPID
  5
9
330
0
100
AcDbSymbolTable
 70
     1
  0
APPID
  5
12
330
9
100
AcDbSymbolTableRecord
100
AcDbRegAppTableRecord
  2
ACAD
 70
     0
  0
ENDTAB
  0
TABLE
  2
DIMSTYLE
  5
A
330
0
100
AcDbSymbolTable
 70
     1
  0
DIMSTYLE
105
27
330
A
100
AcDbSymbolTableRecord
100
AcDbDimStyleTableRecord
  2
ISO-25
 70
     0
  3

  4

  5

  6

  7

 40
1.0
 41
2.5
 42
0.625
 43
3.75
 44
1.25
 45
0.0
 46
0.0
 47
0.0
 48
0.0
140
2.5
141
2.5
142
0.0
143
0.0393700787
144
1.0
145
0.0
146
1.0
147
0.625
 71
     0
 72
     0
 73
     0
 74
     0
 75
     0
 76
     0
 77
     1
 78
     8
170
     0
171
     3
172
     1
173
     0
174
     0
175
     0
176
     0
177
     0
178
     0
270
     2
271
     2
272
     2
273
     2
274
     3
340
11
275
     0
280
     0
281
     0
282
     0
283
     0
284
     8
285
     0
286
     0
287
     3
288
     0
  0
ENDTAB
  0
TABLE
  2
BLOCK_RECORD
  5
1
330
0
100
AcDbSymbolTable
 70
     1
  0
BLOCK_RECORD
  5
1F
330
1
100
AcDbSymbolTableRecord
100
AcDbBlockTableRecord
  2
*MODEL_SPACE
  0
BLOCK_RECORD
  5
1B
330
1
100
AcDbSymbolTableRecord
100
AcDbBlockTableRecord
  2
*PAPER_SPACE
  0
ENDTAB
  0
ENDSEC
  0
SECTION
  2
BLOCKS
  0
BLOCK
  5
20
330
1F
100
AcDbEntity
  8
0
100
AcDbBlockBegin
  2
*MODEL_SPACE
 70
     0
 10
0.0
 20
0.0
 30
0.0
  3
*MODEL_SPACE
  1

  0
ENDBLK
  5
21
330
1F
100
AcDbEntity
  8
0
100
AcDbBlockEnd
  0
BLOCK
  5
1C
330
1B
100
AcDbEntity
 67
     1
  8
0
100
AcDbBlockBegin
  2
*PAPER_SPACE
 70
     0
 10
0.0
 20
0.0
 30
0.0
  3
*PAPER_SPACE
  1

  0
ENDBLK
  5
1D
330
1B
100
AcDbEntity
 67
     1
  8
0
100
AcDbBlockEnd
  0
ENDSEC
  0
SECTION
  2
ENTITIES
  0
LINE
  5
40
330
1F
100
AcDbEntity
  8
0
  6
CONTINUOUS
 62
     7
100
AcDbLine
 10
64.5227070909
 20
37.9319160737
 30
0.0
 11
64.5227070909
 21
45.9319160737
 31
0.0
  0
LINE
  5
41
330
1F
100
AcDbEntity
  8
0
  6
CONTINUOUS
 62
     7
100
AcDbLine
 10
45.9227070909
 20
45.9319160737
 30
0.0
 11
45.9227070909
 21
37.9319160737
 31
0.0
  0
LINE
  5
42
330
1F
100
AcDbEntity
  8
0
  6
CONTINUOUS
 62
     7
100
AcDbLine
 10
64.5227070909
 20
45.9319160737
 30
0.0
 11
63.9453568217
 21
46.9319160737
 31
0.0
  0
LINE
  5
43
330
1F
100
AcDbEntity
  8
0
  6
CONTINUOUS
 62
     7
100
AcDbLine
 10
46.5000573601
 20
46.9319160737
 30
0.0
 11
45.9227070909
 21
45.9319160737
 31
0.0
  0
SPLINE
  5
44
330
1F
100
AcDbEntity
  8
0
  6
CONTINUOUS
 62
     7
100
AcDbSpline
210
0.0
220
0.0
230
1.0
 70
     8
 71
     3
 72
    18
 73
    14
 74
     0
 42
0.00000001
 43
0.00000001
 40
0.0
 40
0.0
 40
0.0
 40
0.0
 40
0.2500000000000001
 40
0.2500000000000001
 40
0.3750000000000002
 40
0.3750000000000002
 40
0.5000000000000002
 40
0.5000000000000002
 40
0.7500000000000003
 40
0.7500000000000003
 40
0.8750000000000002
 40
0.8750000000000002
 40
1.0
 40
1.0
 40
1.0
 40
1.0
 10
50.4369190447936
 20
29.57029716150785
 30
0.0
 10
51.1946294356941
 20
29.71372993152879
 30
0.0
 10
51.97261623943304
 20
29.82892356913513
 30
0.0
 10
53.17098747755677
 20
29.94763864006918
 30
0.0
 10
53.57570631576425
 20
29.97820547448931
 30
0.0
 10
54.39620585755953
 20
30.01945053797921
 30
0.0
 10
54.81030695408748
 20
30.02989918304793
 30
0.0
 10
56.03967698490315
 20
30.03002986021754
 30
0.0
 10
56.85134788301921
 20
29.98894748927772
 30
0.0
 10
58.05721394176888
 20
29.87038394514237
 30
0.0
 10
58.45833974222676
 20
29.82117134722565
 30
0.0
 10
59.24375317490395
 20
29.70704282012677
 30
0.0
 10
59.62950099771701
 20
29.64203984825434
 30
0.0
 10
60.00849513699924
 20
29.57029716150782
 30
0.0
  0
ARC
  5
45
330
1F
100
AcDbEntity
  8
0
  6
CONTINUOUS
 62
     7
100
AcDbCircle
 10
58.1449019232
 20
29.7808194379
 30
0.0
 40
1.875446425639327
100
AcDbArc
 50
322.4835860997
 51
353.5548604788
  0
SPLINE
  5
46
330
1F
100
AcDbEntity
  8
0
  6
CONTINUOUS
 62
     7
100
AcDbSpline
210
0.0
220
0.0
230
1.0
 70
     8
 71
     3
 72
    18
 73
    14
 74
     0
 42
0.00000001
 43
0.00000001
 40
0.0
 40
0.0
 40
0.0
 40
0.0
 40
0.2499999999999999
 40
0.2499999999999999
 40
0.3749999999999999
 40
0.3749999999999999
 40
0.5
 40
0.5
 40
0.75
 40
0.75
 40
0.875
 40
0.875
 40
1.0
 40
1.0
 40
1.0
 40
1.0
 10
59.63246647826961
 20
28.63869379249258
 30
0.0
 10
58.93898951330902
 20
28.78768413547527
 30
0.0
 10
58.22439232798205
 20
28.90819612690415
 30
0.0
 10
57.11877693979171
 20
29.03287936301267
 30
0.0
 10
56.74458680210226
 20
29.06509384014467
 30
0.0
 10
55.98414223789785
 20
29.10857962235021
 30
0.0
 10
55.6037668936215
 20
29.11945665493619
 30
0.0
 10
54.46928000463336
 20
29.11962163489988
 30
0.0
 10
53.71866090503436
 20
29.07651323963641
 30
0.0
 10
52.60121616543806
 20
28.95135056624204
 30
0.0
 10
52.23331543193763
 20
28.89987741053245
 30
0.0
 10
51.5132095328268
 20
28.78087774726129
 30
0.0
 10
51.15985669646619
 20
28.71322559737415
 30
0.0
 10
50.81294770352324
 20
28.63869379249252
 30
0.0
  0
ARC
  5
47
330
1F
100
AcDbEntity
  8
0
  6
CONTINUOUS
 62
     7
100
AcDbCircle
 10
52.3005122586
 20
29.7808194379
 30
0.0
 40
1.875446425639877
100
AcDbArc
 50
186.4451395212
 51
217.5164139003
  0
LINE
  5
48
330
1F
100
AcDbEntity
  8
0
  6
CONTINUOUS
 62
     7
100
AcDbLine
 10
42.8727070909
 20
37.9319160737
 30
0.0
 11
67.5727070909
 21
37.9319160737
 31
0.0
  0
LINE
  5
49
330
1F
100
AcDbEntity
  8
0
  6
CONTINUOUS
 62
     7
100
AcDbLine
 10
67.9855815849
 20
28.4755354611
 30
0.0
 11
67.5727070909
 21
37.9319160737
 31
0.0
  0
LINE
  5
4A
330
1F
100
AcDbEntity
  8
0
  6
CONTINUOUS
 62
     7
100
AcDbLine
 10
67.3361714907
 20
28.4755354611
 30
0.0
 11
67.9855815849
 21
28.4755354611
 31
0.0
  0
SPLINE
  5
4B
330
1F
100
AcDbEntity
  8
0
  6
CONTINUOUS
 62
     7
100
AcDbSpline
210
0.0
220
0.0
230
1.0
 70
     8
 71
     3
 72
    20
 73
    16
 74
     0
 42
0.00000001
 43
0.00000001
 40
0.0
 40
0.0
 40
0.0
 40
0.0
 40
0.2500000000000001
 40
0.2500000000000001
 40
0.3749999999999999
 40
0.3749999999999999
 40
0.4999999999999999
 40
0.4999999999999999
 40
0.6249999999999998
 40
0.6249999999999998
 40
0.7499999999999999
 40
0.7499999999999999
 40
0.875
 40
0.875
 40
1.0
 40
1.0
 40
1.0
 40
1.0
 10
60.00849513699924
 20
29.57029716150782
 30
0.0
 10
60.84148849931653
 20
29.84017552912663
 30
0.0
 10
61.6508221835882
 20
29.95924451653217
 30
0.0
 10
62.81082774082103
 20
29.98138047574559
 30
0.0
 10
63.18183991045391
 20
29.96184414996589
 30
0.0
 10
63.88588691797482
 20
29.88191173425331
 30
0.0
 10
64.22032917613258
 20
29.82145598210808
 30
0.0
 10
64.85470609602956
 20
29.66938784486409
 30
0.0
 10
65.1516213095322
 20
29.5783573002785
 30
0.0
 10
65.70026404915072
 20
29.37919325246681
 30
0.0
 10
65.9533538074544
 20
29.27067332701014
 30
0.0
 10
66.41905720647706
 20
29.04535362065775
 30
0.0
 10
66.6316706048223
 20
28.92849719841952
 30
0.0
 10
67.01628510426104
 20
28.69663709227434
 30
0.0
 10
67.18781657723008
 20
28.58183484387978
 30
0.0
 10
67.33617149068982
 20
28.47553546106014
 30
0.0
  0
SPLINE
  5
4C
330
1F
100
AcDbEntity
  8
0
  6
CONTINUOUS
 62
     7
100
AcDbSpline
210
0.0
220
0.0
230
1.0
 70
     8
 71
     3
 72
    20
 73
    16
 74
     0
 42
0.00000001
 43
0.00000001
 40
0.0
 40
0.0
 40
0.0
 40
0.0
 40
0.2500000000000002
 40
0.2500000000000002
 40
0.3750000000000002
 40
0.3750000000000002
 40
0.4999999999999999
 40
0.4999999999999999
 40
0.6249999999999997
 40
0.6249999999999997
 40
0.6874999999999997
 40
0.6874999999999997
 40
0.7499999999999999
 40
0.7499999999999999
 40
1.0
 40
1.0
 40
1.0
 40
1.0
 10
43.10924269110306
 20
28.47553546106023
 30
0.0
 10
43.40663161940147
 20
28.68862081696989
 30
0.0
 10
43.78905874616194
 20
28.93019261951658
 30
0.0
 10
44.48776248128961
 20
29.26876635437417
 30
0.0
 10
44.74179579839111
 20
29.37793614809658
 30
0.0
 10
45.29522336803177
 20
29.57891589081037
 30
0.0
 10
45.59388014197286
 20
29.67019736587729
 30
0.0
 10
46.22429339627477
 20
29.82121689827374
 30
0.0
 10
46.55755576190672
 20
29.88160807329168
 30
0.0
 10
47.08575729711402
 20
29.94169569402778
 30
0.0
 10
47.26655530816954
 20
29.95662477585439
 30
0.0
 10
47.63799346612296
 20
29.97465016983299
 30
0.0
 10
47.82913153530655
 20
29.97768256395049
 30
0.0
 10
48.79292561195065
 20
29.95921811308804
 30
0.0
 10
49.60173245791513
 20
29.84088610365362
 30
0.0
 10
50.4369190447936
 20
29.57029716150785
 30
0.0
  0
LINE
  5
4D
330
1F
100
AcDbEntity
  8
0
  6
CONTINUOUS
 62
     7
100
AcDbLine
 10
42.4598325968
 20
28.4755354611
 30
0.0
 11
43.1092426911
 21
28.4755354611
 31
0.0
  0
LINE
  5
4E
330
1F
100
AcDbEntity
  8
0
  6
CONTINUOUS
 62
     7
100
AcDbLine
 10
42.4598325968
 20
28.4755354611
 30
0.0
 11
42.8727070909
 21
37.9319160737
 31
0.0
  0
SPLINE
  5
4F
330
1F
100
AcDbEntity
  8
0
  6
CONTINUOUS
 62
     7
100
AcDbSpline
210
0.0
220
0.0
230
1.0
 70
     8
 71
     3
 72
    18
 73
    14
 74
     0
 42
0.00000001
 43
0.00000001
 40
0.0
 40
0.0
 40
0.0
 40
0.0
 40
0.125
 40
0.125
 40
0.25
 40
0.25
 40
0.4999999999999999
 40
0.4999999999999999
 40
0.6249999999999999
 40
0.6249999999999999
 40
0.7499999999999999
 40
0.7499999999999999
 40
1.0
 40
1.0
 40
1.0
 40
1.0
 10
50.81294770352322
 20
28.63869379249252
 30
0.0
 10
51.13387490209173
 20
28.52060018205895
 30
0.0
 10
51.41434926108094
 20
28.39120248858598
 30
0.0
 10
51.91871058857528
 20
28.12445964587214
 30
0.0
 10
52.14232621426896
 20
27.98685794280999
 30
0.0
 10
52.74519381591857
 20
27.57604692511653
 30
0.0
 10
53.04051448396024
 20
27.31879520640458
 30
0.0
 10
53.39379103852708
 20
26.9795548367897
 30
0.0
 10
53.4960997321944
 20
26.87378399821169
 30
0.0
 10
53.67389492612858
 20
26.68112751540113
 30
0.0
 10
53.74912724336392
 20
26.59454950388492
 30
0.0
 10
53.9419160335818
 20
26.36490584208671
 30
0.0
 10
54.02720785268887
 20
26.25188082222881
 30
0.0
 10
54.07984169095778
 20
26.18125876474374
 30
0.0
  0
SPLINE
  5
50
330
1F
100
AcDbEntity
  8
0
  6
CONTINUOUS
 62
     7
100
AcDbSpline
210
0.0
220
0.0
230
1.0
 70
     8
 71
     3
 72
    18
 73
    14
 74
     0
 42
0.00000001
 43
0.00000001
 40
0.0
 40
0.0
 40
0.0
 40
0.0
 40
0.2499999999999997
 40
0.2499999999999997
 40
0.4999999999999993
 40
0.4999999999999993
 40
0.6249999999999994
 40
0.6249999999999994
 40
0.7499999999999997
 40
0.7499999999999997
 40
0.8749999999999998
 40
0.8749999999999998
 40
1.0
 40
1.0
 40
1.0
 40
1.0
 10
56.36557249083508
 20
26.18125876474368
 30
0.0
 10
56.41822095651334
 20
26.25190044872339
 30
0.0
 10
56.50340468561719
 20
26.36470323829292
 30
0.0
 10
56.75784165099126
 20
26.66796172643814
 30
0.0
 10
56.9264002010075
 20
26.85855508125789
 30
0.0
 10
57.27798346747817
 20
27.19727729809145
 30
0.0
 10
57.41294554463703
 20
27.31979711021586
 30
0.0
 10
57.72165188180133
 20
27.57538553242153
 30
0.0
 10
57.89528625494577
 20
27.70857003598502
 30
0.0
 10
58.29312806198752
 20
27.98045564963293
 30
0.0
 10
58.51954022340197
 20
28.12043560674391
 30
0.0
 10
59.02933074891617
 20
28.39051678802081
 30
0.0
 10
59.31186422957573
 20
28.52071975591911
 30
0.0
 10
59.63246647826953
 20
28.63869379249269
 30
0.0
  0
LINE
  5
51
330
1F
100
AcDbEntity
  8
0
  6
CONTINUOUS
 62
     7
100
AcDbLine
 10
56.3655724908
 20
26.1812587647
 30
0.0
 11
54.079841691
 21
26.1812587647
 31
0.0
  0
LWPOLYLINE
  5
52
330
1F
100
AcDbEntity
  8
0
  6
CONTINUOUS
 62
     7
100
AcDbPolyline
 90
        9
 70
   128
 43
0.0
 10
60.008495137
 20
29.5702971615
 10
60.0577292973
 20
29.3939140958
 10
60.0923118105
 20
29.2221051581
 10
60.1110511998
 20
29.0607897088
 10
60.1133018342
 20
28.9155255746
 10
60.098986172
 20
28.7913175637
 10
60.0685974332
 20
28.6924450343
 10
60.0231826057
 20
28.6223144573
 10
59.9643063737
 20
28.5833420525
  0
ARC
  5
53
330
1F
100
AcDbEntity
  8
0
  6
CONTINUOUS
 62
     7
100
AcDbCircle
 10
59.856711028
 20
28.9606804592
 30
0.0
 40
0.3923786839870188
100
AcDbArc
 50
235.1450848533
 51
285.9151210601
  0
ARC
  5
54
330
1F
100
AcDbEntity
  8
0
  6
CONTINUOUS
 62
     7
100
AcDbCircle
 10
50.5887031538
 20
28.9606804592
 30
0.0
 40
0.3923786839870234
100
AcDbArc
 50
254.0848789399
 51
304.8549151466
  0
LWPOLYLINE
  5
55
330
1F
100
AcDbEntity
  8
0
  6
CONTINUOUS
 62
     7
100
AcDbPolyline
 90
        9
 70
   128
 43
0.0
 10
50.4369190448
 20
29.5702971615
 10
50.3876848845
 20
29.3939140958
 10
50.3531023713
 20
29.2221051581
 10
50.334362982
 20
29.0607897088
 10
50.3321123476
 20
28.9155255746
 10
50.3464280098
 20
28.7913175637
 10
50.3768167486
 20
28.6924450343
 10
50.4222315761
 20
28.6223144573
 10
50.4811078081
 20
28.5833420525
  0
ARC
  5
56
330
1F
100
AcDbEntity
  8
0
  6
CONTINUOUS
 62
     7
100
AcDbCircle
 10
66.3302693476
 20
28.4805528024
 30
0.0
 40
1.005914656029357
100
AcDbArc
 50
236.5076863221
 51
359.7142166357
  0
SPLINE
  5
57
330
1F
100
AcDbEntity
  8
0
  6
CONTINUOUS
 62
     7
100
AcDbSpline
210
0.0
220
0.0
230
1.0
 70
     8
 71
     3
 72
    18
 73
    14
 74
     0
 42
0.00000001
 43
0.00000001
 40
0.0
 40
0.0
 40
0.0
 40
0.0
 40
0.2499999999999998
 40
0.2499999999999998
 40
0.3749999999999996
 40
0.3749999999999996
 40
0.4999999999999993
 40
0.4999999999999993
 40
0.6249999999999993
 40
0.6249999999999993
 40
0.7499999999999994
 40
0.7499999999999994
 40
1.0
 40
1.0
 40
1.0
 40
1.0
 10
65.77518037864736
 20
27.64166035888073
 30
0.0
 10
65.55073747681702
 20
27.81569705598649
 30
0.0
 10
65.2629045877659
 20
28.01412687971115
 30
0.0
 10
64.73328399710404
 20
28.29776195109451
 30
0.0
 10
64.540241422034
 20
28.39012124785454
 30
0.0
 10
64.11808969343963
 20
28.56233004653552
 30
0.0
 10
63.88743477944908
 20
28.64262361774809
 30
0.0
 10
63.39347695616179
 20
28.77879238713376
 30
0.0
 10
63.13073726370958
 20
28.83473941086137
 30
0.0
 10
62.57144634827909
 20
28.91234289542723
 30
0.0
 10
62.27367224449405
 20
28.93409698577906
 30
0.0
 10
61.33130980184207
 20
28.92703625943881
 30
0.0
 10
60.66290345355642
 20
28.82908953831075
 30
0.0
 10
59.96430637368505
 20
28.58334205245545
 30
0.0
  0
SPLINE
  5
58
330
1F
100
AcDbEntity
  8
0
  6
CONTINUOUS
 62
     7
100
AcDbSpline
210
0.0
220
0.0
230
1.0
 70
     8
 71
     3
 72
    18
 73
    14
 74
     0
 42
0.00000001
 43
0.00000001
 40
0.0
 40
0.0
 40
0.0
 40
0.0
 40
0.1249999999999999
 40
0.1249999999999999
 40
0.2499999999999998
 40
0.2499999999999998
 40
0.4999999999999997
 40
0.4999999999999997
 40
0.6249999999999998
 40
0.6249999999999998
 40
0.7499999999999999
 40
0.7499999999999999
 40
1.0
 40
1.0
 40
1.0
 40
1.0
 10
50.48110780810783
 20
28.58334205245554
 30
0.0
 10
50.13188000480817
 20
28.70619091215512
 30
0.0
 10
49.78945431938043
 20
28.79157615744416
 30
0.0
 10
49.12135923551423
 20
28.90341459031001
 30
0.0
 10
48.79385485587158
 20
28.92973143175539
 30
0.0
 10
47.85232971842398
 20
28.93589050910926
 30
0.0
 10
47.29708698453082
 20
28.84654697817057
 30
0.0
 10
46.55596963629025
 20
28.64198184730242
 30
0.0
 10
46.32578213775966
 20
28.56175400924021
 30
0.0
 10
45.90424602918082
 20
28.38968975813787
 30
0.0
 10
45.71143084965269
 20
28.29740940800691
 30
0.0
 10
45.18233031996566
 20
28.01398680906879
 30
0.0
 10
44.89463047374484
 20
27.81566120753385
 30
0.0
 10
44.67023380314551
 20
27.64166035888078
 30
0.0
  0
ARC
  5
59
330
1F
100
AcDbEntity
  8
0
  6
CONTINUOUS
 62
     7
100
AcDbCircle
 10
44.1151448342
 20
28.4805528024
 30
0.0
 40
1.005914656029388
100
AcDbArc
 50
180.2857833643
 51
303.4923136779
  0
SPLINE
  5
5A
330
1F
100
AcDbEntity
  8
0
  6
CONTINUOUS
 62
     7
100
AcDbSpline
210
0.0
220
0.0
230
1.0
 70
     8
 71
     3
 72
    16
 73
    12
 74
     0
 42
0.00000001
 43
0.00000001
 40
0.0
 40
0.0
 40
0.0
 40
0.0
 40
0.1250000000000002
 40
0.1250000000000002
 40
0.2500000000000003
 40
0.2500000000000003
 40
0.5000000000000002
 40
0.5000000000000002
 40
0.7500000000000001
 40
0.7500000000000001
 40
1.0
 40
1.0
 40
1.0
 40
1.0
 10
59.96430637368505
 20
28.58334205245545
 30
0.0
 10
59.67414050172762
 20
28.48126957667631
 30
0.0
 10
59.42556172995342
 20
28.37023115237087
 30
0.0
 10
58.98285754161521
 20
28.14377801256891
 30
0.0
 10
58.78876059830031
 20
28.02782983308847
 30
0.0
 10
58.27200663193202
 20
27.68668695174932
 30
0.0
 10
58.02328551704317
 20
27.47663567990494
 30
0.0
 10
57.62820171649891
 20
27.11074018044241
 30
0.0
 10
57.48398976008124
 20
26.95442917999438
 30
0.0
 10
57.26953267719853
 20
26.70941407727889
 30
0.0
 10
57.19841530845252
 20
26.61929623295522
 30
0.0
 10
57.15422061569885
 20
26.56260865709285
 30
0.0
  0
ARC
  5
5B
330
1F
100
AcDbEntity
  8
0
  6
CONTINUOUS
 62
     7
100
AcDbCircle
 10
56.3725183877
 20
27.1730485664
 30
0.0
 40
0.9918141238094672
100
AcDbArc
 50
269.5987415205
 51
322.013329195
  0
SPLINE
  5
5C
330
1F
100
AcDbEntity
  8
0
  6
CONTINUOUS
 62
     7
100
AcDbSpline
210
0.0
220
0.0
230
1.0
 70
     8
 71
     3
 72
    18
 73
    14
 74
     0
 42
0.00000001
 43
0.00000001
 40
0.0
 40
0.0
 40
0.0
 40
0.0
 40
0.2499999999999999
 40
0.2499999999999999
 40
0.4999999999999999
 40
0.4999999999999999
 40
0.625
 40
0.625
 40
0.75
 40
0.75
 40
0.8750000000000001
 40
0.8750000000000001
 40
1.0
 40
1.0
 40
1.0
 40
1.0
 10
53.29119356609389
 20
26.56260865709283
 30
0.0
 10
53.24700565880583
 20
26.61928752938532
 30
0.0
 10
53.17598425103274
 20
26.70923837645655
 30
0.0
 10
52.96323921313665
 20
26.9524135895399
 30
0.0
 10
52.82217384137572
 20
27.10572562951551
 30
0.0
 10
52.52605643652578
 20
27.38058780905149
 30
0.0
 10
52.4124755423877
 20
27.48006536563893
 30
0.0
 10
52.15145981800363
 20
27.68881933662868
 30
0.0
 10
52.00383430466449
 20
27.79843788606329
 30
0.0
 10
51.66204976259308
 20
28.02445829061141
 30
0.0
 10
51.46609516388001
 20
28.14186656455232
 30
0.0
 10
51.02024501072749
 20
28.370130873149
 30
0.0
 10
50.77052404714541
 20
28.48153327718551
 30
0.0
 10
50.48110780810841
 20
28.58334205245573
 30
0.0
  0
ARC
  5
5D
330
1F
100
AcDbEntity
  8
0
  6
CONTINUOUS
 62
     7
100
AcDbCircle
 10
54.0728957941
 20
27.1730485664
 30
0.0
 40
0.9918141238096908
100
AcDbArc
 50
217.986670805
 51
270.4012584795
  0
LINE
  5
5E
330
1F
100
AcDbEntity
  8
0
  6
CONTINUOUS
 62
     7
100
AcDbLine
 10
55.2227070909
 20
45.9319160737
 30
0.0
 11
45.9227070909
 21
45.9319160737
 31
0.0
  0
LINE
  5
5F
330
1F
100
AcDbEntity
  8
0
  6
CONTINUOUS
 62
     7
100
AcDbLine
 10
64.5227070909
 20
45.9319160737
 30
0.0
 11
55.2227070909
 21
45.9319160737
 31
0.0
  0
LINE
  5
60
330
1F
100
AcDbEntity
  8
0
  6
CONTINUOUS
 62
     7
100
AcDbLine
 10
55.2227070909
 20
46.9319160737
 30
0.0
 11
46.5000573601
 21
46.9319160737
 31
0.0
  0
LINE
  5
61
330
1F
100
AcDbEntity
  8
0
  6
CONTINUOUS
 62
     7
100
AcDbLine
 10
63.9453568217
 20
46.9319160737
 30
0.0
 11
55.2227070909
 21
46.9319160737
 31
0.0
  0
ARC
  5
62
330
1F
100
AcDbEntity
  8
0
  6
CONTINUOUS
 62
     7
100
AcDbCircle
 10
66.3879575855
 20
28.4319160737
 30
0.0
 40
1.0
100
AcDbArc
 50
232.209414863
 51
270.0
  0
ARC
  5
63
330
1F
100
AcDbEntity
  8
0
  6
CONTINUOUS
 62
     7
100
AcDbCircle
 10
66.3603010521
 20
28.4096190943
 30
0.0
 40
0.9780941060987226
100
AcDbArc
 50
271.620308171
 51
3.8642440336
  0
ARC
  5
64
330
1F
100
AcDbEntity
  8
0
  6
CONTINUOUS
 62
     7
100
AcDbCircle
 10
44.0574565963
 20
28.4319160737
 30
0.0
 40
1.000000000000013
100
AcDbArc
 50
270.0
 51
307.790585137
  0
ARC
  5
65
330
1F
100
AcDbEntity
  8
0
  6
CONTINUOUS
 62
     7
100
AcDbCircle
 10
44.0851131297
 20
28.4096190943
 30
0.0
 40
0.9780941060986743
100
AcDbArc
 50
176.1357559664
 51
268.379691829
  0
LINE
  5
66
330
1F
100
AcDbEntity
  8
0
  6
CONTINUOUS
 62
     7
100
AcDbLine
 10
66.9865333634
 20
27.4319160737
 30
0.0
 11
66.3879575855
 21
27.4319160737
 31
0.0
  0
ARC
  5
67
330
1F
100
AcDbEntity
  8
0
  6
CONTINUOUS
 62
     7
100
AcDbCircle
 10
66.9865333634
 20
28.4319160737
 30
0.0
 40
1.000000000000035
100
AcDbArc
 50
270.0
 51
2.5
  0
LINE
  5
68
330
1F
100
AcDbEntity
  8
0
  6
CONTINUOUS
 62
     7
100
AcDbLine
 10
44.0574565963
 20
27.4319160737
 30
0.0
 11
43.4588808184
 21
27.4319160737
 31
0.0
  0
ARC
  5
69
330
1F
100
AcDbEntity
  8
0
  6
CONTINUOUS
 62
     7
100
AcDbCircle
 10
43.4588808184
 20
28.4319160737
 30
0.0
 40
1.000000000000004
100
AcDbArc
 50
177.5
 51
270.0
  0
ARC
  5
6A
330
1F
100
AcDbEntity
  8
0
  6
CONTINUOUS
 62
     7
100
AcDbCircle
 10
48.4397729461
 20
21.7841558458
 30
0.0
 40
7.151565529761057
100
AcDbArc
 50
35.449089262
 51
37.9406444643
  0
ARC
  5
6B
330
1F
100
AcDbEntity
  8
0
  6
CONTINUOUS
 62
     7
100
AcDbCircle
 10
62.0056412357
 20
21.7841558458
 30
0.0
 40
7.151565529761119
100
AcDbArc
 50
142.0593555357
 51
144.550910738
  0
LINE
  5
6C
330
1F
100
AcDbEntity
  8
0
  6
CONTINUOUS
 62
     7
100
AcDbLine
 10
56.1797529242
 20
25.9319160737
 30
0.0
 11
54.2656612576
 21
25.9319160737
 31
0.0
  0
SPLINE
  5
6D
330
1F
100
AcDbEntity
  8
0
  6
CONTINUOUS
 62
     7
100
AcDbSpline
210
0.0
220
0.0
230
1.0
 70
     8
 71
     3
 72
    12
 73
     8
 74
     0
 42
0.00000001
 43
0.00000001
 40
0.0
 40
0.0
 40
0.0
 40
0.0
 40
0.25
 40
0.25
 40
0.5
 40
0.5
 40
1.0
 40
1.0
 40
1.0
 40
1.0
 10
54.26295018693892
 20
25.93191607369487
 30
0.0
 10
54.1829340422381
 20
25.93191607369487
 30
0.0
 10
54.10454466682452
 20
25.94138344054549
 30
0.0
 10
53.95090173809982
 20
25.97856777862445
 30
0.0
 10
53.87527264153589
 20
26.006753316877
 30
0.0
 10
53.66492063123042
 20
26.11506806228216
 30
0.0
 10
53.54019590091417
 20
26.22306559318452
 30
0.0
 10
53.44869808834115
 20
26.35140464406662
 30
0.0
  0
SPLINE
  5
6E
330
1F
100
AcDbEntity
  8
0
  6
CONTINUOUS
 62
     7
100
AcDbSpline
210
0.0
220
0.0
230
1.0
 70
    24
 71
     3
 72
     8
 73
     4
 74
     0
 42
0.00000001
 43
0.00000001
 40
0.0
 40
0.0
 40
0.0
 40
0.0
 40
0.0000027113973074
 40
0.0000027113973074
 40
0.0000027113973074
 40
0.0000027113973074
 10
54.26566125762528
 20
25.93191607369487
 30
0.0
 10
54.26475745852281
 20
25.93191607369487
 30
0.0
 10
54.26385354994508
 20
25.93191607369487
 30
0.0
 10
54.26295018693892
 20
25.93191607369487
 30
0.0
  0
ARC
  5
6F
330
1F
100
AcDbEntity
  8
0
  6
CONTINUOUS
 62
     7
100
AcDbCircle
 10
48.4397729461
 20
22.7803505439
 30
0.0
 40
6.151565529761093
100
AcDbArc
 50
35.486521918
 51
37.9406444643
  0
SPLINE
  5
70
330
1F
100
AcDbEntity
  8
0
  6
CONTINUOUS
 62
     7
100
AcDbSpline
210
0.0
220
0.0
230
1.0
 70
    24
 71
     3
 72
     8
 73
     4
 74
     0
 42
0.00000001
 43
0.00000001
 40
0.0
 40
0.0
 40
0.0
 40
0.0
 40
0.0000027113973074
 40
0.0000027113973074
 40
0.0000027113973074
 40
0.0000027113973074
 10
56.18246399485395
 20
25.93191607369495
 30
0.0
 10
56.18156063184779
 20
25.93191607369495
 30
0.0
 10
56.18065672327005
 20
25.93191607369487
 30
0.0
 10
56.17975292416759
 20
25.93191607369487
 30
0.0
  0
SPLINE
  5
71
330
1F
100
AcDbEntity
  8
0
  6
CONTINUOUS
 62
     7
100
AcDbSpline
210
0.0
220
0.0
230
1.0
 70
     8
 71
     3
 72
    12
 73
     8
 74
     0
 42
0.00000001
 43
0.00000001
 40
0.0
 40
0.0
 40
0.0
 40
0.0
 40
0.2500000000000002
 40
0.2500000000000002
 40
0.5000000000000003
 40
0.5000000000000003
 40
1.0
 40
1.0
 40
1.0
 40
1.0
 10
56.18246399485395
 20
25.93191607369495
 30
0.0
 10
56.26248020514441
 20
25.93191607369496
 30
0.0
 10
56.34086949791806
 20
25.94138345529949
 30
0.0
 10
56.4945120094289
 20
25.97856765464439
 30
0.0
 10
56.57014137723426
 20
26.0067532508714
 30
0.0
 10
56.7804933372642
 20
26.11506791657393
 30
0.0
 10
56.90521843893561
 20
26.2230658148823
 30
0.0
 10
56.99671609345184
 20
26.35140464406673
 30
0.0
  0
ARC
  5
72
330
1F
100
AcDbEntity
  8
0
  6
CONTINUOUS
 62
     7
100
AcDbCircle
 10
62.0056412357
 20
22.7803505439
 30
0.0
 40
6.151565529761168
100
AcDbArc
 50
142.0593555357
 51
144.513478082
  0
LINE
  5
73
330
1F
100
AcDbEntity
  8
0
  6
CONTINUOUS
 62
     7
100
AcDbLine
 10
63.822707383
 20
38.4319160974
 30
0.0
 11
63.822707383
 21
46.9319156863
 31
0.0
  0
LINE
  5
74
330
1F
100
AcDbEntity
  8
0
  6
CONTINUOUS
 62
     7
100
AcDbLine
 10
46.6227067988
 20
46.9319156863
 30
0.0
 11
46.6227067988
 21
38.4319160974
 31
0.0
  0
LINE
  5
75
330
1F
100
AcDbEntity
  8
0
  6
CONTINUOUS
 62
     7
100
AcDbLine
 10
45.9227070566
 20
38.4319160974
 30
0.0
 11
45.9453614783
 21
38.4319160974
 31
0.0
  0
LINE
  5
76
330
1F
100
AcDbEntity
  8
0
  6
CONTINUOUS
 62
     7
100
AcDbLine
 10
45.9453614783
 20
38.4319160974
 30
0.0
 11
46.6227067988
 21
38.4319160974
 31
0.0
  0
LINE
  5
77
330
1F
100
AcDbEntity
  8
0
  6
CONTINUOUS
 62
     7
100
AcDbLine
 10
45.9227070566
 20
38.4319160974
 30
0.0
 11
64.5227071252
 21
38.4319160974
 31
0.0
  0
SPLINE
  5
78
330
1F
100
AcDbEntity
  8
0
  6
CONTINUOUS
 62
     7
100
AcDbSpline
210
0.0
220
0.0
230
1.0
 70
     8
 71
     3
 72
    13
 73
     9
 74
     0
 42
0.00000001
 43
0.00000001
 40
0.0
 40
0.0
 40
0.0
 40
0.0
 40
0.1584675061815128
 40
0.3601976348709044
 40
0.5641206833418316
 40
0.767776472360381
 40
0.9687971372247501
 40
1.0
 40
1.0
 40
1.0
 40
1.0
 10
44.6968468304525
 20
85.85105087759217
 30
0.0
 10
44.59168297207554
 20
85.69787730583451
 30
0.0
 10
44.35264486278713
 20
85.34971281709295
 30
0.0
 10
44.01793252736896
 20
84.7818065259854
 30
0.0
 10
43.68668111041886
 20
84.15223548353855
 30
0.0
 10
43.39614629604274
 20
83.5030729783533
 30
0.0
 10
43.20469317542422
 20
83.02970892599204
 30
0.0
 10
43.12167065241555
 20
82.76929917346996
 30
0.0
 10
43.1105152780268
 20
82.73430905056608
 30
0.0
  0
LINE
  5
79
330
1F
100
AcDbEntity
  8
0
  6
CONTINUOUS
 62
     7
100
AcDbLine
 10
50.4235827443
 20
90.4756888215
 30
0.0
 11
50.3495783409
 21
90.4452823062
 31
0.0
  0
LINE
  5
7A
330
1F
100
AcDbEntity
  8
0
  6
CONTINUOUS
 62
     7
100
AcDbLine
 10
60.0971052844
 20
90.4457052388
 30
0.0
 11
60.0219585235
 21
90.4766147564
 31
0.0
  0
SPLINE
  5
7B
330
1F
100
AcDbEntity
  8
0
  6
CONTINUOUS
 62
     7
100
AcDbSpline
210
0.0
220
0.0
230
1.0
 70
     8
 71
     3
 72
    16
 73
    12
 74
     0
 42
0.00000001
 43
0.00000001
 40
0.0
 40
0.0
 40
0.0
 40
0.0
 40
0.069759025828395
 40
0.1858465807216098
 40
0.3034432685295867
 40
0.421974385065659
 40
0.5406320993239301
 40
0.6585196803967834
 40
0.7749904301914393
 40
0.8895820955596253
 40
1.0
 40
1.0
 40
1.0
 40
1.0
 10
67.3322477989747
 20
82.73334234111452
 30
0.0
 10
67.28791626455913
 20
82.86491718918268
 30
0.0
 10
67.16981163234216
 20
83.21544868431256
 30
0.0
 10
66.93829663186777
 20
83.77066498763931
 30
0.0
 10
66.64018560470238
 20
84.40057570572343
 30
0.0
 10
66.303140646127
 20
85.01623373361885
 30
0.0
 10
65.931238858267
 20
85.61334396278144
 30
0.0
 10
65.52748424189036
 20
86.18714079487718
 30
0.0
 10
65.09527222731136
 20
86.73342907993036
 30
0.0
 10
64.64389842231516
 20
87.24900591108764
 30
0.0
 10
64.32291273997919
 20
87.57070619471845
 30
0.0
 10
64.1653969221895
 20
87.72857268549308
 30
0.0
  0
LINE
  5
7C
330
1F
100
AcDbEntity
  8
0
  6
CONTINUOUS
 62
     7
100
AcDbLine
 10
67.9865333634
 20
62.6389070483
 30
0.0
 11
67.9865333634
 21
78.7036860059
 31
0.0
  0
ARC
  5
7D
330
1F
100
AcDbEntity
  8
0
  6
CONTINUOUS
 62
     7
100
AcDbCircle
 10
55.2227070909
 20
78.7036860059
 30
0.0
 40
12.76382627246756
100
AcDbArc
 50
0.0
 51
18.3561598037
  0
ARC
  5
7E
330
1F
100
AcDbEntity
  8
0
  6
CONTINUOUS
 62
     7
100
AcDbCircle
 10
66.3879575855
 20
82.4083843691
 30
0.0
 40
0.9999999999999979
100
AcDbArc
 50
18.3561598037
 51
18.9872938262
  0
LINE
  5
7F
330
1F
100
AcDbEntity
  8
0
  6
CONTINUOUS
 62
     7
100
AcDbLine
 10
42.4588808184
 20
78.7036860059
 30
0.0
 11
42.4588808184
 21
62.6389070483
 31
0.0
  0
ARC
  5
80
330
1F
100
AcDbEntity
  8
0
  6
CONTINUOUS
 62
     7
100
AcDbCircle
 10
55.2227070909
 20
78.7036860059
 30
0.0
 40
12.76382627246756
100
AcDbArc
 50
161.6438401963
 51
180.0
  0
ARC
  5
81
330
1F
100
AcDbEntity
  8
0
  6
CONTINUOUS
 62
     7
100
AcDbCircle
 10
44.0574565963
 20
82.4083843691
 30
0.0
 40
1.000000000000007
100
AcDbArc
 50
161.0127061738
 51
161.6438401963
  0
SPLINE
  5
82
330
1F
100
AcDbEntity
  8
0
  6
CONTINUOUS
 62
     7
100
AcDbSpline
210
0.0
220
0.0
230
1.0
 70
     8
 71
     3
 72
    13
 73
     9
 74
     0
 42
0.00000001
 43
0.00000001
 40
0.0
 40
0.0
 40
0.0
 40
0.0
 40
0.0268131985819793
 40
0.2442917633025651
 40
0.4637745922307482
 40
0.685451355000799
 40
0.9094288432443803
 40
1.0
 40
1.0
 40
1.0
 40
1.0
 10
53.42870697052478
 20
91.27345668254716
 30
0.0
 10
53.40107312504493
 20
91.27022531989923
 30
0.0
 10
53.14930454851861
 20
91.24078477118135
 30
0.0
 10
52.67708197124599
 20
91.15175644267259
 30
0.0
 10
52.01273490585103
 20
91.00423433143902
 30
0.0
 10
51.35421424705891
 20
90.81502068921452
 30
0.0
 10
50.83063047304022
 20
90.64196790907461
 30
0.0
 10
50.53284343330714
 20
90.51965538705812
 30
0.0
 10
50.44709861423303
 20
90.4844367117249
 30
0.0
  0
SPLINE
  5
83
330
1F
100
AcDbEntity
  8
0
  6
CONTINUOUS
 62
     7
100
AcDbSpline
210
0.0
220
0.0
230
1.0
 70
     8
 71
     3
 72
    13
 73
     9
 74
     0
 42
0.00000001
 43
0.00000001
 40
0.0
 40
0.0
 40
0.0
 40
0.0
 40
0.1505069344358446
 40
0.3255971088292658
 40
0.499243629399994
 40
0.6713803824885589
 40
0.8420141942291384
 40
1.0
 40
1.0
 40
1.0
 40
1.0
 10
59.99804058964579
 20
90.48465233255156
 30
0.0
 10
59.81079872202008
 20
90.55698045227494
 30
0.0
 10
59.4057316001679
 20
90.713450496378
 30
0.0
 10
58.7667100300283
 20
90.9107164644778
 30
0.0
 10
58.08934140201615
 20
91.08454509795206
 30
0.0
 10
57.40722617488738
 20
91.21922564241981
 30
0.0
 10
56.73859172592021
 20
91.31785014358421
 30
0.0
 10
56.29575549588615
 20
91.35285678186165
 30
0.0
 10
56.08285938470366
 20
91.36968642823965
 30
0.0
  0
ARC
  5
84
330
1F
100
AcDbEntity
  8
0
  6
CONTINUOUS
 62
     7
100
AcDbCircle
 10
50.8129477035
 20
89.558147436
 30
0.0
 40
1.000000000000001
100
AcDbArc
 50
111.6324507488
 51
112.9205958623
  0
ARC
  5
85
330
1F
100
AcDbEntity
  8
0
  6
CONTINUOUS
 62
     7
100
AcDbCircle
 10
59.6324664783
 20
89.558147436
 30
0.0
 40
1.000000000000004
100
AcDbArc
 50
67.0794041377
 51
68.3675492512
  0
LINE
  5
86
330
1F
100
AcDbEntity
  8
0
  6
CONTINUOUS
 62
     7
100
AcDbLine
 10
44.6702338031
 20
82.4083843691
 30
0.0
 11
44.6702338031
 21
62.6044037386
 31
0.0
  0
SPLINE
  5
87
330
1F
100
AcDbEntity
  8
0
  6
CONTINUOUS
 62
     7
100
AcDbSpline
210
0.0
220
0.0
230
1.0
 70
     8
 71
     3
 72
    18
 73
    14
 74
     0
 42
0.00000001
 43
0.00000001
 40
0.0
 40
0.0
 40
0.0
 40
0.0
 40
0.1249999999999999
 40
0.1249999999999999
 40
0.2499999999999998
 40
0.2499999999999998
 40
0.4999999999999997
 40
0.4999999999999997
 40
0.6249999999999998
 40
0.6249999999999998
 40
0.7499999999999999
 40
0.7499999999999999
 40
1.0
 40
1.0
 40
1.0
 40
1.0
 10
50.48110780810784
 20
89.55814743604007
 30
0.0
 10
50.13188000480818
 20
89.38647500408989
 30
0.0
 10
49.78945431938044
 20
89.1932315243469
 30
0.0
 10
49.12135923551424
 20
88.76327026097995
 30
0.0
 10
48.79385485587159
 20
88.52506505639258
 30
0.0
 10
47.85232971842399
 20
87.7537667214659
 30
0.0
 10
47.29708698453082
 20
87.18180512917978
 30
0.0
 10
46.55596963629026
 20
86.24434389268703
 30
0.0
 10
46.32578213775966
 20
85.91976080373837
 30
0.0
 10
45.90424602918083
 20
85.25955559740777
 30
0.0
 10
45.7114308496527
 20
84.92210578940097
 30
0.0
 10
45.18233031996566
 20
83.8868141157957
 30
0.0
 10
44.89463047374485
 20
83.16656552070104
 30
0.0
 10
44.67023380314551
 20
82.40838436907332
 30
0.0
  0
SPLINE
  5
88
330
1F
100
AcDbEntity
  8
0
  6
CONTINUOUS
 62
     7
100
AcDbSpline
210
0.0
220
0.0
230
1.0
 70
     8
 71
     3
 72
    18
 73
    14
 74
     0
 42
0.00000001
 43
0.00000001
 40
0.0
 40
0.0
 40
0.0
 40
0.0
 40
0.2499999999999999
 40
0.2499999999999999
 40
0.4999999999999999
 40
0.4999999999999999
 40
0.625
 40
0.625
 40
0.75
 40
0.75
 40
0.8750000000000001
 40
0.8750000000000001
 40
1.0
 40
1.0
 40
1.0
 40
1.0
 10
53.2911935660939
 20
81.4665302631414
 30
0.0
 10
53.24700565880583
 20
82.21968616936199
 30
0.0
 10
53.17598425103275
 20
82.9625250606567
 30
0.0
 10
52.96323921313665
 20
84.42530865425218
 30
0.0
 10
52.82217384137574
 20
85.14534749669255
 30
0.0
 10
52.52605643652578
 20
86.2034439677163
 30
0.0
 10
52.41247554238771
 20
86.55344282821629
 30
0.0
 10
52.15145981800364
 20
87.23127710816219
 30
0.0
 10
52.00383430466449
 20
87.56054189729282
 30
0.0
 10
51.66204976259309
 20
88.19530288510018
 30
0.0
 10
51.46609516388001
 20
88.50306946689282
 30
0.0
 10
51.02024501072751
 20
89.06938301236336
 30
0.0
 10
50.77052404714542
 20
89.32960513587867
 30
0.0
 10
50.48110780810841
 20
89.55814743604039
 30
0.0
  0
ELLIPSE
  5
89
330
1F
100
AcDbEntity
  8
0
  6
CONTINUOUS
 62
     7
100
AcDbEllipse
 10
48.4397729461
 20
31.2074139195
 30
0.0
 11
7.105427357601002E-15
 21
81.74276805179366
 31
0.0
210
0.0
220
0.0
230
1.0
 40
0.0752551654
 41
5.331745627934437
 42
5.374578146615244
  0
LINE
  5
8A
330
1F
100
AcDbEntity
  8
0
  6
CONTINUOUS
 62
     7
100
AcDbLine
 10
53.4486980883
 20
62.5480699575
 30
0.0
 11
53.4486980883
 21
78.660025063
 31
0.0
  0
ELLIPSE
  5
8B
330
1F
100
AcDbEntity
  8
0
  6
CONTINUOUS
 62
     7
100
AcDbEllipse
 10
48.4397729461
 20
62.3921543683
 30
0.0
 11
6.151565529761051
 21
0.0
 31
0.0
210
0.0
220
0.0
230
1.0
 40
0.0436609429
 41
0.6193566475497323
 42
2.230366463690882
  0
ARC
  5
8C
330
1F
100
AcDbEntity
  8
0
  6
CONTINUOUS
 62
     7
100
AcDbCircle
 10
53.4348008763
 20
87.7764606396
 30
0.0
 40
3.449450765182045
100
AcDbArc
 50
139.4711138901
 51
148.9013479795
  0
SPLINE
  5
8D
330
1F
100
AcDbEntity
  8
0
  6
CONTINUOUS
 62
     7
100
AcDbSpline
210
0.0
220
0.0
230
1.0
 70
     8
 71
     3
 72
    18
 73
    14
 74
     0
 42
0.00000001
 43
0.00000001
 40
0.0
 40
0.0
 40
0.0
 40
0.0
 40
0.125
 40
0.125
 40
0.25
 40
0.25
 40
0.4999999999999999
 40
0.4999999999999999
 40
0.6249999999999999
 40
0.6249999999999999
 40
0.7499999999999999
 40
0.7499999999999999
 40
1.0
 40
1.0
 40
1.0
 40
1.0
 10
50.81294770352323
 20
90.01802181925054
 30
0.0
 10
51.13387490209174
 20
89.78999164790648
 30
0.0
 10
51.41434926108095
 20
89.53051756208997
 30
0.0
 10
51.91871058857529
 20
88.96390939081498
 30
0.0
 10
52.14232621426897
 20
88.6562974602638
 30
0.0
 10
52.74519381591858
 20
87.67294243313721
 30
0.0
 10
53.04051448396024
 20
86.9695623270978
 30
0.0
 10
53.39379103852708
 20
85.8632233463998
 30
0.0
 10
53.49609973219441
 20
85.48448736348632
 30
0.0
 10
53.67389492612858
 20
84.71655888255958
 30
0.0
 10
53.74912724336392
 20
84.328923910488
 30
0.0
 10
53.94191603358181
 20
83.15603524915349
 30
0.0
 10
54.02720785268887
 20
82.36089981667207
 30
0.0
 10
54.07984169095779
 20
81.55368600588906
 30
0.0
  0
ARC
  5
8E
330
1F
100
AcDbEntity
  8
0
  6
CONTINUOUS
 62
     7
100
AcDbCircle
 10
54.545808582
 20
73.7255740816
 30
0.0
 40
7.841967957314859
100
AcDbArc
 50
93.4065009933
 51
99.2061571133
  0
SPLINE
  5
8F
330
1F
100
AcDbEntity
  8
0
  6
CONTINUOUS
 62
     7
100
AcDbSpline
210
0.0
220
0.0
230
1.0
 70
     8
 71
     3
 72
    12
 73
     8
 74
     0
 42
0.00000001
 43
0.00000001
 40
0.0
 40
0.0
 40
0.0
 40
0.0
 40
0.25
 40
0.25
 40
0.5
 40
0.5
 40
1.0
 40
1.0
 40
1.0
 40
1.0
 10
54.26295018693893
 20
78.70364392154353
 30
0.0
 10
54.18293404223811
 20
78.7011573263909
 30
0.0
 10
54.10454466682452
 20
78.69830803516432
 30
0.0
 10
53.95090173809983
 20
78.69191008219548
 30
0.0
 10
53.87527264153589
 20
78.68832929142569
 30
0.0
 10
53.66492063123042
 20
78.67706329603791
 30
0.0
 10
53.54019590091418
 20
78.6684717463752
 30
0.0
 10
53.44869808834115
 20
78.66002506298057
 30
0.0
  0
LINE
  5
90
330
1F
100
AcDbEntity
  8
0
  6
CONTINUOUS
 62
     7
100
AcDbLine
 10
54.2629501869
 20
78.7036439215
 30
0.0
 11
54.2629501869
 21
62.529754691
 31
0.0
  0
ELLIPSE
  5
91
330
1F
100
AcDbEntity
  8
0
  6
CONTINUOUS
 62
     7
100
AcDbEllipse
 10
54.2629501869
 20
62.5734156339
 30
0.0
 11
1.0
 21
0.0
 31
0.0
210
0.0
220
0.0
230
1.0
 40
0.0436609429
 41
3.760949301139279
 42
4.71238898038469
  0
LINE
  5
92
330
1F
100
AcDbEntity
  8
0
  6
CONTINUOUS
 62
     7
100
AcDbLine
 10
56.1824639949
 20
62.529754691
 30
0.0
 11
56.1824639949
 21
78.7036439215
 31
0.0
  0
SPLINE
  5
93
330
1F
100
AcDbEntity
  8
0
  6
CONTINUOUS
 62
     7
100
AcDbSpline
210
0.0
220
0.0
230
1.0
 70
     8
 71
     3
 72
    12
 73
     8
 74
     0
 42
0.00000001
 43
0.00000001
 40
0.0
 40
0.0
 40
0.0
 40
0.0
 40
0.2500000000000002
 40
0.2500000000000002
 40
0.5000000000000003
 40
0.5000000000000003
 40
1.0
 40
1.0
 40
1.0
 40
1.0
 10
56.18246399485396
 20
78.70364392154352
 30
0.0
 10
56.26248020514441
 20
78.70115732435262
 30
0.0
 10
56.34086949791807
 20
78.6983080350533
 30
0.0
 10
56.4945120094289
 20
78.69191010110721
 30
0.0
 10
56.57014137723427
 20
78.68832929937776
 30
0.0
 10
56.78049333726421
 20
78.67706330903414
 30
0.0
 10
56.90521843893561
 20
78.66847173178392
 30
0.0
 10
56.99671609345184
 20
78.66002506298054
 30
0.0
  0
LINE
  5
94
330
1F
100
AcDbEntity
  8
0
  6
CONTINUOUS
 62
     7
100
AcDbLine
 10
56.9967160935
 20
78.660025063
 30
0.0
 11
56.9967160935
 21
62.5480699575
 31
0.0
  0
ELLIPSE
  5
95
330
1F
100
AcDbEntity
  8
0
  6
CONTINUOUS
 62
     7
100
AcDbEllipse
 10
56.1824639949
 20
62.5734156339
 30
0.0
 11
0.9999999999999929
 21
0.0
 31
0.0
210
0.0
220
0.0
230
1.0
 40
0.0436609429
 41
4.712388980384704
 42
5.663828659629989
  0
ELLIPSE
  5
96
330
1F
100
AcDbEntity
  8
0
  6
CONTINUOUS
 62
     7
100
AcDbEllipse
 10
48.4397729461
 20
31.2945696622
 30
0.0
 11
2.131628207280301E-14
 21
81.74276805179365
 31
0.0
210
0.0
220
0.0
230
1.0
 40
0.0874886635
 41
5.331092304840693
 42
5.374578146615231
  0
SPLINE
  5
97
330
1F
100
AcDbEntity
  8
0
  6
CONTINUOUS
 62
     7
100
AcDbSpline
210
0.0
220
0.0
230
1.0
 70
     8
 71
     3
 72
     8
 73
     4
 74
     0
 42
0.00000001
 43
0.00000001
 40
0.0
 40
0.0
 40
0.0
 40
0.0
 40
0.0000027113973074
 40
0.0000027113973074
 40
0.0000027113973074
 40
0.0000027113973074
 10
54.26566125762528
 20
78.70368600588907
 30
0.0
 10
54.26475745852282
 20
78.70368600588907
 30
0.0
 10
54.26385354994508
 20
78.70367199460404
 30
0.0
 10
54.26295018693893
 20
78.70364392154353
 30
0.0
  0
LINE
  5
98
330
1F
100
AcDbEntity
  8
0
  6
CONTINUOUS
 62
     7
100
AcDbLine
 10
56.1824639949
 20
62.529754691
 30
0.0
 11
54.2629501869
 21
62.529754691
 31
0.0
  0
LINE
  5
99
330
1F
100
AcDbEntity
  8
0
  6
CONTINUOUS
 62
     7
100
AcDbLine
 10
56.1797529242
 20
78.7036860059
 30
0.0
 11
54.2656612576
 21
78.7036860059
 31
0.0
  0
SPLINE
  5
9A
330
1F
100
AcDbEntity
  8
0
  6
CONTINUOUS
 62
     7
100
AcDbSpline
210
0.0
220
0.0
230
1.0
 70
     8
 71
     3
 72
     8
 73
     4
 74
     0
 42
0.00000001
 43
0.00000001
 40
0.0
 40
0.0
 40
0.0
 40
0.0
 40
0.0000027113973074
 40
0.0000027113973074
 40
0.0000027113973074
 40
0.0000027113973074
 10
56.18246399485396
 20
78.70364392154352
 30
0.0
 10
56.1815606318478
 20
78.70367199460402
 30
0.0
 10
56.18065672327006
 20
78.70368600588905
 30
0.0
 10
56.1797529241676
 20
78.70368600588905
 30
0.0
  0
ELLIPSE
  5
9B
330
1F
100
AcDbEntity
  8
0
  6
CONTINUOUS
 62
     7
100
AcDbEllipse
 10
62.0056412357
 20
31.2945696622
 30
0.0
 11
1.421085471520200E-14
 21
81.74276805179366
 31
0.0
210
0.0
220
0.0
230
1.0
 40
0.0874886635
 41
0.9086071605644174
 42
0.9520930023389469
  0
ARC
  5
9C
330
1F
100
AcDbEntity
  8
0
  6
CONTINUOUS
 62
     7
100
AcDbCircle
 10
55.8996055997
 20
73.7255740816
 30
0.0
 40
7.841967957296817
100
AcDbArc
 50
80.7938428867
 51
86.5934990067
  0
ELLIPSE
  5
9D
330
1F
100
AcDbEntity
  8
0
  6
CONTINUOUS
 62
     7
100
AcDbEllipse
 10
62.0056412357
 20
31.2074139195
 30
0.0
 11
0.0
 21
81.74276805179366
 31
0.0
210
0.0
220
0.0
230
1.0
 40
0.0752551654
 41
0.9086071605644158
 42
0.9514396792452132
  0
LINE
  5
9E
330
1F
100
AcDbEntity
  8
0
  6
CONTINUOUS
 62
     7
100
AcDbLine
 10
56.3655724908
 20
81.5536860059
 30
0.0
 11
54.079841691
 21
81.5536860059
 31
0.0
  0
SPLINE
  5
9F
330
1F
100
AcDbEntity
  8
0
  6
CONTINUOUS
 62
     7
100
AcDbSpline
210
0.0
220
0.0
230
1.0
 70
     8
 71
     3
 72
    16
 73
    12
 74
     0
 42
0.00000001
 43
0.00000001
 40
0.0
 40
0.0
 40
0.0
 40
0.0
 40
0.1250000000000002
 40
0.1250000000000002
 40
0.2500000000000003
 40
0.2500000000000003
 40
0.5000000000000002
 40
0.5000000000000002
 40
0.7500000000000001
 40
0.7500000000000001
 40
1.0
 40
1.0
 40
1.0
 40
1.0
 10
59.96430637368506
 20
89.55814743604007
 30
0.0
 10
59.67414050172763
 20
89.32901317589548
 30
0.0
 10
59.42556172995343
 20
89.0695386171946
 30
0.0
 10
58.98285754161521
 20
88.5079040431514
 30
0.0
 10
58.78876059830031
 20
88.20443061236101
 30
0.0
 10
58.27200663193202
 20
87.24736807947167
 30
0.0
 10
58.02328551704318
 20
86.57094111968092
 30
0.0
 10
57.62820171649892
 20
85.16683821891816
 30
0.0
 10
57.48398976008125
 20
84.43620757668299
 30
0.0
 10
57.26953267719853
 20
82.9647965977486
 30
0.0
 10
57.19841530845252
 20
82.21980182348118
 30
0.0
 10
57.15422061569885
 20
81.46653026314138
 30
0.0
  0
SPLINE
  5
A0
330
1F
100
AcDbEntity
  8
0
  6
CONTINUOUS
 62
     7
100
AcDbSpline
210
0.0
220
0.0
230
1.0
 70
     8
 71
     3
 72
    18
 73
    14
 74
     0
 42
0.00000001
 43
0.00000001
 40
0.0
 40
0.0
 40
0.0
 40
0.0
 40
0.2499999999999998
 40
0.2499999999999998
 40
0.3749999999999996
 40
0.3749999999999996
 40
0.4999999999999993
 40
0.4999999999999993
 40
0.6249999999999993
 40
0.6249999999999993
 40
0.7499999999999994
 40
0.7499999999999994
 40
1.0
 40
1.0
 40
1.0
 40
1.0
 10
65.77518037864736
 20
82.40838436907335
 30
0.0
 10
65.55073747681703
 20
83.16672172465847
 30
0.0
 10
65.2629045877659
 20
83.88732404606027
 30
0.0
 10
64.73328399710404
 20
84.92339442895128
 30
0.0
 10
64.54024142203401
 20
85.26114591030925
 30
0.0
 10
64.11808969343963
 20
85.92203672378554
 30
0.0
 10
63.88743477944909
 20
86.24705968159456
 30
0.0
 10
63.39347695616179
 20
86.87153300186064
 30
0.0
 10
63.13073726370958
 20
87.17072564637539
 30
0.0
 10
62.57144634827909
 20
87.74234721692915
 30
0.0
 10
62.27367224449406
 20
88.01579585099759
 30
0.0
 10
61.33130980184208
 20
88.78667081546192
 30
0.0
 10
60.66290345355642
 20
89.21473302710223
 30
0.0
 10
59.96430637368506
 20
89.55814743604007
 30
0.0
  0
LINE
  5
A1
330
1F
100
AcDbEntity
  8
0
  6
CONTINUOUS
 62
     7
100
AcDbLine
 10
65.7751803786
 20
62.6044037386
 30
0.0
 11
65.7751803786
 21
82.4083843691
 31
0.0
  0
ELLIPSE
  5
A2
330
1F
100
AcDbEntity
  8
0
  6
CONTINUOUS
 62
     7
100
AcDbEllipse
 10
62.0056412357
 20
62.3921543683
 30
0.0
 11
6.151565529761044
 21
0.0
 31
0.0
210
0.0
220
0.0
230
1.0
 40
0.0436609429
 41
0.9112261898989267
 42
2.522236006040086
  0
SPLINE
  5
A3
330
1F
100
AcDbEntity
  8
0
  6
CONTINUOUS
 62
     7
100
AcDbSpline
210
0.0
220
0.0
230
1.0
 70
     8
 71
     3
 72
    18
 73
    14
 74
     0
 42
0.00000001
 43
0.00000001
 40
0.0
 40
0.0
 40
0.0
 40
0.0
 40
0.2499999999999997
 40
0.2499999999999997
 40
0.4999999999999993
 40
0.4999999999999993
 40
0.6249999999999994
 40
0.6249999999999994
 40
0.7499999999999997
 40
0.7499999999999997
 40
0.8749999999999998
 40
0.8749999999999998
 40
1.0
 40
1.0
 40
1.0
 40
1.0
 10
56.36557249083509
 20
81.55368600588903
 30
0.0
 10
56.41822095651335
 20
82.36112414853216
 30
0.0
 10
56.5034046856172
 20
83.15341618383977
 30
0.0
 10
56.75784165099127
 20
84.70543856665248
 30
0.0
 10
56.92640020100751
 20
85.46527421341953
 30
0.0
 10
57.27798346747817
 20
86.5748461371555
 30
0.0
 10
57.41294554463703
 20
86.94173519718002
 30
0.0
 10
57.72165188180134
 20
87.64873101082534
 30
0.0
 10
57.89528625494577
 20
87.98958423976421
 30
0.0
 10
58.29312806198754
 20
88.64152752256297
 30
0.0
 10
58.51954022340198
 20
88.95517869445133
 30
0.0
 10
59.02933074891617
 20
89.52924079082986
 30
0.0
 10
59.31186422957574
 20
89.79022253633214
 30
0.0
 10
59.63246647826954
 20
90.0180218192506
 30
0.0
  0
ARC
  5
A4
330
1F
100
AcDbEntity
  8
0
  6
CONTINUOUS
 62
     7
100
AcDbCircle
 10
57.0106133055
 20
87.7764606396
 30
0.0
 40
3.449450765190952
100
AcDbArc
 50
31.0986520205
 51
40.5288861099
  0
SPLINE
  5
A5
330
1F
100
AcDbEntity
  8
0
  6
CONTINUOUS
 62
     7
100
AcDbSpline
210
0.0
220
0.0
230
1.0
 70
     8
 71
     3
 72
    18
 73
    14
 74
     0
 42
0.00000001
 43
0.00000001
 40
0.0
 40
0.0
 40
0.0
 40
0.0
 40
0.2499999999999999
 40
0.2499999999999999
 40
0.3749999999999999
 40
0.3749999999999999
 40
0.5
 40
0.5
 40
0.75
 40
0.75
 40
0.875
 40
0.875
 40
1.0
 40
1.0
 40
1.0
 40
1.0
 10
59.63246647826961
 20
90.01802181925052
 30
0.0
 10
58.93898951330903
 20
90.30571133364691
 30
0.0
 10
58.22439232798206
 20
90.52405918928322
 30
0.0
 10
57.11877693979172
 20
90.74665492410666
 30
0.0
 10
56.74458680210227
 20
90.80323784708972
 30
0.0
 10
55.98414223789786
 20
90.87934056867357
 30
0.0
 10
55.60376689362151
 20
90.89818514897361
 30
0.0
 10
54.46928000463336
 20
90.89847194462386
 30
0.0
 10
53.71866090503437
 20
90.82449829749486
 30
0.0
 10
52.60121616543807
 20
90.60112938401008
 30
0.0
 10
52.23331543193763
 20
90.50831947677842
 30
0.0
 10
51.51320953282681
 20
90.28883565298952
 30
0.0
 10
51.15985669646619
 20
90.16193731286054
 30
0.0
 10
50.81294770352325
 20
90.01802181925049
 30
0.0
  0
SPLINE
  5
A6
330
1F
100
AcDbEntity
  8
0
  6
CONTINUOUS
 62
     7
100
AcDbSpline
210
0.0
220
0.0
230
1.0
 70
     8
 71
     3
 72
    16
 73
    12
 74
     0
 42
0.00000001
 43
0.00000001
 40
0.0
 40
0.0
 40
0.0
 40
0.0
 40
0.1215387742679012
 40
0.2356424335231732
 40
0.350360135048818
 40
0.4672340048514235
 40
0.5849862335332463
 40
0.6893144643110227
 40
0.7944644442086517
 40
0.9024898444919791
 40
1.0
 40
1.0
 40
1.0
 40
1.0
 10
44.69673598370964
 20
85.83913502775353
 30
0.0
 10
44.86707002461823
 20
86.08075476177515
 30
0.0
 10
45.19731794881616
 20
86.5492131813621
 30
0.0
 10
45.7602667705512
 20
87.19968464332098
 30
0.0
 10
46.35407114606556
 20
87.81233297736097
 30
0.0
 10
46.99913938839158
 20
88.39336244616057
 30
0.0
 10
47.6638210761378
 20
88.91691351030197
 30
0.0
 10
48.33671244570284
 20
89.38175113283835
 30
0.0
 10
49.01289712164028
 20
89.79119683232351
 30
0.0
 10
49.69111010028876
 20
90.15311699314081
 30
0.0
 10
50.14471216362085
 20
90.35352126772925
 30
0.0
 10
50.3599100040333
 20
90.44859704137995
 30
0.0
  0
SPLINE
  5
A7
330
1F
100
AcDbEntity
  8
0
  6
CONTINUOUS
 62
     7
100
AcDbSpline
210
0.0
220
0.0
230
1.0
 70
     8
 71
     3
 72
    14
 73
    10
 74
     0
 42
0.00000001
 43
0.00000001
 40
0.0
 40
0.0
 40
0.0
 40
0.0
 40
0.1262906993880542
 40
0.2703069397680622
 40
0.4190467271827305
 40
0.5678062283491133
 40
0.7115511341544384
 40
0.8553116170307558
 40
1.0
 40
1.0
 40
1.0
 40
1.0
 10
60.08632046838956
 20
90.44855541725389
 30
0.0
 10
60.27153551914923
 20
90.36712826107144
 30
0.0
 10
60.66796149360676
 20
90.19284523383077
 30
0.0
 10
61.27771919403146
 20
89.87625690425574
 30
0.0
 10
61.90741458789212
 20
89.5083943629315
 30
0.0
 10
62.51840226262227
 20
89.1041444191108
 30
0.0
 10
63.0990036471259
 20
88.67137585257109
 30
0.0
 10
63.6511422166767
 20
88.21525388828157
 30
0.0
 10
63.99538849700804
 20
87.88800174500248
 30
0.0
 10
64.16806533350145
 20
87.72384931092905
 30
0.0
  0
LINE
  5
A8
330
1F
100
AcDbEntity
  8
0
  6
CONTINUOUS
 62
     7
100
AcDbLine
 10
66.9865333634
 20
62.5952461053
 30
0.0
 11
66.9865333634
 21
78.7036860059
 31
0.0
  0
ELLIPSE
  5
A9
330
1F
100
AcDbEntity
  8
0
  6
CONTINUOUS
 62
     7
100
AcDbEllipse
 10
66.9865333634
 20
62.6389070483
 30
0.0
 11
1.0
 21
0.0
 31
0.0
210
0.0
220
0.0
230
1.0
 40
0.0436609429
 41
4.712388980384661
 42
6.283185307179586
  0
LINE
  5
AA
330
1F
100
AcDbEntity
  8
0
  6
CONTINUOUS
 62
     7
100
AcDbLine
 10
66.3879575855
 20
82.4083843691
 30
0.0
 11
66.3879575855
 21
62.5952461053
 31
0.0
  0
ARC
  5
AB
330
1F
100
AcDbEntity
  8
0
  6
CONTINUOUS
 62
     7
100
AcDbCircle
 10
55.2227070909
 20
78.7036860059
 30
0.0
 40
11.76382627246758
100
AcDbArc
 50
0.0
 51
18.3561598037
  0
LINE
  5
AC
330
1F
100
AcDbEntity
  8
0
  6
CONTINUOUS
 62
     7
100
AcDbLine
 10
66.3879575855
 20
62.5952461053
 30
0.0
 11
66.9865333634
 21
62.5952461053
 31
0.0
  0
LINE
  5
AD
330
1F
100
AcDbEntity
  8
0
  6
CONTINUOUS
 62
     7
100
AcDbLine
 10
66.3879575855
 20
82.4083843691
 30
0.0
 11
65.7751803786
 21
82.4083843691
 31
0.0
  0
ELLIPSE
  5
AE
330
1F
100
AcDbEntity
  8
0
  6
CONTINUOUS
 62
     7
100
AcDbEllipse
 10
66.3879575855
 20
62.6389070483
 30
0.0
 11
1.0
 21
0.0
 31
0.0
210
0.0
220
0.0
230
1.0
 40
0.0436609429
 41
4.052818843489083
 42
4.712388980384718
  0
LINE
  5
AF
330
1F
100
AcDbEntity
  8
0
  6
CONTINUOUS
 62
     7
100
AcDbLine
 10
44.0574565963
 20
62.5952461053
 30
0.0
 11
44.0574565963
 21
82.4083843691
 31
0.0
  0
LINE
  5
B0
330
1F
100
AcDbEntity
  8
0
  6
CONTINUOUS
 62
     7
100
AcDbLine
 10
44.0574565963
 20
82.4083843691
 30
0.0
 11
44.6702338031
 21
82.4083843691
 31
0.0
  0
ELLIPSE
  5
B1
330
1F
100
AcDbEntity
  8
0
  6
CONTINUOUS
 62
     7
100
AcDbEllipse
 10
44.0574565963
 20
62.6389070483
 30
0.0
 11
1.0
 21
0.0
 31
0.0
210
0.0
220
0.0
230
1.0
 40
0.0436609429
 41
4.71238898038469
 42
5.371959117280745
  0
LINE
  5
B2
330
1F
100
AcDbEntity
  8
0
  6
CONTINUOUS
 62
     7
100
AcDbLine
 10
43.4588808184
 20
78.7036860059
 30
0.0
 11
43.4588808184
 21
62.5952461053
 31
0.0
  0
ARC
  5
B3
330
1F
100
AcDbEntity
  8
0
  6
CONTINUOUS
 62
     7
100
AcDbCircle
 10
55.2227070909
 20
78.7036860059
 30
0.0
 40
11.76382627246758
100
AcDbArc
 50
161.6438401963
 51
180.0
  0
LINE
  5
B4
330
1F
100
AcDbEntity
  8
0
  6
CONTINUOUS
 62
     7
100
AcDbLine
 10
43.4588808184
 20
62.5952461053
 30
0.0
 11
44.0574565963
 21
62.5952461053
 31
0.0
  0
ELLIPSE
  5
B5
330
1F
100
AcDbEntity
  8
0
  6
CONTINUOUS
 62
     7
100
AcDbEllipse
 10
43.4588808184
 20
62.6389070483
 30
0.0
 11
1.0
 21
0.0
 31
0.0
210
0.0
220
0.0
230
1.0
 40
0.0436609429
 41
3.14159265358979
 42
4.71238898038469
  0
SPLINE
  5
B6
330
1F
100
AcDbEntity
  8
0
  6
CONTINUOUS
 62
     7
100
AcDbSpline
210
0.0
220
0.0
230
1.0
 70
     8
 71
     3
 72
    10
 73
     6
 74
     0
 42
0.00000001
 43
0.00000001
 40
0.0
 40
0.0
 40
0.0
 40
0.0
 40
0.3212994356034604
 40
0.6897759923708502
 40
1.0
 40
1.0
 40
1.0
 40
1.0
 10
53.42663572228171
 20
91.2687572246373
 30
0.0
 10
53.70931669894112
 20
91.30456496455993
 30
0.0
 10
54.31618533795191
 20
91.38143817566066
 30
0.0
 10
55.20637337733307
 20
91.41257078662323
 30
0.0
 10
55.80842832144407
 20
91.38003491732732
 30
0.0
 10
56.08361874763905
 20
91.36516325183275
 30
0.0
  0
LWPOLYLINE
  5
B7
330
1F
100
AcDbEntity
  8
0
  6
CONTINUOUS
 62
     7
100
AcDbPolyline
 90
        9
 70
   128
 43
0.0
 10
50.4222504613
 20
90.4786572041
 10
50.3876848845
 20
90.4534269122
 10
50.3531023713
 20
90.3922803943
 10
50.334362982
 20
90.3023953617
 10
50.3321123476
 20
90.1868686378
 10
50.3464280098
 20
90.0496804831
 10
50.3768167486
 20
89.8955574626
 10
50.4222315761
 20
89.7298096012
 10
50.4811078081
 20
89.558147436
  0
ARC
  5
B8
330
1F
100
AcDbEntity
  8
0
  6
CONTINUOUS
 62
     7
100
AcDbCircle
 10
43.5399495067
 20
80.8901460793
 30
0.0
 40
1.892773123103458
100
AcDbArc
 50
53.33338753
 51
103.0700007603
  0
ARC
  5
B9
330
1F
100
AcDbEntity
  8
0
  6
CONTINUOUS
 62
     7
100
AcDbCircle
 10
66.9050917193
 20
80.8911844042
 30
0.0
 40
1.891717571689944
100
AcDbArc
 50
76.9094381985
 51
126.6763314042
  0
LWPOLYLINE
  5
BA
330
1F
100
AcDbEntity
  8
0
  6
CONTINUOUS
 62
     7
100
AcDbPolyline
 90
        9
 70
   128
 43
0.0
 10
60.0229104966
 20
90.4787681142
 10
60.0577292973
 20
90.4534269122
 10
60.0923118105
 20
90.3922803943
 10
60.1110511998
 20
90.3023953617
 10
60.1133018342
 20
90.1868686378
 10
60.098986172
 20
90.0496804831
 10
60.0685974332
 20
89.8955574626
 10
60.0231826057
 20
89.7298096012
 10
59.9643063737
 20
89.558147436
  0
LINE
  5
BB
330
1F
100
AcDbEntity
  8
0
  6
CONTINUOUS
 62
     7
100
AcDbLine
 10
66.9865333634
 20
78.7036860059
 30
0.0
 11
67.9865333634
 21
78.7036860059
 31
0.0
  0
LINE
  5
BC
330
1F
100
AcDbEntity
  8
0
  6
CONTINUOUS
 62
     7
100
AcDbLine
 10
66.3879575855
 20
82.4083843691
 30
0.0
 11
67.33707484
 21
82.7233072757
 31
0.0
  0
LINE
  5
BD
330
1F
100
AcDbEntity
  8
0
  6
CONTINUOUS
 62
     7
100
AcDbLine
 10
42.4588808184
 20
78.7036860059
 30
0.0
 11
43.4588808184
 21
78.7036860059
 31
0.0
  0
LINE
  5
BE
330
1F
100
AcDbEntity
  8
0
  6
CONTINUOUS
 62
     7
100
AcDbLine
 10
43.1083393418
 20
82.7233072757
 30
0.0
 11
44.0574565963
 21
82.4083843691
 31
0.0
  0
ARC
  5
BF
330
1F
100
AcDbEntity
  8
0
  6
CONTINUOUS
 62
     7
100
AcDbCircle
 10
60.3604541684
 20
89.8281876091
 30
0.0
 40
0.7523317780919541
100
AcDbArc
 50
118.6675073385
 51
165.3846987094
  0
ARC
  5
C0
330
1F
100
AcDbEntity
  8
0
  6
CONTINUOUS
 62
     7
100
AcDbCircle
 10
50.0863675055
 20
89.8290337944
 30
0.0
 40
0.7507564569397325
100
AcDbArc
 50
14.5799163564
 51
61.4067383689
  0
LINE
  5
C1
330
1F
100
AcDbEntity
  8
0
  6
CONTINUOUS
 62
     7
100
AcDbLine
 10
103.6492936863
 20
91.398717678
 30
0.0
 11
95.7467691615
 21
91.0536860059
 31
0.0
  0
ARC
  5
C2
330
1F
100
AcDbEntity
  8
0
  6
CONTINUOUS
 62
     7
100
AcDbCircle
 10
105.2467691615
 20
82.4083843691
 30
0.0
 40
1.0
100
AcDbArc
 50
0.0
 51
14.9388129048
  0
SPLINE
  5
C3
330
1F
100
AcDbEntity
  8
0
  6
CONTINUOUS
 62
     7
100
AcDbSpline
210
0.0
220
0.0
230
1.0
 70
     8
 71
     3
 72
    20
 73
    16
 74
     0
 42
0.00000001
 43
0.00000001
 40
0.0
 40
0.0
 40
0.0
 40
0.0
 40
0.0834939574842929
 40
0.1747634540777818
 40
0.2668826051646329
 40
0.3585599374584644
 40
0.448447422140786
 40
0.535418742724398
 40
0.6191440459026292
 40
0.7002476131193953
 40
0.7772641795687423
 40
0.8504941284432529
 40
0.9199898488502477
 40
0.9860877966368097
 40
1.0
 40
1.0
 40
1.0
 40
1.0
 10
106.2148380762879
 20
82.66750356511072
 30
0.0
 10
106.1634074034831
 20
82.85708967721142
 30
0.0
 10
106.0557564752517
 20
83.25391748121302
 30
0.0
 10
105.8791342777129
 20
83.84066410665002
 30
0.0
 10
105.6944315789601
 20
84.42961022924153
 30
0.0
 10
105.5119823387018
 20
84.99710575839443
 30
0.0
 10
105.3399868595939
 20
85.53516657681514
 30
0.0
 10
105.1851893568069
 20
86.03721783720991
 30
0.0
 10
105.0512531120415
 20
86.50280405630073
 30
0.0
 10
104.9403123836056
 20
86.92773534511706
 30
0.0
 10
104.8544080169653
 20
87.31038350566396
 30
0.0
 10
104.7935518588173
 20
87.64941725387636
 30
0.0
 10
104.7586215182674
 20
87.94110676735647
 30
0.0
 10
104.7453287768971
 20
88.13532468622294
 30
0.0
 10
104.7476561033496
 20
88.22123074405175
 30
0.0
 10
104.7480607799867
 20
88.23616813048922
 30
0.0
  0
LINE
  5
C4
330
1F
100
AcDbEntity
  8
0
  6
CONTINUOUS
 62
     7
100
AcDbLine
 10
87.7467691615
 20
88.0036860059
 30
0.0
 11
86.7467691615
 21
87.4263357367
 31
0.0
  0
LINE
  5
C5
330
1F
100
AcDbEntity
  8
0
  6
CONTINUOUS
 62
     7
100
AcDbLine
 10
86.7467691615
 20
69.9810362751
 30
0.0
 11
87.7467691615
 21
69.4036860059
 31
0.0
  0
LINE
  5
C6
330
1F
100
AcDbEntity
  8
0
  6
CONTINUOUS
 62
     7
100
AcDbLine
 10
95.7467691615
 20
88.0036860059
 30
0.0
 11
87.7467691615
 21
88.0036860059
 31
0.0
  0
LINE
  5
C7
330
1F
100
AcDbEntity
  8
0
  6
CONTINUOUS
 62
     7
100
AcDbLine
 10
87.7467691615
 20
69.4036860059
 30
0.0
 11
94.7467691615
 21
69.4036860059
 31
0.0
  0
SPLINE
  5
C8
330
1F
100
AcDbEntity
  8
0
  6
CONTINUOUS
 62
     7
100
AcDbSpline
210
0.0
220
0.0
230
1.0
 70
     8
 71
     3
 72
    19
 73
    15
 74
     0
 42
0.00000001
 43
0.00000001
 40
0.0
 40
0.0
 40
0.0
 40
0.0
 40
0.141223370665312
 40
0.2699237312598106
 40
0.3423463043470948
 40
0.3935379624986756
 40
0.4318401906283629
 40
0.4859997892870658
 40
0.5515914513372825
 40
0.6475892877222097
 40
0.7580367800361805
 40
0.8574254912225047
 40
0.9670252069010938
 40
1.0
 40
1.0
 40
1.0
 40
1.0
 10
104.5558235562054
 20
90.90618276346554
 30
0.0
 10
104.5509397831279
 20
90.91413212763891
 30
0.0
 10
104.5416053065075
 20
90.92932594455965
 30
0.0
 10
104.5294000046609
 20
90.94792599067145
 30
0.0
 10
104.51282293269
 20
90.97234194620665
 30
0.0
 10
104.4892257366881
 20
91.00498402286972
 30
0.0
 10
104.4509181710954
 20
91.05281786840354
 30
0.0
 10
104.3956828638494
 20
91.11299140817273
 30
0.0
 10
104.3103574117039
 20
91.18967741999838
 30
0.0
 10
104.1897065795108
 20
91.27262562723676
 30
0.0
 10
104.0400407843933
 20
91.34283897336982
 30
0.0
 10
103.8739503571639
 20
91.38654434019541
 30
0.0
 10
103.7435434012553
 20
91.40468763371882
 30
0.0
 10
103.6672359064819
 20
91.39697711942301
 30
0.0
 10
103.6495874230775
 20
91.39519382298546
 30
0.0
  0
LINE
  5
C9
330
1F
100
AcDbEntity
  8
0
  6
CONTINUOUS
 62
     7
100
AcDbLine
 10
94.7467691615
 20
67.4036860059
 30
0.0
 11
95.7467691615
 21
67.4036860059
 31
0.0
  0
LINE
  5
CA
330
1F
100
AcDbEntity
  8
0
  6
CONTINUOUS
 62
     7
100
AcDbLine
 10
105.2031497742
 20
62.6408115118
 30
0.0
 11
105.2031497742
 21
78.7036860059
 31
0.0
  0
LINE
  5
CB
330
1F
100
AcDbEntity
  8
0
  6
CONTINUOUS
 62
     7
100
AcDbLine
 10
105.2031497742
 20
78.7036860059
 30
0.0
 11
106.2467691615
 21
78.7036860059
 31
0.0
  0
LINE
  5
CC
330
1F
100
AcDbEntity
  8
0
  6
CONTINUOUS
 62
     7
100
AcDbLine
 10
106.2467691615
 20
78.7036860059
 30
0.0
 11
106.2467691615
 21
62.5952461053
 31
0.0
  0
LINE
  5
CD
330
1F
100
AcDbEntity
  8
0
  6
CONTINUOUS
 62
     7
100
AcDbLine
 10
106.2467691615
 20
62.5952461053
 30
0.0
 11
105.2031497742
 21
62.6408115118
 31
0.0
  0
LINE
  5
CE
330
1F
100
AcDbEntity
  8
0
  6
CONTINUOUS
 62
     7
100
AcDbLine
 10
105.2031497742
 20
78.7036860059
 30
0.0
 11
105.2031497742
 21
82.7230075389
 31
0.0
  0
LWPOLYLINE
  5
CF
330
1F
100
AcDbEntity
  8
0
  6
CONTINUOUS
 62
     7
100
AcDbPolyline
 90
        9
 70
   128
 43
0.0
 10
105.2031497742
 20
82.7230075389
 10
105.4042809341
 20
82.7193761276
 10
105.5990192094
 20
82.7031225839
 10
105.7794608142
 20
82.6749065857
 10
105.9382822173
 20
82.6358733277
 10
106.0690373805
 20
82.5876070412
 10
106.1664193819
 20
82.5320666961
 10
106.2264758065
 20
82.4715064922
 10
106.2467691615
 20
82.4083843691
  0
LINE
  5
D0
330
1F
100
AcDbEntity
  8
0
  6
CONTINUOUS
 62
     7
100
AcDbLine
 10
106.2467691615
 20
82.4083843691
 30
0.0
 11
106.2467691615
 21
78.7036860059
 31
0.0
  0
LINE
  5
D1
330
1F
100
AcDbEntity
  8
0
  6
CONTINUOUS
 62
     7
100
AcDbLine
 10
95.7467691615
 20
78.7036860059
 30
0.0
 11
95.7467691615
 21
91.0536860059
 31
0.0
  0
SPLINE
  5
D2
330
1F
100
AcDbEntity
  8
0
  6
CONTINUOUS
 62
     7
100
AcDbSpline
210
0.0
220
0.0
230
1.0
 70
     8
 71
     3
 72
    20
 73
    16
 74
     0
 42
0.00000001
 43
0.00000001
 40
0.0
 40
0.0
 40
0.0
 40
0.0
 40
0.2500000000000002
 40
0.2500000000000002
 40
0.3750000000000002
 40
0.3750000000000002
 40
0.4999999999999999
 40
0.4999999999999999
 40
0.6249999999999997
 40
0.6249999999999997
 40
0.6874999999999997
 40
0.6874999999999997
 40
0.7499999999999999
 40
0.7499999999999999
 40
1.0
 40
1.0
 40
1.0
 40
1.0
 10
105.2031497741509
 20
82.7230075389087
 30
0.0
 10
104.9900644182412
 20
83.5897385699761
 30
0.0
 10
104.7484926156945
 20
84.4016470558584
 30
0.0
 10
104.4099188808369
 20
85.55727598669147
 30
0.0
 10
104.3007490871145
 20
85.9318772967157
 30
0.0
 10
104.0997693444007
 20
86.66095304275329
 30
0.0
 10
104.0084878693338
 20
87.01388150369019
 30
0.0
 10
103.8574683369373
 20
87.6833648389322
 30
0.0
 10
103.7970771619194
 20
88.00198706740787
 30
0.0
 10
103.7369895411833
 20
88.4558650354206
 30
0.0
 10
103.7220604593567
 20
88.60313811180917
 30
0.0
 10
103.7040350653781
 20
88.88954070304142
 30
0.0
 10
103.7010026712606
 20
89.02894725151582
 30
0.0
 10
103.719467122123
 20
89.69353154369098
 30
0.0
 10
103.8377991315574
 20
90.13167141932095
 30
0.0
 10
104.1083880737032
 20
90.48372822498278
 30
0.0
  0
LINE
  5
D3
330
1F
100
AcDbEntity
  8
0
  6
CONTINUOUS
 62
     7
100
AcDbLine
 10
105.2031497742
 20
78.7036860059
 30
0.0
 11
95.7467691615
 21
78.7036860059
 31
0.0
  0
LINE
  5
D4
330
1F
100
AcDbEntity
  8
0
  6
CONTINUOUS
 62
     7
100
AcDbLine
 10
95.7467691615
 20
63.0536860059
 30
0.0
 11
95.7467691615
 21
78.7036860059
 31
0.0
  0
LINE
  5
D5
330
1F
100
AcDbEntity
  8
0
  6
CONTINUOUS
 62
     7
100
AcDbLine
 10
105.2031497742
 20
62.6408115118
 30
0.0
 11
95.7467691615
 21
63.0536860059
 31
0.0
  0
ARC
  5
D6
330
1F
100
AcDbEntity
  8
0
  6
CONTINUOUS
 62
     7
100
AcDbCircle
 10
104.0085074511
 20
89.3882346765
 30
0.0
 40
1.100037387343992
100
AcDbArc
 50
8.8855312871
 51
84.7905128221
  0
SPLINE
  5
D7
330
1F
100
AcDbEntity
  8
0
  6
CONTINUOUS
 62
     7
100
AcDbSpline
210
0.0
220
0.0
230
1.0
 70
     8
 71
     3
 72
    18
 73
    14
 74
     0
 42
0.00000001
 43
0.00000001
 40
0.0
 40
0.0
 40
0.0
 40
0.0
 40
0.2499999999999999
 40
0.2499999999999999
 40
0.4999999999999999
 40
0.4999999999999999
 40
0.625
 40
0.625
 40
0.75
 40
0.75
 40
0.8750000000000001
 40
0.8750000000000001
 40
1.0
 40
1.0
 40
1.0
 40
1.0
 10
107.1160765781182
 20
81.4665302631414
 30
0.0
 10
107.0593977058257
 20
82.21968616936199
 30
0.0
 10
106.9694468587545
 20
82.9625250606567
 30
0.0
 10
106.7262716456712
 20
84.42530865425218
 30
0.0
 10
106.5729596056956
 20
85.14534749669255
 30
0.0
 10
106.2980974261596
 20
86.2034439677163
 30
0.0
 10
106.1986198695721
 20
86.55344282821629
 30
0.0
 10
105.9898658985824
 20
87.23127710816219
 30
0.0
 10
105.8802473491478
 20
87.56054189729282
 30
0.0
 10
105.6542269445997
 20
88.19530288510018
 30
0.0
 10
105.5368186706587
 20
88.50306946689282
 30
0.0
 10
105.308554362062
 20
89.06938301236336
 30
0.0
 10
105.1971519580255
 20
89.32960513587867
 30
0.0
 10
105.0953431827553
 20
89.55814743604039
 30
0.0
  0
LINE
  5
D8
330
1F
100
AcDbEntity
  8
0
  6
CONTINUOUS
 62
     7
100
AcDbLine
 10
107.3272805911
 20
78.660025063
 30
0.0
 11
107.1160765781
 21
81.4665302631
 31
0.0
  0
LINE
  5
D9
330
1F
100
AcDbEntity
  8
0
  6
CONTINUOUS
 62
     7
100
AcDbLine
 10
107.3272805911
 20
62.5480699575
 30
0.0
 11
107.3272805911
 21
78.660025063
 31
0.0
  0
LINE
  5
DA
330
1F
100
AcDbEntity
  8
0
  6
CONTINUOUS
 62
     7
100
AcDbLine
 10
106.2467691615
 20
62.5952461053
 30
0.0
 11
107.3272805911
 21
62.5480699575
 31
0.0
  0
LINE
  5
DB
330
1F
100
AcDbEntity
  8
0
  6
CONTINUOUS
 62
     7
100
AcDbLine
 10
86.7467691615
 20
87.4263357367
 30
0.0
 11
86.7467691615
 21
69.9810362751
 31
0.0
  0
LINE
  5
DC
330
1F
100
AcDbEntity
  8
0
  6
CONTINUOUS
 62
     7
100
AcDbLine
 10
87.7467691615
 20
88.0036860059
 30
0.0
 11
87.7467691615
 21
69.4036860059
 31
0.0
  0
LINE
  5
DD
330
1F
100
AcDbEntity
  8
0
  6
CONTINUOUS
 62
     7
100
AcDbLine
 10
94.7467691615
 20
69.5096662104
 30
0.0
 11
95.7467691615
 21
69.5096662104
 31
0.0
  0
ARC
  5
DE
330
1F
100
AcDbEntity
  8
0
  6
CONTINUOUS
 62
     7
100
AcDbCircle
 10
104.4294237649
 20
89.7112638865
 30
0.0
 40
0.6832959230703713
100
AcDbArc
 50
347.0509140944
 51
26.6756076539
  0
SPLINE
  5
DF
330
1F
100
AcDbEntity
  8
0
  6
CONTINUOUS
 62
     7
100
AcDbSpline
210
0.0
220
0.0
230
1.0
 70
     8
 71
     3
 72
    18
 73
    14
 74
     0
 42
0.00000001
 43
0.00000001
 40
0.0
 40
0.0
 40
0.0
 40
0.0
 40
0.125
 40
0.125
 40
0.25
 40
0.25
 40
0.4999999999999999
 40
0.4999999999999999
 40
0.6249999999999999
 40
0.6249999999999999
 40
0.7499999999999999
 40
0.7499999999999999
 40
1.0
 40
1.0
 40
1.0
 40
1.0
 10
105.0399914427185
 20
90.01802181925054
 30
0.0
 10
105.1580850531521
 20
89.78999164790648
 30
0.0
 10
105.2874827466251
 20
89.53051756208997
 30
0.0
 10
105.5542255893389
 20
88.96390939081498
 30
0.0
 10
105.691827292401
 20
88.6562974602638
 30
0.0
 10
106.1026383100945
 20
87.67294243313721
 30
0.0
 10
106.3598900288065
 20
86.9695623270978
 30
0.0
 10
106.6991303984214
 20
85.8632233463998
 30
0.0
 10
106.8049012369994
 20
85.48448736348632
 30
0.0
 10
106.9975577198099
 20
84.71655888255958
 30
0.0
 10
107.0841357313261
 20
84.328923910488
 30
0.0
 10
107.3137793931243
 20
83.15603524915349
 30
0.0
 10
107.4268044129822
 20
82.36089981667207
 30
0.0
 10
107.4974264704673
 20
81.55368600588906
 30
0.0
  0
ARC
  5
E0
330
1F
100
AcDbEntity
  8
0
  6
CONTINUOUS
 62
     7
100
AcDbCircle
 10
107.0856031704
 20
82.4777426046
 30
0.0
 40
1.011671403234323
100
AcDbArc
 50
271.7261155976
 51
294.0210469628
  0
ARC
  5
E1
330
1F
100
AcDbEntity
  8
0
  6
CONTINUOUS
 62
     7
100
AcDbCircle
 10
104.2369108837
 20
89.5761792655
 30
0.0
 40
0.9166041820843494
100
AcDbArc
 50
28.8189133661
 51
98.0603604502
  0
SPLINE
  5
E2
330
1F
100
AcDbEntity
  8
0
  6
CONTINUOUS
 62
     7
100
AcDbSpline
210
0.0
220
0.0
230
1.0
 70
     8
 71
     3
 72
    12
 73
     8
 74
     0
 42
0.00000001
 43
0.00000001
 40
0.0
 40
0.0
 40
0.0
 40
0.0
 40
0.1051785908820034
 40
0.306599672972195
 40
0.5095780221114145
 40
0.753562558021437
 40
1.0
 40
1.0
 40
1.0
 40
1.0
 10
104.5646032946687
 20
90.88883311891449
 30
0.0
 10
104.565215132931
 20
90.88776986329418
 30
0.0
 10
104.5669986652029
 20
90.88467043191046
 30
0.0
 10
104.6117518883009
 20
90.80672182020426
 30
0.0
 10
104.7015094807376
 20
90.64768869350465
 30
0.0
 10
104.8405765240383
 20
90.39737991525482
 30
0.0
 10
104.9732985279957
 20
90.1448954619733
 30
0.0
 10
105.0399914427185
 20
90.01802181925049
 30
0.0
  0
SPLINE
  5
E3
330
1F
100
AcDbEntity
  8
0
  6
CONTINUOUS
 62
     7
100
AcDbSpline
210
0.0
220
0.0
230
1.0
 70
     8
 71
     3
 72
    12
 73
     8
 74
     0
 42
0.00000001
 43
0.00000001
 40
0.0
 40
0.0
 40
0.0
 40
0.0
 40
0.25
 40
0.25
 40
0.5
 40
0.5
 40
1.0
 40
1.0
 40
1.0
 40
1.0
 10
107.7467691615162
 20
78.70364392154353
 30
0.0
 10
107.7467691615162
 20
78.7011573263909
 30
0.0
 10
107.7373017946656
 20
78.69830803516432
 30
0.0
 10
107.7001174565866
 20
78.69191008219548
 30
0.0
 10
107.6719319183341
 20
78.68832929142569
 30
0.0
 10
107.5636171729289
 20
78.67706329603791
 30
0.0
 10
107.4556196420266
 20
78.6684717463752
 30
0.0
 10
107.3272805911445
 20
78.66002506298057
 30
0.0
  0
LINE
  5
E4
330
1F
100
AcDbEntity
  8
0
  6
CONTINUOUS
 62
     7
100
AcDbLine
 10
107.4974264705
 20
81.5536860059
 30
0.0
 11
107.7467691615
 21
78.7036860059
 31
0.0
  0
LINE
  5
E5
330
1F
100
AcDbEntity
  8
0
  6
CONTINUOUS
 62
     7
100
AcDbLine
 10
107.7467691615
 20
78.7036439215
 30
0.0
 11
107.7467691615
 21
62.529754691
 31
0.0
  0
LINE
  5
E6
330
1F
100
AcDbEntity
  8
0
  6
CONTINUOUS
 62
     7
100
AcDbLine
 10
107.7467691615
 20
62.529754691
 30
0.0
 11
107.3272805911
 21
62.5480699575
 31
0.0
  0
LINE
  5
E7
330
1F
100
AcDbEntity
  8
0
  6
CONTINUOUS
 62
     7
100
AcDbLine
 10
94.7467691615
 20
68.8036860059
 30
0.0
 11
95.7467691615
 21
68.8036860059
 31
0.0
  0
LINE
  5
E8
330
1F
100
AcDbEntity
  8
0
  6
CONTINUOUS
 62
     7
100
AcDbLine
 10
94.7467691615
 20
67.4036860059
 30
0.0
 11
94.7467691615
 21
68.8036860059
 31
0.0
  0
LINE
  5
E9
330
1F
100
AcDbEntity
  8
0
  6
CONTINUOUS
 62
     7
100
AcDbLine
 10
94.7467691615
 20
68.8036860059
 30
0.0
 11
94.7467691615
 21
69.5096662104
 31
0.0
  0
SPLINE
  5
EA
330
1F
100
AcDbEntity
  8
0
  6
CONTINUOUS
 62
     7
100
AcDbSpline
210
0.0
220
0.0
230
1.0
 70
     8
 71
     3
 72
    12
 73
     8
 74
     0
 42
0.00000001
 43
0.00000001
 40
0.0
 40
0.0
 40
0.0
 40
0.0
 40
0.1985395578752958
 40
0.3983452907851219
 40
0.6023065860706833
 40
0.8077819207400065
 40
1.0
 40
1.0
 40
1.0
 40
1.0
 10
104.1083880737032
 20
90.4837282249828
 30
0.0
 10
104.0542016844303
 20
90.59605601480787
 30
0.0
 10
103.9454833351881
 20
90.82142795871654
 30
0.0
 10
103.816712073812
 20
91.07600523352227
 30
0.0
 10
103.7198761545639
 20
91.26367513336918
 30
0.0
 10
103.6594659161616
 20
91.37844359302663
 30
0.0
 10
103.6526425104269
 20
91.39132633789883
 30
0.0
 10
103.6493445379225
 20
91.39755298482885
 30
0.0
  0
LWPOLYLINE
  5
EB
330
1F
100
AcDbEntity
  8
0
  6
CONTINUOUS
 62
     7
100
AcDbPolyline
 90
        8
 70
   128
 43
0.0
 10
105.2031497742
 20
82.7230075389
 10
105.4188159032
 20
82.7696237829
 10
105.6259325102
 20
82.79828895
 10
105.8142073458
 20
82.8075785813
 10
105.974284465
 20
82.7970310471
 10
106.0982091525
 20
82.7671704863
 10
106.1798232165
 20
82.7194807601
 10
106.212970834
 20
82.6661717389
  0
SPLINE
  5
EC
330
1F
100
AcDbEntity
  8
0
  6
CONTINUOUS
 62
     7
100
AcDbSpline
210
0.0
220
0.0
230
1.0
 70
     8
 71
     3
 72
    12
 73
     8
 74
     0
 42
0.00000001
 43
0.00000001
 40
0.0
 40
0.0
 40
0.0
 40
0.0
 40
0.2255569715026112
 40
0.4531010246981489
 40
0.686387324446009
 40
0.9214245083199537
 40
1.0
 40
1.0
 40
1.0
 40
1.0
 10
105.0953431827555
 20
89.55814743604007
 30
0.0
 10
105.0438095562628
 20
89.47716791433142
 30
0.0
 10
104.940288309215
 20
89.31449546833554
 30
0.0
 10
104.8372812679276
 20
89.02983518703701
 30
0.0
 10
104.7731011955138
 20
88.71223218884569
 30
0.0
 10
104.7447598867234
 20
88.44680020664602
 30
0.0
 10
104.750066090035
 20
88.27857336145966
 30
0.0
 10
104.7513955564969
 20
88.236424213467
 30
0.0
  0
LINE
  5
ED
330
1F
100
AcDbEntity
  8
0
  6
CONTINUOUS
 62
     7
100
AcDbLine
 10
95.2467691378
 20
87.303686298
 30
0.0
 11
86.7467695489
 21
87.303686298
 31
0.0
  0
LINE
  5
EE
330
1F
100
AcDbEntity
  8
0
  6
CONTINUOUS
 62
     7
100
AcDbLine
 10
86.7467695489
 20
70.1036857138
 30
0.0
 11
95.2467691378
 21
70.1036857138
 31
0.0
  0
LINE
  5
EF
330
1F
100
AcDbEntity
  8
0
  6
CONTINUOUS
 62
     7
100
AcDbLine
 10
95.2467691378
 20
78.7036860059
 30
0.0
 11
95.2467691378
 21
78.0549507984
 31
0.0
  0
LINE
  5
F0
330
1F
100
AcDbEntity
  8
0
  6
CONTINUOUS
 62
     7
100
AcDbLine
 10
95.2467691378
 20
78.0549507984
 30
0.0
 11
95.2467691378
 21
69.4036859716
 31
0.0
  0
LINE
  5
F1
330
1F
100
AcDbEntity
  8
0
  6
CONTINUOUS
 62
     7
100
AcDbLine
 10
95.2467691378
 20
88.0036860402
 30
0.0
 11
95.2467691378
 21
78.7036860059
 31
0.0
  0
LINE
  5
F2
330
1F
100
AcDbEntity
  8
0
  6
CONTINUOUS
 62
     7
100
AcDbLine
 10
19.0593977428
 20
91.0536860059
 30
0.0
 11
11.156873218
 21
91.398717678
 31
0.0
  0
SPLINE
  5
F3
330
1F
100
AcDbEntity
  8
0
  6
CONTINUOUS
 62
     7
100
AcDbSpline
210
0.0
220
0.0
230
1.0
 70
     8
 71
     3
 72
    21
 73
    17
 74
     0
 42
0.00000001
 43
0.00000001
 40
0.0
 40
0.0
 40
0.0
 40
0.0
 40
0.0130697972972085
 40
0.0775879361801704
 40
0.1436708464682492
 40
0.2117102566493355
 40
0.281573868182746
 40
0.3566185785576996
 40
0.4344036526090159
 40
0.5152932732565837
 40
0.5994176046252192
 40
0.6867029909105724
 40
0.7768381171957108
 40
0.8692646300377034
 40
0.9632227133785964
 40
0.9999999999999999
 40
0.9999999999999999
 40
0.9999999999999999
 40
0.9999999999999999
 10
10.05688062096987
 20
88.2191496740429
 30
0.0
 10
10.05727726870312
 20
88.20506460153835
 30
0.0
 10
10.05963194018835
 20
88.12144955520473
 30
0.0
 10
10.04619651394546
 20
87.93522455619961
 30
0.0
 10
10.0139685283134
 20
87.66072306250864
 30
0.0
 10
9.959185140195325
 20
87.34963588742902
 30
0.0
 10
9.883388991751756
 20
87.00385898002483
 30
0.0
 10
9.78537588516002
 20
86.62083702379873
 30
0.0
 10
9.665185270365981
 20
86.19828137244826
 30
0.0
 10
9.525408998015328
 20
85.7395602439588
 30
0.0
 10
9.368335804291398
 20
85.24382889199971
 30
0.0
 10
9.197519359819852
 20
84.71126046715692
 30
0.0
 10
9.017437423068946
 20
84.1438420902344
 30
0.0
 10
8.835142836536633
 20
83.54378068241382
 30
0.0
 10
8.690645671882526
 20
83.04890124804332
 30
0.0
 10
8.613901570680516
 20
82.74960255414413
 30
0.0
 10
8.592312617306826
 20
82.66540656453462
 30
0.0
  0
ARC
  5
F4
330
1F
100
AcDbEntity
  8
0
  6
CONTINUOUS
 62
     7
100
AcDbCircle
 10
9.5593977428
 20
82.4083843691
 30
0.0
 40
1.000000000000002
100
AcDbArc
 50
165.0611870952
 51
180.0
  0
LINE
  5
F5
330
1F
100
AcDbEntity
  8
0
  6
CONTINUOUS
 62
     7
100
AcDbLine
 10
27.0593977428
 20
69.4036860059
 30
0.0
 11
28.0593977428
 21
69.9810362751
 31
0.0
  0
LINE
  5
F6
330
1F
100
AcDbEntity
  8
0
  6
CONTINUOUS
 62
     7
100
AcDbLine
 10
28.0593977428
 20
87.4263357367
 30
0.0
 11
27.0593977428
 21
88.0036860059
 31
0.0
  0
LINE
  5
F7
330
1F
100
AcDbEntity
  8
0
  6
CONTINUOUS
 62
     7
100
AcDbLine
 10
20.0593977428
 20
69.4036860059
 30
0.0
 11
27.0593977428
 21
69.4036860059
 31
0.0
  0
LINE
  5
F8
330
1F
100
AcDbEntity
  8
0
  6
CONTINUOUS
 62
     7
100
AcDbLine
 10
27.0593977428
 20
88.0036860059
 30
0.0
 11
19.0593977428
 21
88.0036860059
 31
0.0
  0
SPLINE
  5
F9
330
1F
100
AcDbEntity
  8
0
  6
CONTINUOUS
 62
     7
100
AcDbSpline
210
0.0
220
0.0
230
1.0
 70
     8
 71
     3
 72
    21
 73
    17
 74
     0
 42
0.00000001
 43
0.00000001
 40
0.0
 40
0.0
 40
0.0
 40
0.0
 40
0.0822864281516174
 40
0.1784954898905007
 40
0.2681956542079967
 40
0.3510112993069247
 40
0.4261202784409485
 40
0.4918266263270926
 40
0.5446107350929027
 40
0.5843703908680824
 40
0.6172693239869188
 40
0.6535009164037325
 40
0.7115203613900272
 40
0.7997735533658683
 40
0.9579176891860061
 40
1.0
 40
1.0
 40
1.0
 40
1.0
 10
11.15677171351824
 20
91.39643036930127
 30
0.0
 10
11.11198068355595
 20
91.39754698724936
 30
0.0
 10
11.01482010658829
 20
91.39996915178051
 30
0.0
 10
10.87054403174242
 20
91.37317626861903
 30
0.0
 10
10.7315569795463
 20
91.32749358584385
 30
0.0
 10
10.61083963304207
 20
91.26729694165552
 30
0.0
 10
10.50989107947993
 20
91.19967811280377
 30
0.0
 10
10.43027015301631
 20
91.13196606034825
 30
0.0
 10
10.37198523272761
 20
91.07190155816544
 30
0.0
 10
10.33345221646841
 20
91.02602325252072
 30
0.0
 10
10.31018783393581
 20
90.99562541566445
 30
0.0
 10
10.29351202470145
 20
90.97248892568247
 30
0.0
 10
10.28027767837004
 20
90.95315801304999
 30
0.0
 10
10.26708112537772
 20
90.93307603670084
 30
0.0
 10
10.25861780527545
 20
90.92003650260781
 30
0.0
 10
10.25115228411143
 20
90.90784511399443
 30
0.0
 10
10.2495832287379
 20
90.9052828061
 30
0.0
  0
LINE
  5
FA
330
1F
100
AcDbEntity
  8
0
  6
CONTINUOUS
 62
     7
100
AcDbLine
 10
19.0593977428
 20
67.4036860059
 30
0.0
 11
20.0593977428
 21
67.4036860059
 31
0.0
  0
LINE
  5
FB
330
1F
100
AcDbEntity
  8
0
  6
CONTINUOUS
 62
     7
100
AcDbLine
 10
19.0593977428
 20
91.0536860059
 30
0.0
 11
19.0593977428
 21
78.7036860059
 31
0.0
  0
LINE
  5
FC
330
1F
100
AcDbEntity
  8
0
  6
CONTINUOUS
 62
     7
100
AcDbLine
 10
9.6030171301
 20
78.7036860059
 30
0.0
 11
19.0593977428
 21
78.7036860059
 31
0.0
  0
LINE
  5
FD
330
1F
100
AcDbEntity
  8
0
  6
CONTINUOUS
 62
     7
100
AcDbLine
 10
9.6030171301
 20
82.7230075389
 30
0.0
 11
9.6030171301
 21
78.7036860059
 31
0.0
  0
SPLINE
  5
FE
330
1F
100
AcDbEntity
  8
0
  6
CONTINUOUS
 62
     7
100
AcDbSpline
210
0.0
220
0.0
230
1.0
 70
     8
 71
     3
 72
    20
 73
    16
 74
     0
 42
0.00000001
 43
0.00000001
 40
0.0
 40
0.0
 40
0.0
 40
0.0
 40
0.2500000000000001
 40
0.2500000000000001
 40
0.3749999999999999
 40
0.3749999999999999
 40
0.4999999999999999
 40
0.4999999999999999
 40
0.6249999999999998
 40
0.6249999999999998
 40
0.7499999999999999
 40
0.7499999999999999
 40
0.875
 40
0.875
 40
1.0
 40
1.0
 40
1.0
 40
1.0
 10
10.69777883059707
 20
90.4837282249828
 30
0.0
 10
10.96765719821588
 20
90.13259593085556
 30
0.0
 10
11.08672618562141
 20
89.69474680867242
 30
0.0
 10
11.10886214483483
 20
88.89476551932212
 30
0.0
 10
11.08932581905512
 20
88.6085470024827
 30
0.0
 10
11.00939340334254
 20
88.00379482552006
 30
0.0
 10
10.94893765119731
 20
87.68429509643572
 30
0.0
 10
10.79686951395332
 20
87.01042293356338
 30
0.0
 10
10.70583896936773
 20
86.65897618919814
 30
0.0
 10
10.50667492155603
 20
85.93638825797952
 30
0.0
 10
10.39815499609936
 20
85.56381057752091
 30
0.0
 10
10.17283528974696
 20
84.79469247616693
 30
0.0
 10
10.05597886750873
 20
84.39816774928896
 30
0.0
 10
9.824118761363543
 20
83.57823147714707
 30
0.0
 10
9.709316512968984
 20
83.1553834442344
 30
0.0
 10
9.603017130149347
 20
82.72300753890872
 30
0.0
  0
LINE
  5
FF
330
1F
100
AcDbEntity
  8
0
  6
CONTINUOUS
 62
     7
100
AcDbLine
 10
10.058989065
 20
88.2193242609
 30
0.0
 11
10.0583577506
 21
88.2335523679
 31
0.0
  0
ARC
  5
100
330
1F
100
AcDbEntity
  8
0
  6
CONTINUOUS
 62
     7
100
AcDbCircle
 10
10.7976594532
 20
89.3882346765
 30
0.0
 40
1.100037387344305
100
AcDbArc
 50
95.2094871779
 51
171.1144687129
  0
LINE
  5
101
330
1F
100
AcDbEntity
  8
0
  6
CONTINUOUS
 62
     7
100
AcDbLine
 10
8.5593977428
 20
62.5952461053
 30
0.0
 11
8.5593977428
 21
78.7036860059
 31
0.0
  0
LINE
  5
102
330
1F
100
AcDbEntity
  8
0
  6
CONTINUOUS
 62
     7
100
AcDbLine
 10
8.5593977428
 20
78.7036860059
 30
0.0
 11
9.6030171301
 21
78.7036860059
 31
0.0
  0
LINE
  5
103
330
1F
100
AcDbEntity
  8
0
  6
CONTINUOUS
 62
     7
100
AcDbLine
 10
9.6030171301
 20
78.7036860059
 30
0.0
 11
9.6030171301
 21
62.6408115118
 31
0.0
  0
LINE
  5
104
330
1F
100
AcDbEntity
  8
0
  6
CONTINUOUS
 62
     7
100
AcDbLine
 10
9.6030171301
 20
62.6408115118
 30
0.0
 11
8.5593977428
 21
62.5952461053
 31
0.0
  0
LINE
  5
105
330
1F
100
AcDbEntity
  8
0
  6
CONTINUOUS
 62
     7
100
AcDbLine
 10
8.5593977428
 20
78.7036860059
 30
0.0
 11
8.5593977428
 21
82.4083843691
 31
0.0
  0
LWPOLYLINE
  5
106
330
1F
100
AcDbEntity
  8
0
  6
CONTINUOUS
 62
     7
100
AcDbPolyline
 90
        9
 70
   128
 43
0.0
 10
8.5593977428
 20
82.4083843691
 10
8.5796910978
 20
82.4715064922
 10
8.6397475224
 20
82.5320666961
 10
8.7371295238
 20
82.5876070412
 10
8.867884687
 20
82.6358733277
 10
9.0267060901
 20
82.6749065857
 10
9.2071476949
 20
82.7031225839
 10
9.4018859702
 20
82.7193761276
 10
9.6030171301
 20
82.7230075389
  0
LINE
  5
107
330
1F
100
AcDbEntity
  8
0
  6
CONTINUOUS
 62
     7
100
AcDbLine
 10
19.0593977428
 20
78.7036860059
 30
0.0
 11
19.0593977428
 21
63.0536860059
 31
0.0
  0
LINE
  5
108
330
1F
100
AcDbEntity
  8
0
  6
CONTINUOUS
 62
     7
100
AcDbLine
 10
9.6030171301
 20
62.6408115118
 30
0.0
 11
19.0593977428
 21
63.0536860059
 31
0.0
  0
SPLINE
  5
109
330
1F
100
AcDbEntity
  8
0
  6
CONTINUOUS
 62
     7
100
AcDbSpline
210
0.0
220
0.0
230
1.0
 70
     8
 71
     3
 72
    16
 73
    12
 74
     0
 42
0.00000001
 43
0.00000001
 40
0.0
 40
0.0
 40
0.0
 40
0.0
 40
0.1250000000000002
 40
0.1250000000000002
 40
0.2500000000000003
 40
0.2500000000000003
 40
0.5000000000000002
 40
0.5000000000000002
 40
0.7500000000000001
 40
0.7500000000000001
 40
1.0
 40
1.0
 40
1.0
 40
1.0
 10
9.710823721544704
 20
89.55814743604007
 30
0.0
 10
9.608751245765566
 20
89.32901317589548
 30
0.0
 10
9.497712821460118
 20
89.0695386171946
 30
0.0
 10
9.271259681658162
 20
88.5079040431514
 30
0.0
 10
9.155311502177723
 20
88.20443061236101
 30
0.0
 10
8.814168620838572
 20
87.24736807947167
 30
0.0
 10
8.604117348994182
 20
86.57094111968092
 30
0.0
 10
8.238221849531653
 20
85.16683821891816
 30
0.0
 10
8.081910849083624
 20
84.43620757668299
 30
0.0
 10
7.83689574636813
 20
82.9647965977486
 30
0.0
 10
7.746777902044453
 20
82.21980182348118
 30
0.0
 10
7.690090326182086
 20
81.46653026314138
 30
0.0
  0
LINE
  5
10A
330
1F
100
AcDbEntity
  8
0
  6
CONTINUOUS
 62
     7
100
AcDbLine
 10
7.4788863132
 20
78.660025063
 30
0.0
 11
7.4788863132
 21
62.5480699575
 31
0.0
  0
LINE
  5
10B
330
1F
100
AcDbEntity
  8
0
  6
CONTINUOUS
 62
     7
100
AcDbLine
 10
7.6900903262
 20
81.4665302631
 30
0.0
 11
7.4788863132
 21
78.660025063
 31
0.0
  0
LINE
  5
10C
330
1F
100
AcDbEntity
  8
0
  6
CONTINUOUS
 62
     7
100
AcDbLine
 10
7.4788863132
 20
62.5480699575
 30
0.0
 11
8.5593977428
 21
62.5952461053
 31
0.0
  0
LINE
  5
10D
330
1F
100
AcDbEntity
  8
0
  6
CONTINUOUS
 62
     7
100
AcDbLine
 10
28.0593977428
 20
69.9810362751
 30
0.0
 11
28.0593977428
 21
87.4263357367
 31
0.0
  0
LINE
  5
10E
330
1F
100
AcDbEntity
  8
0
  6
CONTINUOUS
 62
     7
100
AcDbLine
 10
27.0593977428
 20
69.4036860059
 30
0.0
 11
27.0593977428
 21
88.0036860059
 31
0.0
  0
LINE
  5
10F
330
1F
100
AcDbEntity
  8
0
  6
CONTINUOUS
 62
     7
100
AcDbLine
 10
20.0593977428
 20
69.5096662104
 30
0.0
 11
19.0593977428
 21
69.5096662104
 31
0.0
  0
ARC
  5
110
330
1F
100
AcDbEntity
  8
0
  6
CONTINUOUS
 62
     7
100
AcDbCircle
 10
10.3767431394
 20
89.7112638865
 30
0.0
 40
0.6832959230701299
100
AcDbArc
 50
153.3243923461
 51
192.9490859056
  0
ARC
  5
111
330
1F
100
AcDbEntity
  8
0
  6
CONTINUOUS
 62
     7
100
AcDbCircle
 10
7.7205637339
 20
82.4777426046
 30
0.0
 40
1.011671403236175
100
AcDbArc
 50
245.9789530372
 51
268.2738844024
  0
SPLINE
  5
112
330
1F
100
AcDbEntity
  8
0
  6
CONTINUOUS
 62
     7
100
AcDbSpline
210
0.0
220
0.0
230
1.0
 70
     8
 71
     3
 72
    18
 73
    14
 74
     0
 42
0.00000001
 43
0.00000001
 40
0.0
 40
0.0
 40
0.0
 40
0.0
 40
0.2499999999999997
 40
0.2499999999999997
 40
0.4999999999999993
 40
0.4999999999999993
 40
0.6249999999999994
 40
0.6249999999999994
 40
0.7499999999999997
 40
0.7499999999999997
 40
0.8749999999999998
 40
0.8749999999999998
 40
1.0
 40
1.0
 40
1.0
 40
1.0
 10
7.30874043383292
 20
81.55368600588903
 30
0.0
 10
7.379382117812624
 20
82.36112414853216
 30
0.0
 10
7.492184907382165
 20
83.15341618383977
 30
0.0
 10
7.795443395527379
 20
84.70543856665248
 30
0.0
 10
7.986036750347135
 20
85.46527421341953
 30
0.0
 10
8.324758967180696
 20
86.5748461371555
 30
0.0
 10
8.447278779305115
 20
86.94173519718002
 30
0.0
 10
8.70286720151078
 20
87.64873101082534
 30
0.0
 10
8.83605170507427
 20
87.98958423976421
 30
0.0
 10
9.107937318722183
 20
88.64152752256297
 30
0.0
 10
9.247917275833167
 20
88.95517869445133
 30
0.0
 10
9.517998457110064
 20
89.52924079082986
 30
0.0
 10
9.648201425008367
 20
89.79022253633214
 30
0.0
 10
9.766175461581943
 20
90.0180218192506
 30
0.0
  0
ARC
  5
113
330
1F
100
AcDbEntity
  8
0
  6
CONTINUOUS
 62
     7
100
AcDbCircle
 10
10.5692560206
 20
89.5761792655
 30
0.0
 40
0.9166041820842475
100
AcDbArc
 50
81.9396395498
 51
151.1810866339
  0
SPLINE
  5
114
330
1F
100
AcDbEntity
  8
0
  6
CONTINUOUS
 62
     7
100
AcDbSpline
210
0.0
220
0.0
230
1.0
 70
     8
 71
     3
 72
    12
 73
     8
 74
     0
 42
0.00000001
 43
0.00000001
 40
0.0
 40
0.0
 40
0.0
 40
0.0
 40
0.2247008839325119
 40
0.4507773139229376
 40
0.6814328726072005
 40
0.9137883386602637
 40
1.0
 40
1.0
 40
1.0
 40
1.0
 10
9.766175461581831
 20
90.01802181925052
 30
0.0
 10
9.819569627853982
 20
90.11992208989815
 30
0.0
 10
9.926684822196261
 20
90.32434643165713
 30
0.0
 10
10.05685082256134
 20
90.56179042020175
 30
0.0
 10
10.15641270804967
 20
90.73985066905172
 30
0.0
 10
10.21445717900354
 20
90.84158958347138
 30
0.0
 10
10.22557502584939
 20
90.8609466136296
 30
0.0
 10
10.22858377334618
 20
90.8661850754326
 30
0.0
  0
SPLINE
  5
115
330
1F
100
AcDbEntity
  8
0
  6
CONTINUOUS
 62
     7
100
AcDbSpline
210
0.0
220
0.0
230
1.0
 70
    24
 71
     3
 72
     8
 73
     4
 74
     0
 42
0.00000001
 43
0.00000001
 40
0.0
 40
0.0
 40
0.0
 40
0.0
 40
0.0000027113973074
 40
0.0000027113973074
 40
0.0000027113973074
 40
0.0000027113973074
 10
7.059397742784178
 20
78.70364392154352
 30
0.0
 10
7.059397742784178
 20
78.70367199460402
 30
0.0
 10
7.059397742784095
 20
78.70368600588905
 30
0.0
 10
7.059397742784095
 20
78.70368600588905
 30
0.0
  0
LINE
  5
116
330
1F
100
AcDbEntity
  8
0
  6
CONTINUOUS
 62
     7
100
AcDbLine
 10
7.0593977428
 20
78.7036860059
 30
0.0
 11
7.3087404338
 21
81.5536860059
 31
0.0
  0
SPLINE
  5
117
330
1F
100
AcDbEntity
  8
0
  6
CONTINUOUS
 62
     7
100
AcDbSpline
210
0.0
220
0.0
230
1.0
 70
     8
 71
     3
 72
    12
 73
     8
 74
     0
 42
0.00000001
 43
0.00000001
 40
0.0
 40
0.0
 40
0.0
 40
0.0
 40
0.2500000000000002
 40
0.2500000000000002
 40
0.5000000000000003
 40
0.5000000000000003
 40
1.0
 40
1.0
 40
1.0
 40
1.0
 10
7.059397742784178
 20
78.70364392154352
 30
0.0
 10
7.059397742784181
 20
78.70115732435262
 30
0.0
 10
7.068865124388715
 20
78.6983080350533
 30
0.0
 10
7.106049323733615
 20
78.69191010110721
 30
0.0
 10
7.134234919960623
 20
78.68832929937776
 30
0.0
 10
7.242549585663159
 20
78.67706330903414
 30
0.0
 10
7.350547483971519
 20
78.66847173178392
 30
0.0
 10
7.478886313155948
 20
78.66002506298054
 30
0.0
  0
LINE
  5
118
330
1F
100
AcDbEntity
  8
0
  6
CONTINUOUS
 62
     7
100
AcDbLine
 10
7.0593977428
 20
62.529754691
 30
0.0
 11
7.0593977428
 21
78.7036439215
 31
0.0
  0
LINE
  5
119
330
1F
100
AcDbEntity
  8
0
  6
CONTINUOUS
 62
     7
100
AcDbLine
 10
7.4788863132
 20
62.5480699575
 30
0.0
 11
7.0593977428
 21
62.529754691
 31
0.0
  0
LINE
  5
11A
330
1F
100
AcDbEntity
  8
0
  6
CONTINUOUS
 62
     7
100
AcDbLine
 10
20.0593977428
 20
69.5096662104
 30
0.0
 11
20.0593977428
 21
68.8036860059
 31
0.0
  0
LINE
  5
11B
330
1F
100
AcDbEntity
  8
0
  6
CONTINUOUS
 62
     7
100
AcDbLine
 10
20.0593977428
 20
68.8036860059
 30
0.0
 11
19.0593977428
 21
68.8036860059
 31
0.0
  0
LINE
  5
11C
330
1F
100
AcDbEntity
  8
0
  6
CONTINUOUS
 62
     7
100
AcDbLine
 10
20.0593977428
 20
68.8036860059
 30
0.0
 11
20.0593977428
 21
67.4036860059
 31
0.0
  0
SPLINE
  5
11D
330
1F
100
AcDbEntity
  8
0
  6
CONTINUOUS
 62
     7
100
AcDbSpline
210
0.0
220
0.0
230
1.0
 70
     8
 71
     3
 72
    13
 73
     9
 74
     0
 42
0.00000001
 43
0.00000001
 40
0.0
 40
0.0
 40
0.0
 40
0.0
 40
0.0063486157971983
 40
0.2063724299080963
 40
0.4109552967220579
 40
0.6170812317791936
 40
0.8079695134038527
 40
1.0
 40
1.0
 40
1.0
 40
1.0
 10
11.15682236637784
 20
91.39755298482885
 30
0.0
 10
11.15702225084044
 20
91.39793160460967
 30
0.0
 10
11.16351983134712
 20
91.41023927712854
 30
0.0
 10
11.13979613941438
 20
91.36538933498336
 30
0.0
 10
11.08205356495075
 20
91.25552845123694
 30
0.0
 10
10.98222955401882
 20
91.0618763698048
 30
0.0
 10
10.85500054055212
 20
90.8097743351966
 30
0.0
 10
10.75029018044786
 20
90.592626171493
 30
0.0
 10
10.69777883059707
 20
90.4837282249828
 30
0.0
  0
LWPOLYLINE
  5
11E
330
1F
100
AcDbEntity
  8
0
  6
CONTINUOUS
 62
     7
100
AcDbPolyline
 90
        8
 70
   128
 43
0.0
 10
9.6030171301
 20
82.7230075389
 10
9.3873510011
 20
82.7696237829
 10
9.1802343941
 20
82.79828895
 10
8.9919595585
 20
82.8075785813
 10
8.8318824393
 20
82.7970310471
 10
8.7079577518
 20
82.7671704863
 10
8.6263436878
 20
82.7194807601
 10
8.5929307163
 20
82.665155686
  0
SPLINE
  5
11F
330
1F
100
AcDbEntity
  8
0
  6
CONTINUOUS
 62
     7
100
AcDbSpline
210
0.0
220
0.0
230
1.0
 70
     8
 71
     3
 72
    11
 73
     7
 74
     0
 42
0.00000001
 43
0.00000001
 40
0.0
 40
0.0
 40
0.0
 40
0.0
 40
0.2347155131937498
 40
0.4875535600278896
 40
0.7403381606537459
 40
1.0
 40
1.0
 40
1.0
 40
1.0
 10
10.05835775061901
 20
88.23355236792436
 30
0.0
 10
10.05572157357606
 20
88.35494779552663
 30
0.0
 10
10.05024567858868
 20
88.60711166869054
 30
0.0
 10
9.98957255824309
 20
88.95169812583748
 30
0.0
 10
9.885928703769526
 20
89.27860217291996
 30
0.0
 10
9.769711940957832
 20
89.46413570329918
 30
0.0
 10
9.710823721544703
 20
89.55814743604007
 30
0.0
  0
LINE
  5
120
330
1F
100
AcDbEntity
  8
0
  6
CONTINUOUS
 62
     7
100
AcDbLine
 10
19.5593977665
 20
70.1036857138
 30
0.0
 11
28.0593973554
 21
70.1036857138
 31
0.0
  0
LINE
  5
121
330
1F
100
AcDbEntity
  8
0
  6
CONTINUOUS
 62
     7
100
AcDbLine
 10
28.0593973554
 20
87.303686298
 30
0.0
 11
19.5593977665
 21
87.303686298
 31
0.0
  0
LINE
  5
122
330
1F
100
AcDbEntity
  8
0
  6
CONTINUOUS
 62
     7
100
AcDbLine
 10
19.5593977665
 20
69.4036859716
 30
0.0
 11
19.5593977665
 21
69.4093512068
 31
0.0
  0
LINE
  5
123
330
1F
100
AcDbEntity
  8
0
  6
CONTINUOUS
 62
     7
100
AcDbLine
 10
19.5593977665
 20
69.4093512068
 30
0.0
 11
19.5593977665
 21
88.0036860402
 31
0.0
  0
LINE
  5
124
330
1F
100
AcDbEntity
  8
0
  6
CONTINUOUS
 62
     7
100
AcDbLine
 10
45.9227070909
 20
112.4710259768
 30
0.0
 11
46.5000573601
 21
111.4710259768
 31
0.0
  0
LINE
  5
125
330
1F
100
AcDbEntity
  8
0
  6
CONTINUOUS
 62
     7
100
AcDbLine
 10
63.9453568217
 20
111.4710259768
 30
0.0
 11
64.5227070909
 21
112.4710259768
 31
0.0
  0
LINE
  5
126
330
1F
100
AcDbEntity
  8
0
  6
CONTINUOUS
 62
     7
100
AcDbLine
 10
45.9227070909
 20
120.4710259768
 30
0.0
 11
45.9227070909
 21
112.4710259768
 31
0.0
  0
LINE
  5
127
330
1F
100
AcDbEntity
  8
0
  6
CONTINUOUS
 62
     7
100
AcDbLine
 10
64.5227070909
 20
112.4710259768
 30
0.0
 11
64.5227070909
 21
120.4710259768
 31
0.0
  0
LINE
  5
128
330
1F
100
AcDbEntity
  8
0
  6
CONTINUOUS
 62
     7
100
AcDbLine
 10
43.8767262697
 20
129.5710259768
 30
0.0
 11
44.2129155301
 21
121.8710259768
 31
0.0
  0
LINE
  5
129
330
1F
100
AcDbEntity
  8
0
  6
CONTINUOUS
 62
     7
100
AcDbLine
 10
66.2324986517
 20
121.8710259768
 30
0.0
 11
44.2129155301
 21
121.8710259768
 31
0.0
  0
LINE
  5
12A
330
1F
100
AcDbEntity
  8
0
  6
CONTINUOUS
 62
     7
100
AcDbLine
 10
66.5686879121
 20
129.5710259768
 30
0.0
 11
66.2324986517
 21
121.8710259768
 31
0.0
  0
LINE
  5
12B
330
1F
100
AcDbEntity
  8
0
  6
CONTINUOUS
 62
     7
100
AcDbLine
 10
66.5227970432
 20
129.5710259768
 30
0.0
 11
66.5686879121
 21
129.5710259768
 31
0.0
  0
ARC
  5
12C
330
1F
100
AcDbEntity
  8
0
  6
CONTINUOUS
 62
     7
100
AcDbCircle
 10
62.0056412357
 20
135.6225915066
 30
0.0
 40
7.551565529761169
100
AcDbArc
 50
217.0657699744
 51
306.73928514
  0
LINE
  5
12D
330
1F
100
AcDbEntity
  8
0
  6
CONTINUOUS
 62
     7
100
AcDbLine
 10
55.97991363
 20
131.0710259768
 30
0.0
 11
54.4655005518
 21
131.0710259768
 31
0.0
  0
ARC
  5
12E
330
1F
100
AcDbEntity
  8
0
  6
CONTINUOUS
 62
     7
100
AcDbCircle
 10
48.4397729461
 20
135.6225915066
 30
0.0
 40
7.551565529761155
100
AcDbArc
 50
233.26071486
 51
322.9342300256
  0
LINE
  5
12F
330
1F
100
AcDbEntity
  8
0
  6
CONTINUOUS
 62
     7
100
AcDbLine
 10
43.8767262697
 20
129.5710259768
 30
0.0
 11
43.9226171386
 21
129.5710259768
 31
0.0
  0
ARC
  5
130
330
1F
100
AcDbEntity
  8
0
  6
CONTINUOUS
 62
     7
100
AcDbCircle
 10
66.9865333634
 20
129.9710259768
 30
0.0
 40
1.00000000000002
100
AcDbArc
 50
357.5
 51
90.0
  0
LINE
  5
131
330
1F
100
AcDbEntity
  8
0
  6
CONTINUOUS
 62
     7
100
AcDbLine
 10
67.9855815849
 20
129.9274065895
 30
0.0
 11
67.5727070909
 21
120.4710259768
 31
0.0
  0
LINE
  5
132
330
1F
100
AcDbEntity
  8
0
  6
CONTINUOUS
 62
     7
100
AcDbLine
 10
67.5727070909
 20
120.4710259768
 30
0.0
 11
42.8727070909
 21
120.4710259768
 31
0.0
  0
LINE
  5
133
330
1F
100
AcDbEntity
  8
0
  6
CONTINUOUS
 62
     7
100
AcDbLine
 10
42.4598325968
 20
129.9274065895
 30
0.0
 11
42.8727070909
 21
120.4710259768
 31
0.0
  0
ARC
  5
134
330
1F
100
AcDbEntity
  8
0
  6
CONTINUOUS
 62
     7
100
AcDbCircle
 10
43.4588808184
 20
129.9710259768
 30
0.0
 40
1.0
100
AcDbArc
 50
90.0
 51
182.5
  0
LINE
  5
135
330
1F
100
AcDbEntity
  8
0
  6
CONTINUOUS
 62
     7
100
AcDbLine
 10
43.4588808184
 20
130.9710259768
 30
0.0
 11
44.0574565963
 21
130.9710259768
 31
0.0
  0
ARC
  5
136
330
1F
100
AcDbEntity
  8
0
  6
CONTINUOUS
 62
     7
100
AcDbCircle
 10
44.0574565963
 20
129.9710259768
 30
0.0
 40
1.00000000000001
100
AcDbArc
 50
52.209414863
 51
90.0
  0
ARC
  5
137
330
1F
100
AcDbEntity
  8
0
  6
CONTINUOUS
 62
     7
100
AcDbCircle
 10
48.4397729461
 20
135.6225915066
 30
0.0
 40
6.151565529761169
100
AcDbArc
 50
232.209414863
 51
324.513478082
  0
ARC
  5
138
330
1F
100
AcDbEntity
  8
0
  6
CONTINUOUS
 62
     7
100
AcDbCircle
 10
54.2629501869
 20
131.4710259768
 30
0.0
 40
1.0
100
AcDbArc
 50
90.0
 51
144.513478082
  0
LINE
  5
139
330
1F
100
AcDbEntity
  8
0
  6
CONTINUOUS
 62
     7
100
AcDbLine
 10
56.1824639949
 20
132.4710259768
 30
0.0
 11
54.2629501869
 21
132.4710259768
 31
0.0
  0
ARC
  5
13A
330
1F
100
AcDbEntity
  8
0
  6
CONTINUOUS
 62
     7
100
AcDbCircle
 10
56.1824639949
 20
131.4710259768
 30
0.0
 40
1.000000000000016
100
AcDbArc
 50
35.486521918
 51
90.0
  0
ARC
  5
13B
330
1F
100
AcDbEntity
  8
0
  6
CONTINUOUS
 62
     7
100
AcDbCircle
 10
62.0056412357
 20
135.6225915066
 30
0.0
 40
6.151565529761201
100
AcDbArc
 50
215.486521918
 51
307.790585137
  0
ARC
  5
13C
330
1F
100
AcDbEntity
  8
0
  6
CONTINUOUS
 62
     7
100
AcDbCircle
 10
66.3879575855
 20
129.9710259768
 30
0.0
 40
1.0
100
AcDbArc
 50
90.0
 51
127.790585137
  0
LINE
  5
13D
330
1F
100
AcDbEntity
  8
0
  6
CONTINUOUS
 62
     7
100
AcDbLine
 10
66.3879575855
 20
130.9710259768
 30
0.0
 11
66.9865333634
 21
130.9710259768
 31
0.0
  0
LINE
  5
13E
330
1F
100
AcDbEntity
  8
0
  6
CONTINUOUS
 62
     7
100
AcDbLine
 10
56.6227070909
 20
119.4710259768
 30
0.0
 11
56.6227070909
 21
120.4710259768
 31
0.0
  0
LINE
  5
13F
330
1F
100
AcDbEntity
  8
0
  6
CONTINUOUS
 62
     7
100
AcDbLine
 10
56.6227070909
 20
119.4710259768
 30
0.0
 11
53.8227070909
 21
119.4710259768
 31
0.0
  0
LINE
  5
140
330
1F
100
AcDbEntity
  8
0
  6
CONTINUOUS
 62
     7
100
AcDbLine
 10
53.8227070909
 20
119.4710259768
 30
0.0
 11
53.8227070909
 21
120.4710259768
 31
0.0
  0
LINE
  5
141
330
1F
100
AcDbEntity
  8
0
  6
CONTINUOUS
 62
     7
100
AcDbLine
 10
46.5000573601
 20
111.4710259768
 30
0.0
 11
63.9453568217
 21
111.4710259768
 31
0.0
  0
LINE
  5
142
330
1F
100
AcDbEntity
  8
0
  6
CONTINUOUS
 62
     7
100
AcDbLine
 10
45.9227070909
 20
112.4710259768
 30
0.0
 11
64.5227070909
 21
112.4710259768
 31
0.0
  0
LINE
  5
143
330
1F
100
AcDbEntity
  8
0
  6
CONTINUOUS
 62
     7
100
AcDbLine
 10
56.1722419901
 20
130.8270107084
 30
0.0
 11
54.2731721917
 21
130.8270107084
 31
0.0
  0
SPLINE
  5
144
330
1F
100
AcDbEntity
  8
0
  6
CONTINUOUS
 62
     7
100
AcDbSpline
210
0.0
220
0.0
230
1.0
 70
     8
 71
     3
 72
    18
 73
    14
 74
     0
 42
0.00000001
 43
0.00000001
 40
0.0
 40
0.0
 40
0.0
 40
0.0
 40
0.2500000000000001
 40
0.2500000000000001
 40
0.375
 40
0.375
 40
0.5
 40
0.5
 40
0.7499999999999999
 40
0.7499999999999999
 40
0.875
 40
0.875
 40
1.0
 40
1.0
 40
1.0
 40
1.0
 10
59.27455168975528
 20
128.5821872680367
 30
0.0
 10
58.62996444124596
 20
128.4589019539695
 30
0.0
 10
57.96995682967438
 20
128.3605554795424
 30
0.0
 10
56.95604814810791
 20
128.2594874182391
 30
0.0
 10
56.61407581109642
 20
128.2335332074359
 30
0.0
 10
55.92174999399309
 20
128.1985316769815
 30
0.0
 10
55.57101328819896
 20
128.1896143522482
 30
0.0
 10
54.53068587696233
 20
128.1895372084841
 30
0.0
 10
53.84473501664258
 20
128.2245440611428
 30
0.0
 10
52.82685400375906
 20
128.3252952395457
 30
0.0
 10
52.48818341122372
 20
128.3670932246322
 30
0.0
 10
51.82113592927023
 20
128.4647836060153
 30
0.0
 10
51.49326911430384
 20
128.5205229987306
 30
0.0
 10
51.1708624920376
 20
128.5821872680368
 30
0.0
  0
LINE
  5
145
330
1F
100
AcDbEntity
  8
0
  6
CONTINUOUS
 62
     7
100
AcDbLine
 10
46.6227067988
 20
119.9710259531
 30
0.0
 11
46.6227067988
 21
111.4710263643
 31
0.0
  0
LINE
  5
146
330
1F
100
AcDbEntity
  8
0
  6
CONTINUOUS
 62
     7
100
AcDbLine
 10
63.822707383
 20
111.4710263643
 30
0.0
 11
63.822707383
 21
119.9710259531
 31
0.0
  0
LINE
  5
147
330
1F
100
AcDbEntity
  8
0
  6
CONTINUOUS
 62
     7
100
AcDbLine
 10
45.9227070566
 20
119.9710259531
 30
0.0
 11
45.9453614783
 21
119.9710259531
 31
0.0
  0
LINE
  5
148
330
1F
100
AcDbEntity
  8
0
  6
CONTINUOUS
 62
     7
100
AcDbLine
 10
45.9453614783
 20
119.9710259531
 30
0.0
 11
54.5750632188
 21
119.9710259531
 31
0.0
  0
LINE
  5
149
330
1F
100
AcDbEntity
  8
0
  6
CONTINUOUS
 62
     7
100
AcDbLine
 10
55.870350963
 20
119.9710259531
 30
0.0
 11
64.5227071252
 21
119.9710259531
 31
0.0
  0
SPLINE
  5
14A
330
1F
100
AcDbEntity
  8
0
  6
CONTINUOUS
 62
     7
100
AcDbSpline
210
0.0
220
0.0
230
1.0
 70
     8
 71
     3
 72
    13
 73
     9
 74
     0
 42
0.00000001
 43
0.00000001
 40
0.0
 40
0.0
 40
0.0
 40
0.0
 40
0.1738684333179223
 40
0.3693498991001524
 40
0.5690220381866218
 40
0.7715190581752086
 40
0.9749028295956067
 40
1.0
 40
1.0
 40
1.0
 40
1.0
 10
155.4214430690328
 20
82.73519944783837
 30
0.0
 10
155.3528107651677
 20
82.92761532748563
 30
0.0
 10
155.2070146938289
 20
83.3363656933616
 30
0.0
 10
154.9401996667974
 20
83.94661015496031
 30
0.0
 10
154.6295074052632
 20
84.57222961685738
 30
0.0
 10
154.2758365648749
 20
85.18545708204398
 30
0.0
 10
154.0086829165903
 20
85.6137037511064
 30
0.0
 10
153.8501067349715
 20
85.83067680799984
 30
0.0
 10
153.8326881554594
 20
85.8545099108334
 30
0.0
  0
SPLINE
  5
14B
330
1F
100
AcDbEntity
  8
0
  6
CONTINUOUS
 62
     7
100
AcDbSpline
210
0.0
220
0.0
230
1.0
 70
     8
 71
     3
 72
    14
 73
    10
 74
     0
 42
0.00000001
 43
0.00000001
 40
0.0
 40
0.0
 40
0.0
 40
0.0
 40
0.1207922245475023
 40
0.2636166685387208
 40
0.40908441039709
 40
0.5566846742073371
 40
0.7056786640201171
 40
0.8551086000623584
 40
1.0
 40
1.0
 40
1.0
 40
1.0
 10
133.5266329655198
 20
86.82915147708046
 30
0.0
 10
133.4031244268219
 20
86.6815629581051
 30
0.0
 10
133.1335796806298
 20
86.35946611923495
 30
0.0
 10
132.7517807044452
 20
85.83568863168887
 30
0.0
 10
132.3742713941571
 20
85.26024536408019
 30
0.0
 10
132.0258841223077
 20
84.65711160831776
 30
0.0
 10
131.709980262335
 20
84.02980882518592
 30
0.0
 10
131.4288005186782
 20
83.38978204908915
 30
0.0
 10
131.2723389362763
 20
82.95107182740769
 30
0.0
 10
131.1953144907491
 20
82.73509924772789
 30
0.0
  0
LINE
  5
14C
330
1F
100
AcDbEntity
  8
0
  6
CONTINUOUS
 62
     7
100
AcDbLine
 10
138.5090160762
 20
90.476022803
 30
0.0
 11
138.402412607
 21
90.4314681768
 31
0.0
  0
SPLINE
  5
14D
330
1F
100
AcDbEntity
  8
0
  6
CONTINUOUS
 62
     7
100
AcDbSpline
210
0.0
220
0.0
230
1.0
 70
     8
 71
     3
 72
    14
 73
    10
 74
     0
 42
0.00000001
 43
0.00000001
 40
0.0
 40
0.0
 40
0.0
 40
0.0
 40
0.0932227498347758
 40
0.2606432207610622
 40
0.4296206559014191
 40
0.6002885734999999
 40
0.7727171074675374
 40
0.9469100792949191
 40
1.0
 40
1.0
 40
1.0
 40
1.0
 10
142.5584771737381
 20
91.3734595697936
 30
0.0
 10
142.4336000370709
 20
91.36678328412887
 30
0.0
 10
142.0844537272049
 20
91.34811693282019
 30
0.0
 10
141.5127611793163
 20
91.27900656706565
 30
0.0
 10
140.8438111876065
 20
91.16864654626023
 30
0.0
 10
140.1765185905327
 20
91.02131530618095
 30
0.0
 10
139.5141194950256
 20
90.83568474258472
 30
0.0
 10
139.0087882400456
 20
90.67274078163153
 30
0.0
 10
138.7300788426145
 20
90.5606274058048
 30
0.0
 10
138.6649764512972
 20
90.53443938009683
 30
0.0
  0
SPLINE
  5
14E
330
1F
100
AcDbEntity
  8
0
  6
CONTINUOUS
 62
     7
100
AcDbSpline
210
0.0
220
0.0
230
1.0
 70
     8
 71
     3
 72
    11
 73
     7
 74
     0
 42
0.00000001
 43
0.00000001
 40
0.0
 40
0.0
 40
0.0
 40
0.0
 40
0.2075567080082546
 40
0.4812921263260175
 40
0.7526132694571683
 40
1.0
 40
1.0
 40
1.0
 40
1.0
 10
148.0842284571881
 20
90.48528875174625
 30
0.0
 10
147.9197300587033
 20
90.54985176813878
 30
0.0
 10
147.5382835386474
 20
90.69956348663615
 30
0.0
 10
146.9239502460756
 20
90.89165777190132
 30
0.0
 10
146.2675191459862
 20
91.0664798039382
 30
0.0
 10
145.829483412575
 20
91.15084436501041
 30
0.0
 10
145.6205715501388
 20
91.19108025499126
 30
0.0
  0
ARC
  5
14F
330
1F
100
AcDbEntity
  8
0
  6
CONTINUOUS
 62
     7
100
AcDbCircle
 10
138.8985741259
 20
89.558147436
 30
0.0
 40
1.000000000000003
100
AcDbArc
 50
111.6324507488
 51
112.9205958623
  0
ARC
  5
150
330
1F
100
AcDbEntity
  8
0
  6
CONTINUOUS
 62
     7
100
AcDbCircle
 10
147.7180929006
 20
89.558147436
 30
0.0
 40
1.000000000000009
100
AcDbArc
 50
67.0794041377
 51
68.3675492512
  0
LINE
  5
151
330
1F
100
AcDbEntity
  8
0
  6
CONTINUOUS
 62
     7
100
AcDbLine
 10
130.5445072408
 20
78.7036860059
 30
0.0
 11
130.5445072408
 21
62.6389070483
 31
0.0
  0
ARC
  5
152
330
1F
100
AcDbEntity
  8
0
  6
CONTINUOUS
 62
     7
100
AcDbCircle
 10
143.3083335133
 20
78.7036860059
 30
0.0
 40
12.76382627246756
100
AcDbArc
 50
161.6438401963
 51
180.0
  0
ARC
  5
153
330
1F
100
AcDbEntity
  8
0
  6
CONTINUOUS
 62
     7
100
AcDbCircle
 10
132.1430830187
 20
82.4083843691
 30
0.0
 40
0.9999999999999872
100
AcDbArc
 50
161.0127061738
 51
161.6438401963
  0
ARC
  5
154
330
1F
100
AcDbEntity
  8
0
  6
CONTINUOUS
 62
     7
100
AcDbCircle
 10
154.4735840078
 20
82.4083843691
 30
0.0
 40
1.00000000000001
100
AcDbArc
 50
18.3561598037
 51
18.9872938262
  0
ARC
  5
155
330
1F
100
AcDbEntity
  8
0
  6
CONTINUOUS
 62
     7
100
AcDbCircle
 10
143.3083335133
 20
78.7036860059
 30
0.0
 40
12.76382627246755
100
AcDbArc
 50
0.0
 51
18.3561598037
  0
LINE
  5
156
330
1F
100
AcDbEntity
  8
0
  6
CONTINUOUS
 62
     7
100
AcDbLine
 10
156.0721597857
 20
62.6389070483
 30
0.0
 11
156.0721597857
 21
78.7036860059
 31
0.0
  0
CIRCLE
  5
157
330
1F
100
AcDbEntity
  8
0
  6
CONTINUOUS
 62
     7
100
AcDbCircle
 10
143.3083335133
 20
78.7036860059
 30
0.0
 40
8.722649730810375
  0
CIRCLE
  5
158
330
1F
100
AcDbEntity
  8
0
  6
CONTINUOUS
 62
     7
100
AcDbCircle
 10
143.3083335133
 20
78.7036860059
 30
0.0
 40
9.299999999999997
  0
CIRCLE
  5
159
330
1F
100
AcDbEntity
  8
0
  6
CONTINUOUS
 62
     7
100
AcDbCircle
 10
143.3083335133
 20
78.7036860059
 30
0.0
 40
6.400000000000006
  0
LINE
  5
15A
330
1F
100
AcDbEntity
  8
0
  6
CONTINUOUS
 62
     7
100
AcDbLine
 10
141.9083335133
 20
69.5096662104
 30
0.0
 11
141.9083335133
 21
68.8036860059
 31
0.0
  0
LINE
  5
15B
330
1F
100
AcDbEntity
  8
0
  6
CONTINUOUS
 62
     7
100
AcDbLine
 10
144.7083335133
 20
68.8036860059
 30
0.0
 11
144.7083335133
 21
69.5096662104
 31
0.0
  0
ARC
  5
15C
330
1F
100
AcDbEntity
  8
0
  6
CONTINUOUS
 62
     7
100
AcDbCircle
 10
143.3083335133
 20
68.8036860059
 30
0.0
 40
1.400000000000034
100
AcDbArc
 50
180.0
 51
0.0
  0
LINE
  5
15D
330
1F
100
AcDbEntity
  8
0
  6
CONTINUOUS
 62
     7
100
AcDbLine
 10
141.8083335133
 20
78.2036860059
 30
0.0
 11
141.8083335133
 21
79.2036860059
 31
0.0
  0
LINE
  5
15E
330
1F
100
AcDbEntity
  8
0
  6
CONTINUOUS
 62
     7
100
AcDbLine
 10
141.8083335133
 20
79.2036860059
 30
0.0
 11
140.8083335133
 21
79.2036860059
 31
0.0
  0
LINE
  5
15F
330
1F
100
AcDbEntity
  8
0
  6
CONTINUOUS
 62
     7
100
AcDbLine
 10
140.8083335133
 20
79.2036860059
 30
0.0
 11
140.8083335133
 21
78.2036860059
 31
0.0
  0
LINE
  5
160
330
1F
100
AcDbEntity
  8
0
  6
CONTINUOUS
 62
     7
100
AcDbLine
 10
140.8083335133
 20
78.2036860059
 30
0.0
 11
141.8083335133
 21
78.2036860059
 31
0.0
  0
LINE
  5
161
330
1F
100
AcDbEntity
  8
0
  6
CONTINUOUS
 62
     7
100
AcDbLine
 10
141.8083335133
 20
76.2036860059
 30
0.0
 11
141.8083335133
 21
77.2036860059
 31
0.0
  0
LINE
  5
162
330
1F
100
AcDbEntity
  8
0
  6
CONTINUOUS
 62
     7
100
AcDbLine
 10
141.8083335133
 20
77.2036860059
 30
0.0
 11
140.8083335133
 21
77.2036860059
 31
0.0
  0
LINE
  5
163
330
1F
100
AcDbEntity
  8
0
  6
CONTINUOUS
 62
     7
100
AcDbLine
 10
140.8083335133
 20
77.2036860059
 30
0.0
 11
140.8083335133
 21
76.2036860059
 31
0.0
  0
LINE
  5
164
330
1F
100
AcDbEntity
  8
0
  6
CONTINUOUS
 62
     7
100
AcDbLine
 10
140.8083335133
 20
76.2036860059
 30
0.0
 11
141.8083335133
 21
76.2036860059
 31
0.0
  0
LINE
  5
165
330
1F
100
AcDbEntity
  8
0
  6
CONTINUOUS
 62
     7
100
AcDbLine
 10
147.8083335133
 20
75.2036860059
 30
0.0
 11
146.8083335133
 21
75.2036860059
 31
0.0
  0
LINE
  5
166
330
1F
100
AcDbEntity
  8
0
  6
CONTINUOUS
 62
     7
100
AcDbLine
 10
146.8083335133
 20
75.2036860059
 30
0.0
 11
146.8083335133
 21
74.2036860059
 31
0.0
  0
LINE
  5
167
330
1F
100
AcDbEntity
  8
0
  6
CONTINUOUS
 62
     7
100
AcDbLine
 10
146.8083335133
 20
74.2036860059
 30
0.0
 11
147.8083335133
 21
74.2036860059
 31
0.0
  0
LINE
  5
168
330
1F
100
AcDbEntity
  8
0
  6
CONTINUOUS
 62
     7
100
AcDbLine
 10
147.8083335133
 20
74.2036860059
 30
0.0
 11
147.8083335133
 21
75.2036860059
 31
0.0
  0
LINE
  5
169
330
1F
100
AcDbEntity
  8
0
  6
CONTINUOUS
 62
     7
100
AcDbLine
 10
143.8083335133
 20
74.2036860059
 30
0.0
 11
143.8083335133
 21
75.2036860059
 31
0.0
  0
LINE
  5
16A
330
1F
100
AcDbEntity
  8
0
  6
CONTINUOUS
 62
     7
100
AcDbLine
 10
143.8083335133
 20
75.2036860059
 30
0.0
 11
142.8083335133
 21
75.2036860059
 31
0.0
  0
LINE
  5
16B
330
1F
100
AcDbEntity
  8
0
  6
CONTINUOUS
 62
     7
100
AcDbLine
 10
142.8083335133
 20
75.2036860059
 30
0.0
 11
142.8083335133
 21
74.2036860059
 31
0.0
  0
LINE
  5
16C
330
1F
100
AcDbEntity
  8
0
  6
CONTINUOUS
 62
     7
100
AcDbLine
 10
142.8083335133
 20
74.2036860059
 30
0.0
 11
143.8083335133
 21
74.2036860059
 31
0.0
  0
LINE
  5
16D
330
1F
100
AcDbEntity
  8
0
  6
CONTINUOUS
 62
     7
100
AcDbLine
 10
141.8083335133
 20
74.2036860059
 30
0.0
 11
141.8083335133
 21
75.2036860059
 31
0.0
  0
LINE
  5
16E
330
1F
100
AcDbEntity
  8
0
  6
CONTINUOUS
 62
     7
100
AcDbLine
 10
141.8083335133
 20
75.2036860059
 30
0.0
 11
140.8083335133
 21
75.2036860059
 31
0.0
  0
LINE
  5
16F
330
1F
100
AcDbEntity
  8
0
  6
CONTINUOUS
 62
     7
100
AcDbLine
 10
140.8083335133
 20
75.2036860059
 30
0.0
 11
140.8083335133
 21
74.2036860059
 31
0.0
  0
LINE
  5
170
330
1F
100
AcDbEntity
  8
0
  6
CONTINUOUS
 62
     7
100
AcDbLine
 10
140.8083335133
 20
74.2036860059
 30
0.0
 11
141.8083335133
 21
74.2036860059
 31
0.0
  0
LINE
  5
171
330
1F
100
AcDbEntity
  8
0
  6
CONTINUOUS
 62
     7
100
AcDbLine
 10
144.8083335133
 20
79.2036860059
 30
0.0
 11
144.8083335133
 21
78.2036860059
 31
0.0
  0
LINE
  5
172
330
1F
100
AcDbEntity
  8
0
  6
CONTINUOUS
 62
     7
100
AcDbLine
 10
144.8083335133
 20
78.2036860059
 30
0.0
 11
145.8083335133
 21
78.2036860059
 31
0.0
  0
LINE
  5
173
330
1F
100
AcDbEntity
  8
0
  6
CONTINUOUS
 62
     7
100
AcDbLine
 10
145.8083335133
 20
78.2036860059
 30
0.0
 11
145.8083335133
 21
79.2036860059
 31
0.0
  0
LINE
  5
174
330
1F
100
AcDbEntity
  8
0
  6
CONTINUOUS
 62
     7
100
AcDbLine
 10
145.8083335133
 20
79.2036860059
 30
0.0
 11
144.8083335133
 21
79.2036860059
 31
0.0
  0
LINE
  5
175
330
1F
100
AcDbEntity
  8
0
  6
CONTINUOUS
 62
     7
100
AcDbLine
 10
146.8083335133
 20
79.2036860059
 30
0.0
 11
146.8083335133
 21
78.2036860059
 31
0.0
  0
LINE
  5
176
330
1F
100
AcDbEntity
  8
0
  6
CONTINUOUS
 62
     7
100
AcDbLine
 10
146.8083335133
 20
78.2036860059
 30
0.0
 11
147.8083335133
 21
78.2036860059
 31
0.0
  0
LINE
  5
177
330
1F
100
AcDbEntity
  8
0
  6
CONTINUOUS
 62
     7
100
AcDbLine
 10
147.8083335133
 20
78.2036860059
 30
0.0
 11
147.8083335133
 21
79.2036860059
 31
0.0
  0
LINE
  5
178
330
1F
100
AcDbEntity
  8
0
  6
CONTINUOUS
 62
     7
100
AcDbLine
 10
147.8083335133
 20
79.2036860059
 30
0.0
 11
146.8083335133
 21
79.2036860059
 31
0.0
  0
LINE
  5
179
330
1F
100
AcDbEntity
  8
0
  6
CONTINUOUS
 62
     7
100
AcDbLine
 10
145.8083335133
 20
75.2036860059
 30
0.0
 11
144.8083335133
 21
75.2036860059
 31
0.0
  0
LINE
  5
17A
330
1F
100
AcDbEntity
  8
0
  6
CONTINUOUS
 62
     7
100
AcDbLine
 10
144.8083335133
 20
75.2036860059
 30
0.0
 11
144.8083335133
 21
74.2036860059
 31
0.0
  0
LINE
  5
17B
330
1F
100
AcDbEntity
  8
0
  6
CONTINUOUS
 62
     7
100
AcDbLine
 10
144.8083335133
 20
74.2036860059
 30
0.0
 11
145.8083335133
 21
74.2036860059
 31
0.0
  0
LINE
  5
17C
330
1F
100
AcDbEntity
  8
0
  6
CONTINUOUS
 62
     7
100
AcDbLine
 10
145.8083335133
 20
74.2036860059
 30
0.0
 11
145.8083335133
 21
75.2036860059
 31
0.0
  0
LINE
  5
17D
330
1F
100
AcDbEntity
  8
0
  6
CONTINUOUS
 62
     7
100
AcDbLine
 10
147.8083335133
 20
77.2036860059
 30
0.0
 11
146.8083335133
 21
77.2036860059
 31
0.0
  0
LINE
  5
17E
330
1F
100
AcDbEntity
  8
0
  6
CONTINUOUS
 62
     7
100
AcDbLine
 10
146.8083335133
 20
77.2036860059
 30
0.0
 11
146.8083335133
 21
76.2036860059
 31
0.0
  0
LINE
  5
17F
330
1F
100
AcDbEntity
  8
0
  6
CONTINUOUS
 62
     7
100
AcDbLine
 10
146.8083335133
 20
76.2036860059
 30
0.0
 11
147.8083335133
 21
76.2036860059
 31
0.0
  0
LINE
  5
180
330
1F
100
AcDbEntity
  8
0
  6
CONTINUOUS
 62
     7
100
AcDbLine
 10
147.8083335133
 20
76.2036860059
 30
0.0
 11
147.8083335133
 21
77.2036860059
 31
0.0
  0
LINE
  5
181
330
1F
100
AcDbEntity
  8
0
  6
CONTINUOUS
 62
     7
100
AcDbLine
 10
145.8083335133
 20
77.2036860059
 30
0.0
 11
144.8083335133
 21
77.2036860059
 31
0.0
  0
LINE
  5
182
330
1F
100
AcDbEntity
  8
0
  6
CONTINUOUS
 62
     7
100
AcDbLine
 10
144.8083335133
 20
77.2036860059
 30
0.0
 11
144.8083335133
 21
76.2036860059
 31
0.0
  0
LINE
  5
183
330
1F
100
AcDbEntity
  8
0
  6
CONTINUOUS
 62
     7
100
AcDbLine
 10
144.8083335133
 20
76.2036860059
 30
0.0
 11
145.8083335133
 21
76.2036860059
 31
0.0
  0
LINE
  5
184
330
1F
100
AcDbEntity
  8
0
  6
CONTINUOUS
 62
     7
100
AcDbLine
 10
145.8083335133
 20
76.2036860059
 30
0.0
 11
145.8083335133
 21
77.2036860059
 31
0.0
  0
LINE
  5
185
330
1F
100
AcDbEntity
  8
0
  6
CONTINUOUS
 62
     7
100
AcDbLine
 10
143.8083335133
 20
79.2036860059
 30
0.0
 11
142.8083335133
 21
79.2036860059
 31
0.0
  0
LINE
  5
186
330
1F
100
AcDbEntity
  8
0
  6
CONTINUOUS
 62
     7
100
AcDbLine
 10
142.8083335133
 20
79.2036860059
 30
0.0
 11
142.8083335133
 21
78.2036860059
 31
0.0
  0
LINE
  5
187
330
1F
100
AcDbEntity
  8
0
  6
CONTINUOUS
 62
     7
100
AcDbLine
 10
142.8083335133
 20
78.2036860059
 30
0.0
 11
143.8083335133
 21
78.2036860059
 31
0.0
  0
LINE
  5
188
330
1F
100
AcDbEntity
  8
0
  6
CONTINUOUS
 62
     7
100
AcDbLine
 10
143.8083335133
 20
78.2036860059
 30
0.0
 11
143.8083335133
 21
79.2036860059
 31
0.0
  0
LINE
  5
189
330
1F
100
AcDbEntity
  8
0
  6
CONTINUOUS
 62
     7
100
AcDbLine
 10
142.8083335133
 20
77.2036860059
 30
0.0
 11
142.8083335133
 21
76.2036860059
 31
0.0
  0
LINE
  5
18A
330
1F
100
AcDbEntity
  8
0
  6
CONTINUOUS
 62
     7
100
AcDbLine
 10
142.8083335133
 20
76.2036860059
 30
0.0
 11
143.8083335133
 21
76.2036860059
 31
0.0
  0
LINE
  5
18B
330
1F
100
AcDbEntity
  8
0
  6
CONTINUOUS
 62
     7
100
AcDbLine
 10
143.8083335133
 20
76.2036860059
 30
0.0
 11
143.8083335133
 21
77.2036860059
 31
0.0
  0
LINE
  5
18C
330
1F
100
AcDbEntity
  8
0
  6
CONTINUOUS
 62
     7
100
AcDbLine
 10
143.8083335133
 20
77.2036860059
 30
0.0
 11
142.8083335133
 21
77.2036860059
 31
0.0
  0
LINE
  5
18D
330
1F
100
AcDbEntity
  8
0
  6
CONTINUOUS
 62
     7
100
AcDbLine
 10
139.8083335133
 20
76.2036860059
 30
0.0
 11
139.8083335133
 21
77.2036860059
 31
0.0
  0
LINE
  5
18E
330
1F
100
AcDbEntity
  8
0
  6
CONTINUOUS
 62
     7
100
AcDbLine
 10
139.8083335133
 20
77.2036860059
 30
0.0
 11
138.8083335133
 21
77.2036860059
 31
0.0
  0
LINE
  5
18F
330
1F
100
AcDbEntity
  8
0
  6
CONTINUOUS
 62
     7
100
AcDbLine
 10
138.8083335133
 20
77.2036860059
 30
0.0
 11
138.8083335133
 21
76.2036860059
 31
0.0
  0
LINE
  5
190
330
1F
100
AcDbEntity
  8
0
  6
CONTINUOUS
 62
     7
100
AcDbLine
 10
138.8083335133
 20
76.2036860059
 30
0.0
 11
139.8083335133
 21
76.2036860059
 31
0.0
  0
LINE
  5
191
330
1F
100
AcDbEntity
  8
0
  6
CONTINUOUS
 62
     7
100
AcDbLine
 10
138.8083335133
 20
80.2036860059
 30
0.0
 11
139.8083335133
 21
80.2036860059
 31
0.0
  0
LINE
  5
192
330
1F
100
AcDbEntity
  8
0
  6
CONTINUOUS
 62
     7
100
AcDbLine
 10
139.8083335133
 20
80.2036860059
 30
0.0
 11
139.8083335133
 21
81.2036860059
 31
0.0
  0
LINE
  5
193
330
1F
100
AcDbEntity
  8
0
  6
CONTINUOUS
 62
     7
100
AcDbLine
 10
139.8083335133
 20
81.2036860059
 30
0.0
 11
138.8083335133
 21
81.2036860059
 31
0.0
  0
LINE
  5
194
330
1F
100
AcDbEntity
  8
0
  6
CONTINUOUS
 62
     7
100
AcDbLine
 10
138.8083335133
 20
81.2036860059
 30
0.0
 11
138.8083335133
 21
80.2036860059
 31
0.0
  0
LINE
  5
195
330
1F
100
AcDbEntity
  8
0
  6
CONTINUOUS
 62
     7
100
AcDbLine
 10
139.8083335133
 20
78.2036860059
 30
0.0
 11
139.8083335133
 21
79.2036860059
 31
0.0
  0
LINE
  5
196
330
1F
100
AcDbEntity
  8
0
  6
CONTINUOUS
 62
     7
100
AcDbLine
 10
139.8083335133
 20
79.2036860059
 30
0.0
 11
138.8083335133
 21
79.2036860059
 31
0.0
  0
LINE
  5
197
330
1F
100
AcDbEntity
  8
0
  6
CONTINUOUS
 62
     7
100
AcDbLine
 10
138.8083335133
 20
79.2036860059
 30
0.0
 11
138.8083335133
 21
78.2036860059
 31
0.0
  0
LINE
  5
198
330
1F
100
AcDbEntity
  8
0
  6
CONTINUOUS
 62
     7
100
AcDbLine
 10
138.8083335133
 20
78.2036860059
 30
0.0
 11
139.8083335133
 21
78.2036860059
 31
0.0
  0
LINE
  5
199
330
1F
100
AcDbEntity
  8
0
  6
CONTINUOUS
 62
     7
100
AcDbLine
 10
139.8083335133
 20
74.2036860059
 30
0.0
 11
139.8083335133
 21
75.2036860059
 31
0.0
  0
LINE
  5
19A
330
1F
100
AcDbEntity
  8
0
  6
CONTINUOUS
 62
     7
100
AcDbLine
 10
139.8083335133
 20
75.2036860059
 30
0.0
 11
138.8083335133
 21
75.2036860059
 31
0.0
  0
LINE
  5
19B
330
1F
100
AcDbEntity
  8
0
  6
CONTINUOUS
 62
     7
100
AcDbLine
 10
138.8083335133
 20
75.2036860059
 30
0.0
 11
138.8083335133
 21
74.2036860059
 31
0.0
  0
LINE
  5
19C
330
1F
100
AcDbEntity
  8
0
  6
CONTINUOUS
 62
     7
100
AcDbLine
 10
138.8083335133
 20
74.2036860059
 30
0.0
 11
139.8083335133
 21
74.2036860059
 31
0.0
  0
LINE
  5
19D
330
1F
100
AcDbEntity
  8
0
  6
CONTINUOUS
 62
     7
100
AcDbLine
 10
144.8083335133
 20
84.925422098
 30
0.0
 11
144.8083335133
 21
84.2036860059
 31
0.0
  0
LINE
  5
19E
330
1F
100
AcDbEntity
  8
0
  6
CONTINUOUS
 62
     7
100
AcDbLine
 10
144.8083335133
 20
84.2036860059
 30
0.0
 11
145.8083335133
 21
84.2036860059
 31
0.0
  0
LINE
  5
19F
330
1F
100
AcDbEntity
  8
0
  6
CONTINUOUS
 62
     7
100
AcDbLine
 10
145.8083335133
 20
84.2036860059
 30
0.0
 11
145.8083335133
 21
84.5952053346
 31
0.0
  0
LINE
  5
1A0
330
1F
100
AcDbEntity
  8
0
  6
CONTINUOUS
 62
     7
100
AcDbLine
 10
149.1998528419
 20
81.2036860059
 30
0.0
 11
148.8083335133
 21
81.2036860059
 31
0.0
  0
LINE
  5
1A1
330
1F
100
AcDbEntity
  8
0
  6
CONTINUOUS
 62
     7
100
AcDbLine
 10
148.8083335133
 20
81.2036860059
 30
0.0
 11
148.8083335133
 21
80.2036860059
 31
0.0
  0
LINE
  5
1A2
330
1F
100
AcDbEntity
  8
0
  6
CONTINUOUS
 62
     7
100
AcDbLine
 10
148.8083335133
 20
80.2036860059
 30
0.0
 11
149.5300696054
 21
80.2036860059
 31
0.0
  0
LINE
  5
1A3
330
1F
100
AcDbEntity
  8
0
  6
CONTINUOUS
 62
     7
100
AcDbLine
 10
149.6887723696
 20
79.2036860059
 30
0.0
 11
148.8083335133
 21
79.2036860059
 31
0.0
  0
LINE
  5
1A4
330
1F
100
AcDbEntity
  8
0
  6
CONTINUOUS
 62
     7
100
AcDbLine
 10
148.8083335133
 20
79.2036860059
 30
0.0
 11
148.8083335133
 21
78.2036860059
 31
0.0
  0
LINE
  5
1A5
330
1F
100
AcDbEntity
  8
0
  6
CONTINUOUS
 62
     7
100
AcDbLine
 10
148.8083335133
 20
78.2036860059
 30
0.0
 11
149.6887723696
 21
78.2036860059
 31
0.0
  0
LINE
  5
1A6
330
1F
100
AcDbEntity
  8
0
  6
CONTINUOUS
 62
     7
100
AcDbLine
 10
149.5300696054
 20
77.2036860059
 30
0.0
 11
148.8083335133
 21
77.2036860059
 31
0.0
  0
LINE
  5
1A7
330
1F
100
AcDbEntity
  8
0
  6
CONTINUOUS
 62
     7
100
AcDbLine
 10
148.8083335133
 20
77.2036860059
 30
0.0
 11
148.8083335133
 21
76.2036860059
 31
0.0
  0
LINE
  5
1A8
330
1F
100
AcDbEntity
  8
0
  6
CONTINUOUS
 62
     7
100
AcDbLine
 10
148.8083335133
 20
76.2036860059
 30
0.0
 11
149.1998528419
 21
76.2036860059
 31
0.0
  0
LINE
  5
1A9
330
1F
100
AcDbEntity
  8
0
  6
CONTINUOUS
 62
     7
100
AcDbLine
 10
145.8083335133
 20
72.8121666772
 30
0.0
 11
145.8083335133
 21
73.2036860059
 31
0.0
  0
LINE
  5
1AA
330
1F
100
AcDbEntity
  8
0
  6
CONTINUOUS
 62
     7
100
AcDbLine
 10
145.8083335133
 20
73.2036860059
 30
0.0
 11
144.8083335133
 21
73.2036860059
 31
0.0
  0
LINE
  5
1AB
330
1F
100
AcDbEntity
  8
0
  6
CONTINUOUS
 62
     7
100
AcDbLine
 10
144.8083335133
 20
73.2036860059
 30
0.0
 11
144.8083335133
 21
72.4819499138
 31
0.0
  0
LINE
  5
1AC
330
1F
100
AcDbEntity
  8
0
  6
CONTINUOUS
 62
     7
100
AcDbLine
 10
143.8083335133
 20
72.3232471495
 30
0.0
 11
143.8083335133
 21
73.2036860059
 31
0.0
  0
LINE
  5
1AD
330
1F
100
AcDbEntity
  8
0
  6
CONTINUOUS
 62
     7
100
AcDbLine
 10
143.8083335133
 20
73.2036860059
 30
0.0
 11
142.8083335133
 21
73.2036860059
 31
0.0
  0
LINE
  5
1AE
330
1F
100
AcDbEntity
  8
0
  6
CONTINUOUS
 62
     7
100
AcDbLine
 10
142.8083335133
 20
73.2036860059
 30
0.0
 11
142.8083335133
 21
72.3232471495
 31
0.0
  0
LINE
  5
1AF
330
1F
100
AcDbEntity
  8
0
  6
CONTINUOUS
 62
     7
100
AcDbLine
 10
141.8083335133
 20
72.4819499138
 30
0.0
 11
141.8083335133
 21
73.2036860059
 31
0.0
  0
LINE
  5
1B0
330
1F
100
AcDbEntity
  8
0
  6
CONTINUOUS
 62
     7
100
AcDbLine
 10
141.8083335133
 20
73.2036860059
 30
0.0
 11
140.8083335133
 21
73.2036860059
 31
0.0
  0
LINE
  5
1B1
330
1F
100
AcDbEntity
  8
0
  6
CONTINUOUS
 62
     7
100
AcDbLine
 10
140.8083335133
 20
73.2036860059
 30
0.0
 11
140.8083335133
 21
72.8121666772
 31
0.0
  0
LINE
  5
1B2
330
1F
100
AcDbEntity
  8
0
  6
CONTINUOUS
 62
     7
100
AcDbLine
 10
137.4168141846
 20
76.2036860059
 30
0.0
 11
137.8083335133
 21
76.2036860059
 31
0.0
  0
LINE
  5
1B3
330
1F
100
AcDbEntity
  8
0
  6
CONTINUOUS
 62
     7
100
AcDbLine
 10
137.8083335133
 20
76.2036860059
 30
0.0
 11
137.8083335133
 21
77.2036860059
 31
0.0
  0
LINE
  5
1B4
330
1F
100
AcDbEntity
  8
0
  6
CONTINUOUS
 62
     7
100
AcDbLine
 10
137.8083335133
 20
77.2036860059
 30
0.0
 11
137.0865974211
 21
77.2036860059
 31
0.0
  0
LINE
  5
1B5
330
1F
100
AcDbEntity
  8
0
  6
CONTINUOUS
 62
     7
100
AcDbLine
 10
136.9278946569
 20
78.2036860059
 30
0.0
 11
137.8083335133
 21
78.2036860059
 31
0.0
  0
LINE
  5
1B6
330
1F
100
AcDbEntity
  8
0
  6
CONTINUOUS
 62
     7
100
AcDbLine
 10
137.8083335133
 20
78.2036860059
 30
0.0
 11
137.8083335133
 21
79.2036860059
 31
0.0
  0
LINE
  5
1B7
330
1F
100
AcDbEntity
  8
0
  6
CONTINUOUS
 62
     7
100
AcDbLine
 10
137.8083335133
 20
79.2036860059
 30
0.0
 11
136.9278946569
 21
79.2036860059
 31
0.0
  0
LINE
  5
1B8
330
1F
100
AcDbEntity
  8
0
  6
CONTINUOUS
 62
     7
100
AcDbLine
 10
137.0865974211
 20
80.2036860059
 30
0.0
 11
137.8083335133
 21
80.2036860059
 31
0.0
  0
LINE
  5
1B9
330
1F
100
AcDbEntity
  8
0
  6
CONTINUOUS
 62
     7
100
AcDbLine
 10
137.8083335133
 20
80.2036860059
 30
0.0
 11
137.8083335133
 21
81.2036860059
 31
0.0
  0
LINE
  5
1BA
330
1F
100
AcDbEntity
  8
0
  6
CONTINUOUS
 62
     7
100
AcDbLine
 10
137.8083335133
 20
81.2036860059
 30
0.0
 11
137.4168141846
 21
81.2036860059
 31
0.0
  0
LINE
  5
1BB
330
1F
100
AcDbEntity
  8
0
  6
CONTINUOUS
 62
     7
100
AcDbLine
 10
140.8083335133
 20
84.5952053346
 30
0.0
 11
140.8083335133
 21
84.2036860059
 31
0.0
  0
LINE
  5
1BC
330
1F
100
AcDbEntity
  8
0
  6
CONTINUOUS
 62
     7
100
AcDbLine
 10
140.8083335133
 20
84.2036860059
 30
0.0
 11
141.8083335133
 21
84.2036860059
 31
0.0
  0
LINE
  5
1BD
330
1F
100
AcDbEntity
  8
0
  6
CONTINUOUS
 62
     7
100
AcDbLine
 10
141.8083335133
 20
84.2036860059
 30
0.0
 11
141.8083335133
 21
84.925422098
 31
0.0
  0
LINE
  5
1BE
330
1F
100
AcDbEntity
  8
0
  6
CONTINUOUS
 62
     7
100
AcDbLine
 10
142.8083335133
 20
85.0841248623
 30
0.0
 11
142.8083335133
 21
84.2036860059
 31
0.0
  0
LINE
  5
1BF
330
1F
100
AcDbEntity
  8
0
  6
CONTINUOUS
 62
     7
100
AcDbLine
 10
142.8083335133
 20
84.2036860059
 30
0.0
 11
143.8083335133
 21
84.2036860059
 31
0.0
  0
LINE
  5
1C0
330
1F
100
AcDbEntity
  8
0
  6
CONTINUOUS
 62
     7
100
AcDbLine
 10
143.8083335133
 20
84.2036860059
 30
0.0
 11
143.8083335133
 21
85.0841248623
 31
0.0
  0
LINE
  5
1C1
330
1F
100
AcDbEntity
  8
0
  6
CONTINUOUS
 62
     7
100
AcDbLine
 10
138.8083335133
 20
82.2036860059
 30
0.0
 11
139.8083335133
 21
82.2036860059
 31
0.0
  0
LINE
  5
1C2
330
1F
100
AcDbEntity
  8
0
  6
CONTINUOUS
 62
     7
100
AcDbLine
 10
139.8083335133
 20
82.2036860059
 30
0.0
 11
139.8083335133
 21
83.2036860059
 31
0.0
  0
LINE
  5
1C3
330
1F
100
AcDbEntity
  8
0
  6
CONTINUOUS
 62
     7
100
AcDbLine
 10
139.8083335133
 20
83.2036860059
 30
0.0
 11
138.8083335133
 21
83.2036860059
 31
0.0
  0
LINE
  5
1C4
330
1F
100
AcDbEntity
  8
0
  6
CONTINUOUS
 62
     7
100
AcDbLine
 10
138.8083335133
 20
83.2036860059
 30
0.0
 11
138.8083335133
 21
82.2036860059
 31
0.0
  0
LINE
  5
1C5
330
1F
100
AcDbEntity
  8
0
  6
CONTINUOUS
 62
     7
100
AcDbLine
 10
140.8083335133
 20
80.2036860059
 30
0.0
 11
141.8083335133
 21
80.2036860059
 31
0.0
  0
LINE
  5
1C6
330
1F
100
AcDbEntity
  8
0
  6
CONTINUOUS
 62
     7
100
AcDbLine
 10
141.8083335133
 20
80.2036860059
 30
0.0
 11
141.8083335133
 21
81.2036860059
 31
0.0
  0
LINE
  5
1C7
330
1F
100
AcDbEntity
  8
0
  6
CONTINUOUS
 62
     7
100
AcDbLine
 10
141.8083335133
 20
81.2036860059
 30
0.0
 11
140.8083335133
 21
81.2036860059
 31
0.0
  0
LINE
  5
1C8
330
1F
100
AcDbEntity
  8
0
  6
CONTINUOUS
 62
     7
100
AcDbLine
 10
140.8083335133
 20
81.2036860059
 30
0.0
 11
140.8083335133
 21
80.2036860059
 31
0.0
  0
LINE
  5
1C9
330
1F
100
AcDbEntity
  8
0
  6
CONTINUOUS
 62
     7
100
AcDbLine
 10
142.8083335133
 20
81.2036860059
 30
0.0
 11
142.8083335133
 21
80.2036860059
 31
0.0
  0
LINE
  5
1CA
330
1F
100
AcDbEntity
  8
0
  6
CONTINUOUS
 62
     7
100
AcDbLine
 10
142.8083335133
 20
80.2036860059
 30
0.0
 11
143.8083335133
 21
80.2036860059
 31
0.0
  0
LINE
  5
1CB
330
1F
100
AcDbEntity
  8
0
  6
CONTINUOUS
 62
     7
100
AcDbLine
 10
143.8083335133
 20
80.2036860059
 30
0.0
 11
143.8083335133
 21
81.2036860059
 31
0.0
  0
LINE
  5
1CC
330
1F
100
AcDbEntity
  8
0
  6
CONTINUOUS
 62
     7
100
AcDbLine
 10
143.8083335133
 20
81.2036860059
 30
0.0
 11
142.8083335133
 21
81.2036860059
 31
0.0
  0
LINE
  5
1CD
330
1F
100
AcDbEntity
  8
0
  6
CONTINUOUS
 62
     7
100
AcDbLine
 10
140.8083335133
 20
82.2036860059
 30
0.0
 11
141.8083335133
 21
82.2036860059
 31
0.0
  0
LINE
  5
1CE
330
1F
100
AcDbEntity
  8
0
  6
CONTINUOUS
 62
     7
100
AcDbLine
 10
141.8083335133
 20
82.2036860059
 30
0.0
 11
141.8083335133
 21
83.2036860059
 31
0.0
  0
LINE
  5
1CF
330
1F
100
AcDbEntity
  8
0
  6
CONTINUOUS
 62
     7
100
AcDbLine
 10
141.8083335133
 20
83.2036860059
 30
0.0
 11
140.8083335133
 21
83.2036860059
 31
0.0
  0
LINE
  5
1D0
330
1F
100
AcDbEntity
  8
0
  6
CONTINUOUS
 62
     7
100
AcDbLine
 10
140.8083335133
 20
83.2036860059
 30
0.0
 11
140.8083335133
 21
82.2036860059
 31
0.0
  0
LINE
  5
1D1
330
1F
100
AcDbEntity
  8
0
  6
CONTINUOUS
 62
     7
100
AcDbLine
 10
142.8083335133
 20
83.2036860059
 30
0.0
 11
142.8083335133
 21
82.2036860059
 31
0.0
  0
LINE
  5
1D2
330
1F
100
AcDbEntity
  8
0
  6
CONTINUOUS
 62
     7
100
AcDbLine
 10
142.8083335133
 20
82.2036860059
 30
0.0
 11
143.8083335133
 21
82.2036860059
 31
0.0
  0
LINE
  5
1D3
330
1F
100
AcDbEntity
  8
0
  6
CONTINUOUS
 62
     7
100
AcDbLine
 10
143.8083335133
 20
82.2036860059
 30
0.0
 11
143.8083335133
 21
83.2036860059
 31
0.0
  0
LINE
  5
1D4
330
1F
100
AcDbEntity
  8
0
  6
CONTINUOUS
 62
     7
100
AcDbLine
 10
143.8083335133
 20
83.2036860059
 30
0.0
 11
142.8083335133
 21
83.2036860059
 31
0.0
  0
LINE
  5
1D5
330
1F
100
AcDbEntity
  8
0
  6
CONTINUOUS
 62
     7
100
AcDbLine
 10
144.8083335133
 20
83.2036860059
 30
0.0
 11
144.8083335133
 21
82.2036860059
 31
0.0
  0
LINE
  5
1D6
330
1F
100
AcDbEntity
  8
0
  6
CONTINUOUS
 62
     7
100
AcDbLine
 10
144.8083335133
 20
82.2036860059
 30
0.0
 11
145.8083335133
 21
82.2036860059
 31
0.0
  0
LINE
  5
1D7
330
1F
100
AcDbEntity
  8
0
  6
CONTINUOUS
 62
     7
100
AcDbLine
 10
145.8083335133
 20
82.2036860059
 30
0.0
 11
145.8083335133
 21
83.2036860059
 31
0.0
  0
LINE
  5
1D8
330
1F
100
AcDbEntity
  8
0
  6
CONTINUOUS
 62
     7
100
AcDbLine
 10
145.8083335133
 20
83.2036860059
 30
0.0
 11
144.8083335133
 21
83.2036860059
 31
0.0
  0
LINE
  5
1D9
330
1F
100
AcDbEntity
  8
0
  6
CONTINUOUS
 62
     7
100
AcDbLine
 10
144.8083335133
 20
81.2036860059
 30
0.0
 11
144.8083335133
 21
80.2036860059
 31
0.0
  0
LINE
  5
1DA
330
1F
100
AcDbEntity
  8
0
  6
CONTINUOUS
 62
     7
100
AcDbLine
 10
144.8083335133
 20
80.2036860059
 30
0.0
 11
145.8083335133
 21
80.2036860059
 31
0.0
  0
LINE
  5
1DB
330
1F
100
AcDbEntity
  8
0
  6
CONTINUOUS
 62
     7
100
AcDbLine
 10
145.8083335133
 20
80.2036860059
 30
0.0
 11
145.8083335133
 21
81.2036860059
 31
0.0
  0
LINE
  5
1DC
330
1F
100
AcDbEntity
  8
0
  6
CONTINUOUS
 62
     7
100
AcDbLine
 10
145.8083335133
 20
81.2036860059
 30
0.0
 11
144.8083335133
 21
81.2036860059
 31
0.0
  0
LINE
  5
1DD
330
1F
100
AcDbEntity
  8
0
  6
CONTINUOUS
 62
     7
100
AcDbLine
 10
146.8083335133
 20
81.2036860059
 30
0.0
 11
146.8083335133
 21
80.2036860059
 31
0.0
  0
LINE
  5
1DE
330
1F
100
AcDbEntity
  8
0
  6
CONTINUOUS
 62
     7
100
AcDbLine
 10
146.8083335133
 20
80.2036860059
 30
0.0
 11
147.8083335133
 21
80.2036860059
 31
0.0
  0
LINE
  5
1DF
330
1F
100
AcDbEntity
  8
0
  6
CONTINUOUS
 62
     7
100
AcDbLine
 10
147.8083335133
 20
80.2036860059
 30
0.0
 11
147.8083335133
 21
81.2036860059
 31
0.0
  0
LINE
  5
1E0
330
1F
100
AcDbEntity
  8
0
  6
CONTINUOUS
 62
     7
100
AcDbLine
 10
147.8083335133
 20
81.2036860059
 30
0.0
 11
146.8083335133
 21
81.2036860059
 31
0.0
  0
LINE
  5
1E1
330
1F
100
AcDbEntity
  8
0
  6
CONTINUOUS
 62
     7
100
AcDbLine
 10
146.8083335133
 20
83.2036860059
 30
0.0
 11
146.8083335133
 21
82.2036860059
 31
0.0
  0
LINE
  5
1E2
330
1F
100
AcDbEntity
  8
0
  6
CONTINUOUS
 62
     7
100
AcDbLine
 10
146.8083335133
 20
82.2036860059
 30
0.0
 11
147.8083335133
 21
82.2036860059
 31
0.0
  0
LINE
  5
1E3
330
1F
100
AcDbEntity
  8
0
  6
CONTINUOUS
 62
     7
100
AcDbLine
 10
147.8083335133
 20
82.2036860059
 30
0.0
 11
147.8083335133
 21
83.2036860059
 31
0.0
  0
LINE
  5
1E4
330
1F
100
AcDbEntity
  8
0
  6
CONTINUOUS
 62
     7
100
AcDbLine
 10
147.8083335133
 20
83.2036860059
 30
0.0
 11
146.8083335133
 21
83.2036860059
 31
0.0
  0
ARC
  5
1E5
330
1F
100
AcDbEntity
  8
0
  6
CONTINUOUS
 62
     7
100
AcDbCircle
 10
143.3083335133
 20
78.7036860059
 30
0.0
 40
12.35000000000002
100
AcDbArc
 50
0.0
 51
180.0
  0
LINE
  5
1E6
330
1F
100
AcDbEntity
  8
0
  6
CONTINUOUS
 62
     7
100
AcDbLine
 10
130.5454590192
 20
78.7036860059
 30
0.0
 11
130.9583335133
 21
78.7036860059
 31
0.0
  0
ARC
  5
1E7
330
1F
100
AcDbEntity
  8
0
  6
CONTINUOUS
 62
     7
100
AcDbCircle
 10
143.3083335133
 20
78.7036860059
 30
0.0
 40
12.76287449404944
100
AcDbArc
 50
161.6438401963
 51
180.0
  0
SPLINE
  5
1E8
330
1F
100
AcDbEntity
  8
0
  6
CONTINUOUS
 62
     7
100
AcDbSpline
210
0.0
220
0.0
230
1.0
 70
     8
 71
     3
 72
    17
 73
    13
 74
     0
 42
0.00000001
 43
0.00000001
 40
0.0
 40
0.0
 40
0.0
 40
0.0
 40
0.0196060383007046
 40
0.112993349638793
 40
0.2269456043743063
 40
0.3437131158794318
 40
0.4613623206133639
 40
0.5743162767509943
 40
0.6879037333672093
 40
0.8032615904436492
 40
0.9191485322936179
 40
1.0
 40
1.0
 40
1.0
 40
1.0
 10
138.5225454671524
 20
90.4837282249828
 30
0.0
 10
138.486101337998
 20
90.46722463370304
 30
0.0
 10
138.276066849405
 20
90.37211127978784
 30
0.0
 10
137.8533764346534
 20
90.18912434588998
 30
0.0
 10
137.255041498641
 20
89.8767662450152
 30
0.0
 10
136.6243142288532
 20
89.50910104078085
 30
0.0
 10
136.0140206509439
 20
89.1049170337742
 30
0.0
 10
135.4322335322041
 20
88.67208978776819
 30
0.0
 10
134.8792269881585
 20
88.2129527026967
 30
0.0
 10
134.3521812000542
 20
87.72069727021803
 30
0.0
 10
133.8953873495273
 20
87.25716819039268
 30
0.0
 10
133.6378822994398
 20
86.9430631179544
 30
0.0
 10
133.5320582191886
 20
86.81397873540844
 30
0.0
  0
SPLINE
  5
1E9
330
1F
100
AcDbEntity
  8
0
  6
CONTINUOUS
 62
     7
100
AcDbSpline
210
0.0
220
0.0
230
1.0
 70
     8
 71
     3
 72
    11
 73
     7
 74
     0
 42
0.00000001
 43
0.00000001
 40
0.0
 40
0.0
 40
0.0
 40
0.0
 40
0.1206584595575781
 40
0.4490766115318882
 40
0.7664524827422786
 40
0.9999999999999999
 40
0.9999999999999999
 40
0.9999999999999999
 40
0.9999999999999999
 10
145.6230287078087
 20
91.18156995169045
 30
0.0
 10
145.5020393865706
 20
91.20594095009126
 30
0.0
 10
145.0517313467333
 20
91.29664694303706
 30
0.0
 10
144.2667068566027
 20
91.37129565625887
 30
0.0
 10
143.3629570890098
 20
91.41371029009349
 30
0.0
 10
142.7974278338958
 20
91.38273736396121
 30
0.0
 10
142.5576885956766
 20
91.36960731693142
 30
0.0
  0
SPLINE
  5
1EA
330
1F
100
AcDbEntity
  8
0
  6
CONTINUOUS
 62
     7
100
AcDbSpline
210
0.0
220
0.0
230
1.0
 70
     8
 71
     3
 72
    17
 73
    13
 74
     0
 42
0.00000001
 43
0.00000001
 40
0.0
 40
0.0
 40
0.0
 40
0.0
 40
0.1196968981174972
 40
0.2325431823521604
 40
0.3459967423659426
 40
0.4615827105761643
 40
0.5780373585148988
 40
0.682100787572805
 40
0.7861476693616253
 40
0.8920413355580373
 40
0.9702458541420563
 40
1.0
 40
1.0
 40
1.0
 40
1.0
 10
153.8321142480586
 20
85.84213130926751
 30
0.0
 10
153.6624843958795
 20
86.08273563662335
 30
0.0
 10
153.3329331187117
 20
86.55017378122844
 30
0.0
 10
152.7707664343844
 20
87.19968037630963
 30
0.0
 10
152.1769726812207
 20
87.81233325057669
 30
0.0
 10
151.5318957656993
 20
88.3933658019584
 30
0.0
 10
150.8654828192092
 20
88.91828229782672
 30
0.0
 10
150.1904339308424
 20
89.38436354207467
 30
0.0
 10
149.5140619163811
 20
89.79285589182102
 30
0.0
 10
148.8783180538437
 20
90.13454856077682
 30
0.0
 10
148.400831210794
 20
90.343211630741
 30
0.0
 10
148.1603890597089
 20
90.45336829527525
 30
0.0
 10
148.0941215593581
 20
90.4837282249828
 30
0.0
  0
ARC
  5
1EB
330
1F
100
AcDbEntity
  8
0
  6
CONTINUOUS
 62
     7
100
AcDbCircle
 10
143.3083335133
 20
78.7036860059
 30
0.0
 40
12.76287449404941
100
AcDbArc
 50
0.0
 51
18.3561598037
  0
LINE
  5
1EC
330
1F
100
AcDbEntity
  8
0
  6
CONTINUOUS
 62
     7
100
AcDbLine
 10
156.0712080073
 20
78.7036860059
 30
0.0
 11
155.6583335133
 21
78.7036860059
 31
0.0
  0
LINE
  5
1ED
330
1F
100
AcDbEntity
  8
0
  6
CONTINUOUS
 62
     7
100
AcDbLine
 10
155.6583335133
 20
63.0536860059
 30
0.0
 11
155.6583335133
 21
78.7036860059
 31
0.0
  0
LINE
  5
1EE
330
1F
100
AcDbEntity
  8
0
  6
CONTINUOUS
 62
     7
100
AcDbLine
 10
130.9583335133
 20
63.0536860059
 30
0.0
 11
155.6583335133
 21
63.0536860059
 31
0.0
  0
LINE
  5
1EF
330
1F
100
AcDbEntity
  8
0
  6
CONTINUOUS
 62
     7
100
AcDbLine
 10
130.9583335133
 20
78.7036860059
 30
0.0
 11
130.9583335133
 21
63.0536860059
 31
0.0
  0
LINE
  5
1F0
330
1F
100
AcDbEntity
  8
0
  6
CONTINUOUS
 62
     7
100
AcDbLine
 10
130.5454590192
 20
62.6408115118
 30
0.0
 11
130.9583335133
 21
63.0536860059
 31
0.0
  0
LINE
  5
1F1
330
1F
100
AcDbEntity
  8
0
  6
CONTINUOUS
 62
     7
100
AcDbLine
 10
130.5454590192
 20
78.7036860059
 30
0.0
 11
130.5454590192
 21
62.6408115118
 31
0.0
  0
LINE
  5
1F2
330
1F
100
AcDbEntity
  8
0
  6
CONTINUOUS
 62
     7
100
AcDbLine
 10
154.6543143345
 20
62.6563714254
 30
0.0
 11
154.3181250741
 21
62.9925606858
 31
0.0
  0
LINE
  5
1F3
330
1F
100
AcDbEntity
  8
0
  6
CONTINUOUS
 62
     7
100
AcDbLine
 10
132.2985419524
 20
62.9925606858
 30
0.0
 11
154.3181250741
 21
62.9925606858
 31
0.0
  0
LINE
  5
1F4
330
1F
100
AcDbEntity
  8
0
  6
CONTINUOUS
 62
     7
100
AcDbLine
 10
131.962352692
 20
62.6563714254
 30
0.0
 11
132.2985419524
 21
62.9925606858
 31
0.0
  0
LINE
  5
1F5
330
1F
100
AcDbEntity
  8
0
  6
CONTINUOUS
 62
     7
100
AcDbLine
 10
132.0082435609
 20
62.6563714254
 30
0.0
 11
131.962352692
 21
62.6563714254
 31
0.0
  0
ELLIPSE
  5
1F6
330
1F
100
AcDbEntity
  8
0
  6
CONTINUOUS
 62
     7
100
AcDbEllipse
 10
136.5253993684
 20
62.3921543683
 30
0.0
 11
7.551565529761063
 21
0.0
 31
0.0
210
0.0
220
0.0
230
1.0
 40
0.0436609429
 41
0.6469197258401053
 42
2.21201781731643
  0
LINE
  5
1F7
330
1F
100
AcDbEntity
  8
0
  6
CONTINUOUS
 62
     7
100
AcDbLine
 10
142.5511269742
 20
62.5908800111
 30
0.0
 11
144.0655400523
 21
62.5908800111
 31
0.0
  0
ELLIPSE
  5
1F8
330
1F
100
AcDbEntity
  8
0
  6
CONTINUOUS
 62
     7
100
AcDbEllipse
 10
150.0912676581
 20
62.3921543683
 30
0.0
 11
7.551565529761063
 21
7.105427357601000E-15
 31
0.0
210
0.0
220
0.0
230
1.0
 40
0.0436609429
 41
0.9295748362733213
 42
2.494672927749693
  0
LINE
  5
1F9
330
1F
100
AcDbEntity
  8
0
  6
CONTINUOUS
 62
     7
100
AcDbLine
 10
154.6543143345
 20
62.6563714254
 30
0.0
 11
154.6084234656
 21
62.6563714254
 31
0.0
  0
ELLIPSE
  5
1FA
330
1F
100
AcDbEntity
  8
0
  6
CONTINUOUS
 62
     7
100
AcDbEllipse
 10
131.5445072408
 20
62.6389070483
 30
0.0
 11
1.0
 21
0.0
 31
0.0
210
0.0
220
0.0
230
1.0
 40
0.0436609429
 41
3.097959422289972
 42
4.71238898038469
  0
LINE
  5
1FB
330
1F
100
AcDbEntity
  8
0
  6
CONTINUOUS
 62
     7
100
AcDbLine
 10
156.0712080073
 20
62.6408115118
 30
0.0
 11
155.6583335133
 21
63.0536860059
 31
0.0
  0
ELLIPSE
  5
1FC
330
1F
100
AcDbEntity
  8
0
  6
CONTINUOUS
 62
     7
100
AcDbEllipse
 10
155.0721597857
 20
62.6389070483
 30
0.0
 11
1.0
 21
0.0
 31
0.0
210
0.0
220
0.0
230
1.0
 40
0.0436609429
 41
4.71238898038469
 42
6.326818538479734
  0
LINE
  5
1FD
330
1F
100
AcDbEntity
  8
0
  6
CONTINUOUS
 62
     7
100
AcDbLine
 10
155.0721597857
 20
62.5952461053
 30
0.0
 11
154.4735840078
 21
62.5952461053
 31
0.0
  0
ELLIPSE
  5
1FE
330
1F
100
AcDbEntity
  8
0
  6
CONTINUOUS
 62
     7
100
AcDbEllipse
 10
154.4735840078
 20
62.6389070483
 30
0.0
 11
1.0
 21
0.0
 31
0.0
210
0.0
220
0.0
230
1.0
 40
0.0436609429
 41
4.052818843488716
 42
4.71238898038469
  0
ELLIPSE
  5
1FF
330
1F
100
AcDbEntity
  8
0
  6
CONTINUOUS
 62
     7
100
AcDbEllipse
 10
150.0912676581
 20
62.3921543683
 30
0.0
 11
6.151565529761086
 21
7.105427357601002E-15
 31
0.0
210
0.0
220
0.0
230
1.0
 40
0.0436609429
 41
0.9112261898989092
 42
2.522236006040023
  0
ELLIPSE
  5
200
330
1F
100
AcDbEntity
  8
0
  6
CONTINUOUS
 62
     7
100
AcDbEllipse
 10
144.2680904172
 20
62.5734156339
 30
0.0
 11
1.0
 21
0.0
 31
0.0
210
0.0
220
0.0
230
1.0
 40
0.0436609429
 41
4.71238898038469
 42
5.663828659630667
  0
LINE
  5
201
330
1F
100
AcDbEntity
  8
0
  6
CONTINUOUS
 62
     7
100
AcDbLine
 10
142.3485766093
 20
62.529754691
 30
0.0
 11
144.2680904172
 21
62.529754691
 31
0.0
  0
ELLIPSE
  5
202
330
1F
100
AcDbEntity
  8
0
  6
CONTINUOUS
 62
     7
100
AcDbEllipse
 10
142.3485766093
 20
62.5734156339
 30
0.0
 11
1.0
 21
0.0
 31
0.0
210
0.0
220
0.0
230
1.0
 40
0.0436609429
 41
3.760949301139806
 42
4.712388980384661
  0
ELLIPSE
  5
203
330
1F
100
AcDbEntity
  8
0
  6
CONTINUOUS
 62
     7
100
AcDbEllipse
 10
136.5253993684
 20
62.3921543683
 30
0.0
 11
6.151565529761058
 21
0.0
 31
0.0
210
0.0
220
0.0
230
1.0
 40
0.0436609429
 41
0.6193566475497061
 42
2.230366463690863
  0
ELLIPSE
  5
204
330
1F
100
AcDbEntity
  8
0
  6
CONTINUOUS
 62
     7
100
AcDbEllipse
 10
132.1430830187
 20
62.6389070483
 30
0.0
 11
1.0
 21
0.0
 31
0.0
210
0.0
220
0.0
230
1.0
 40
0.0436609429
 41
4.712388980384661
 42
5.37195911728068
  0
LINE
  5
205
330
1F
100
AcDbEntity
  8
0
  6
CONTINUOUS
 62
     7
100
AcDbLine
 10
132.1430830187
 20
62.5952461053
 30
0.0
 11
131.5445072408
 21
62.5952461053
 31
0.0
  0
LINE
  5
206
330
1F
100
AcDbEntity
  8
0
  6
CONTINUOUS
 62
     7
100
AcDbLine
 10
156.0712080073
 20
62.6408115118
 30
0.0
 11
156.0712080073
 21
78.7036860059
 31
0.0
  0
LINE
  5
207
330
1F
100
AcDbEntity
  8
0
  6
CONTINUOUS
 62
     7
100
AcDbLine
 10
142.5511269742
 20
62.9925606858
 30
0.0
 11
142.5511269742
 21
62.5908800111
 31
0.0
  0
LINE
  5
208
330
1F
100
AcDbEntity
  8
0
  6
CONTINUOUS
 62
     7
100
AcDbLine
 10
132.0082435609
 20
62.7022622943
 30
0.0
 11
132.0082435609
 21
62.6563714254
 31
0.0
  0
LINE
  5
209
330
1F
100
AcDbEntity
  8
0
  6
CONTINUOUS
 62
     7
100
AcDbLine
 10
154.6084234656
 20
62.7022622943
 30
0.0
 11
154.6084234656
 21
62.6563714254
 31
0.0
  0
LINE
  5
20A
330
1F
100
AcDbEntity
  8
0
  6
CONTINUOUS
 62
     7
100
AcDbLine
 10
144.0655400523
 20
62.9925606858
 30
0.0
 11
144.0655400523
 21
62.5908800111
 31
0.0
  0
LINE
  5
20B
330
1F
100
AcDbEntity
  8
0
  6
CONTINUOUS
 62
     7
100
AcDbLine
 10
142.8083335133
 20
78.6425606858
 30
0.0
 11
143.8083335133
 21
78.6425606858
 31
0.0
  0
SPLINE
  5
20C
330
1F
100
AcDbEntity
  8
0
  6
CONTINUOUS
 62
     7
100
AcDbSpline
210
0.0
220
0.0
230
1.0
 70
     8
 71
     3
 72
    12
 73
     8
 74
     0
 42
0.00000001
 43
0.00000001
 40
0.0
 40
0.0
 40
0.0
 40
0.0
 40
0.1141605696851603
 40
0.3347536758266503
 40
0.5600143422235143
 40
0.7867705980273764
 40
1.0
 40
1.0
 40
1.0
 40
1.0
 10
133.5320582191886
 20
86.81397873540844
 30
0.0
 10
133.4130796956431
 20
86.67586624580919
 30
0.0
 10
133.0641983068141
 20
86.27087822149895
 30
0.0
 10
132.5585085576028
 20
85.5419211295729
 30
0.0
 10
132.0149954105972
 20
84.63181126918218
 30
0.0
 10
131.552815842971
 20
83.69131447317172
 30
0.0
 10
131.3117138890563
 20
83.03909257925996
 30
0.0
 10
131.1948691134619
 20
82.72300753890872
 30
0.0
  0
SPLINE
  5
20D
330
1F
100
AcDbEntity
  8
0
  6
CONTINUOUS
 62
     7
100
AcDbSpline
210
0.0
220
0.0
230
1.0
 70
     8
 71
     3
 72
    10
 73
     6
 74
     0
 42
0.00000001
 43
0.00000001
 40
0.0
 40
0.0
 40
0.0
 40
0.0
 40
0.3768666775568385
 40
0.7561368014775929
 40
1.0
 40
1.0
 40
1.0
 40
1.0
 10
148.0941215593581
 20
90.48372822498278
 30
0.0
 10
147.7924638766894
 20
90.59550563268638
 30
0.0
 10
147.1872247061877
 20
90.81977330232057
 30
0.0
 10
146.358744592141
 20
91.04977313033865
 30
0.0
 10
145.829966134221
 20
91.14449899046659
 30
0.0
 10
145.6230287078087
 20
91.18156995169045
 30
0.0
  0
SPLINE
  5
20E
330
1F
100
AcDbEntity
  8
0
  6
CONTINUOUS
 62
     7
100
AcDbSpline
210
0.0
220
0.0
230
1.0
 70
     8
 71
     3
 72
    12
 73
     8
 74
     0
 42
0.00000001
 43
0.00000001
 40
0.0
 40
0.0
 40
0.0
 40
0.0
 40
0.0636021478328352
 40
0.3049886171217114
 40
0.548195746179865
 40
0.7734240316545143
 40
1.0
 40
1.0
 40
1.0
 40
1.0
 10
142.5576885956766
 20
91.36960731693142
 30
0.0
 10
142.4691823881713
 20
91.36665442259128
 30
0.0
 10
142.0447724153403
 20
91.3524945366128
 30
0.0
 10
141.2879501553099
 20
91.25026450360917
 30
0.0
 10
140.3222288938094
 20
91.06316855308037
 30
0.0
 10
139.3954553635671
 20
90.80945949861173
 30
0.0
 10
138.8140934790138
 20
90.59252101747796
 30
0.0
 10
138.5225454671524
 20
90.4837282249828
 30
0.0
  0
SPLINE
  5
20F
330
1F
100
AcDbEntity
  8
0
  6
CONTINUOUS
 62
     7
100
AcDbSpline
210
0.0
220
0.0
230
1.0
 70
     8
 71
     3
 72
    11
 73
     7
 74
     0
 42
0.00000001
 43
0.00000001
 40
0.0
 40
0.0
 40
0.0
 40
0.0
 40
0.3070913849831217
 40
0.6163697598672122
 40
0.9321968315930086
 40
1.0
 40
1.0
 40
1.0
 40
1.0
 10
155.4217979130486
 20
82.7230075389087
 30
0.0
 10
155.296745348208
 20
83.06105189690933
 30
0.0
 10
155.0457496409667
 20
83.73954803829987
 30
0.0
 10
154.5526485319306
 20
84.71125389102188
 30
0.0
 10
154.1487657528999
 20
85.41514876263025
 30
0.0
 10
153.8796738103394
 20
85.77800054497575
 30
0.0
 10
153.8321142480586
 20
85.84213130926751
 30
0.0
  0
LINE
  5
210
330
1F
100
AcDbEntity
  8
0
  6
CONTINUOUS
 62
     7
100
AcDbLine
 10
148.0941215594
 20
90.483728225
 30
0.0
 11
148.1082798234
 21
90.4788798235
 31
0.0
  0
LINE
  5
211
330
1F
100
AcDbEntity
  8
0
  6
CONTINUOUS
 62
     7
100
AcDbLine
 10
155.421797913
 20
82.7230075389
 30
0.0
 11
155.4190978591
 21
82.7339649109
 31
0.0
  0
LINE
  5
212
330
1F
100
AcDbEntity
  8
0
  6
CONTINUOUS
 62
     7
100
AcDbLine
 10
131.1948691135
 20
82.7230075389
 30
0.0
 11
131.1975477216
 21
82.7339032615
 31
0.0
  0
LINE
  5
213
330
1F
100
AcDbEntity
  8
0
  6
CONTINUOUS
 62
     7
100
AcDbLine
 10
138.5225454672
 20
90.483728225
 30
0.0
 11
138.5078650638
 21
90.4786520057
 31
0.0
  0
LINE
  5
214
330
1F
100
AcDbEntity
  8
0
  6
CONTINUOUS
 62
     7
100
AcDbLine
 10
138.5225454672
 20
90.483728225
 30
0.0
 11
138.531690369
 21
90.4883620406
 31
0.0
  0
LINE
  5
215
330
1F
100
AcDbEntity
  8
0
  6
CONTINUOUS
 62
     7
100
AcDbLine
 10
148.0941215594
 20
90.483728225
 30
0.0
 11
148.0854397455
 21
90.4882028781
 31
0.0
  0
LINE
  5
216
330
1F
100
AcDbEntity
  8
0
  6
CONTINUOUS
 62
     7
100
AcDbLine
 10
130.5445072408
 20
78.7036860059
 30
0.0
 11
130.5454590192
 21
78.7036860059
 31
0.0
  0
LINE
  5
217
330
1F
100
AcDbEntity
  8
0
  6
CONTINUOUS
 62
     7
100
AcDbLine
 10
131.1939657641
 20
82.7233072757
 30
0.0
 11
131.1948691135
 21
82.7230075389
 31
0.0
  0
LINE
  5
218
330
1F
100
AcDbEntity
  8
0
  6
CONTINUOUS
 62
     7
100
AcDbLine
 10
155.421797913
 20
82.7230075389
 30
0.0
 11
155.4227012624
 21
82.7233072757
 31
0.0
  0
LINE
  5
219
330
1F
100
AcDbEntity
  8
0
  6
CONTINUOUS
 62
     7
100
AcDbLine
 10
156.0712080073
 20
78.7036860059
 30
0.0
 11
156.0721597857
 21
78.7036860059
 31
0.0
  0
ARC
  5
21A
330
1F
100
AcDbEntity
  8
0
  6
CONTINUOUS
 62
     7
100
AcDbCircle
 10
143.3083335133
 20
78.7036860059
 30
0.0
 40
8.600000292062772
100
AcDbArc
 50
255.0
 51
195.0
  0
ENDSEC
  0
SECTION
  2
OBJECTS
  0
DICTIONARY
  5
C
330
0
100
AcDbDictionary
  3
ACAD_GROUP
350
D
  3
ACAD_LAYOUT
350
1A
  3
ACAD_MLEADERSTYLE
350
23C
  3
ACAD_MLINESTYLE
350
17
  3
ACAD_PLOTSETTINGS
350
19
  3
ACAD_TABLESTYLE
350
23B
  3
ACAD_VISUALSTYLE
350
2A
  3
ACDBHEADERROUNDTRIPXREC
350
21B
  3
ACDBVARIABLEDICTIONARY
350
23D
  0
DICTIONARY
  5
D
102
{ACAD_REACTORS
330
C
102
}
330
C
100
AcDbDictionary
  0
DICTIONARY
  5
1A
102
{ACAD_REACTORS
330
C
102
}
330
C
100
AcDbDictionary
  0
DICTIONARY
  5
23C
102
{ACAD_REACTORS
330
C
102
}
330
C
100
AcDbDictionary
  0
DICTIONARY
  5
17
102
{ACAD_REACTORS
330
C
102
}
330
C
100
AcDbDictionary
  3
STANDARD
350
18
  0
DICTIONARY
  5
19
102
{ACAD_REACTORS
330
C
102
}
330
C
100
AcDbDictionary
  0
DICTIONARY
  5
23B
102
{ACAD_REACTORS
330
C
102
}
330
C
100
AcDbDictionary
  0
DICTIONARY
  5
2A
102
{ACAD_REACTORS
330
C
102
}
330
C
100
AcDbDictionary
  3
2DWIREFRAME
350
2F
  3
3D_HIDDEN
350
31
  3
3DWIREFRAME
350
30
  3
BASIC
350
32
  3
BRIGHTEN
350
36
  3
COLORCHANGE
350
3A
  3
CONCEPTUAL
350
34
  3
DIM
350
35
  3
FACEPATTERN
350
39
  3
FLAT
350
2B
  3
FLATWITHEDGES
350
2C
  3
GOURAUD
350
2D
  3
GOURAUDWITHEDGES
350
2E
  3
LINEPATTERN
350
38
  3
REALISTIC
350
33
  3
THICKEN
350
37
  0
DICTIONARY
  5
21B
102
{ACAD_REACTORS
330
C
102
}
330
C
100
AcDbDictionary
  3
CEPSNTYPE
350
224
  3
DIMSTYLEDATA
350
23A
  3
FINGERPRINTGUID
350
225
  3
HYPERLINKBASE
350
21E
  3
INSUNITS
350
223
  3
LAYOUTDICT
350
220
  3
LWETCUNION
350
222
  3
PLOTSETDICT
350
221
  3
PSVPSCALE
350
227
  3
PUCSBASE
350
22A
  3
PUCSORGBACK
350
230
  3
PUCSORGBOTTOM
350
22C
  3
PUCSORGFRONT
350
22F
  3
PUCSORGLEFT
350
22D
  3
PUCSORGRIGHT
350
22E
  3
PUCSORGTOP
350
22B
  3
PUCSORTHOREF
350
228
  3
PUCSORTHOVIEW
350
229
  3
STYLESHEET
350
21F
  3
TSTACKALIGN
350
21C
  3
TSTACKSIZE
350
21D
  3
UCSBASE
350
233
  3
UCSORGBACK
350
239
  3
UCSORGBOTTOM
350
235
  3
UCSORGFRONT
350
238
  3
UCSORGLEFT
350
236
  3
UCSORGRIGHT
350
237
  3
UCSORGTOP
350
234
  3
UCSORTHOREF
350
231
  3
UCSORTHOVIEW
350
232
  3
VERSIONGUID
350
226
  0
DICTIONARY
  5
23D
102
{ACAD_REACTORS
330
C
102
}
330
C
100
AcDbDictionary
  3
PSOLHEIGHT
350
23F
  3
PSOLWIDTH
350
23E
  0
MLINESTYLE
  5
18
102
{ACAD_REACTORS
330
17
102
}
330
17
100
AcDbMlineStyle
  2
Standard
 70
     0
  3

 62
   256
 51
90.0
 52
90.0
 71
     2
 49
0.5
 62
   256
  6
BYLAYER
 49
-0.5
 62
   256
  6
BYLAYER
  0
VISUALSTYLE
  5
2F
102
{ACAD_REACTORS
330
2A
102
}
330
2A
100
AcDbVisualStyle
  2
2dWireframe
 70
     4
 71
     0
 72
     2
 73
     0
 90
        0
 40
-0.6
 41
-30.0
 62
     5
 63
     7
 74
     1
 91
        4
 64
     7
 65
   257
 75
     1
175
     1
 42
1.0
 92
        0
 66
   257
 43
1.0
 76
     1
 77
     6
 78
     2
 67
     7
 79
     5
170
     0
171
     0
290
     0
174
     0
 93
        1
 44
0.0
173
     0
291
     0
 45
0.0
1001
ACAD
1000
AcDbSavedByObjectVersion
1070
     0
  0
VISUALSTYLE
  5
31
102
{ACAD_REACTORS
330
2A
102
}
330
2A
100
AcDbVisualStyle
  2
3D Hidden
 70
     6
 71
     1
 72
     2
 73
     2
 90
        0
 40
-0.6
 41
-30.0
 62
     5
 63
     7
 74
     2
 91
        2
 64
     7
 65
   257
 75
     2
175
     1
 42
40.0
 92
        0
 66
   257
 43
1.0
 76
     1
 77
     6
 78
     2
 67
     7
 79
     3
170
     0
171
     0
290
     0
174
     0
 93
        1
 44
0.0
173
     0
291
     0
 45
0.0
1001
ACAD
1000
AcDbSavedByObjectVersion
1070
     0
  0
VISUALSTYLE
  5
30
102
{ACAD_REACTORS
330
2A
102
}
330
2A
100
AcDbVisualStyle
  2
3dWireframe
 70
     5
 71
     0
 72
     2
 73
     0
 90
        0
 40
-0.6
 41
-30.0
 62
     5
 63
     7
 74
     1
 91
        4
 64
     7
 65
   257
 75
     1
175
     1
 42
1.0
 92
        0
 66
   257
 43
1.0
 76
     1
 77
     6
 78
     2
 67
     7
 79
     5
170
     0
171
     0
290
     0
174
     0
 93
        1
 44
0.0
173
     0
291
     0
 45
0.0
1001
ACAD
1000
AcDbSavedByObjectVersion
1070
     0
  0
VISUALSTYLE
  5
32
102
{ACAD_REACTORS
330
2A
102
}
330
2A
100
AcDbVisualStyle
  2
Basic
 70
     7
 71
     1
 72
     0
 73
     1
 90
        0
 40
-0.6
 41
-30.0
 62
     5
 63
     7
 74
     0
 91
        4
 64
     7
 65
   257
 75
     1
175
     1
 42
1.0
 92
        8
 66
     7
 43
1.0
 76
     1
 77
     6
 78
     2
 67
     7
 79
     5
170
     0
171
     0
290
     0
174
     0
 93
        1
 44
0.0
173
     0
291
     1
 45
0.0
1001
ACAD
1000
AcDbSavedByObjectVersion
1070
     0
  0
VISUALSTYLE
  5
36
102
{ACAD_REACTORS
330
2A
102
}
330
2A
100
AcDbVisualStyle
  2
Brighten
 70
    12
 71
     2
 72
     2
 73
     0
 90
        0
 40
-0.6
 41
-30.0
 62
     5
 63
     7
 74
     1
 91
        4
 64
     7
 65
   257
 75
     1
175
     1
 42
1.0
 92
        8
 66
     7
 43
1.0
 76
     1
 77
     6
 78
     2
 67
     7
 79
     5
170
     0
171
     0
290
     0
174
     0
 93
        1
 44
50.0
173
     0
291
     1
 45
0.0
1001
ACAD
1000
AcDbSavedByObjectVersion
1070
     0
  0
VISUALSTYLE
  5
3A
102
{ACAD_REACTORS
330
2A
102
}
330
2A
100
AcDbVisualStyle
  2
ColorChange
 70
    16
 71
     2
 72
     2
 73
     3
 90
        0
 40
-0.6
 41
-30.0
 62
     5
 63
     8
 74
     1
 91
        4
 64
     7
 65
   257
 75
     1
175
     1
 42
1.0
 92
        8
 66
     8
 43
1.0
 76
     1
 77
     6
 78
     2
 67
     7
 79
     5
170
     0
171
     0
290
     0
174
     0
 93
        1
 44
0.0
173
     0
291
     1
 45
0.0
1001
ACAD
1000
AcDbSavedByObjectVersion
1070
     0
  0
VISUALSTYLE
  5
34
102
{ACAD_REACTORS
330
2A
102
}
330
2A
100
AcDbVisualStyle
  2
Conceptual
 70
     9
 71
     3
 72
     2
 73
     0
 90
        0
 40
-0.6
 41
-30.0
 62
     5
 63
     7
 74
     2
 91
        2
 64
     7
 65
   257
 75
     1
175
     1
 42
40.0
 92
        8
 66
     7
 43
1.0
 76
     1
 77
     6
 78
     2
 67
     7
 79
     3
170
     0
171
     0
290
     0
174
     0
 93
        1
 44
0.0
173
     0
291
     0
 45
0.0
1001
ACAD
1000
AcDbSavedByObjectVersion
1070
     0
  0
VISUALSTYLE
  5
35
102
{ACAD_REACTORS
330
2A
102
}
330
2A
100
AcDbVisualStyle
  2
Dim
 70
    11
 71
     2
 72
     2
 73
     0
 90
        0
 40
-0.6
 41
-30.0
 62
     5
 63
     7
 74
     1
 91
        4
 64
     7
 65
   257
 75
     1
175
     1
 42
1.0
 92
        8
 66
     7
 43
1.0
 76
     1
 77
     6
 78
     2
 67
     7
 79
     5
170
     0
171
     0
290
     0
174
     0
 93
        1
 44
-50.0
173
     0
291
     1
 45
0.0
1001
ACAD
1000
AcDbSavedByObjectVersion
1070
     0
  0
VISUALSTYLE
  5
39
102
{ACAD_REACTORS
330
2A
102
}
330
2A
100
AcDbVisualStyle
  2
Facepattern
 70
    15
 71
     2
 72
     2
 73
     0
 90
        0
 40
-0.6
 41
-30.0
 62
     5
 63
     7
 74
     1
 91
        4
 64
     7
 65
   257
 75
     1
175
     1
 42
1.0
 92
        8
 66
     7
 43
1.0
 76
     1
 77
     6
 78
     2
 67
     7
 79
     5
170
     0
171
     0
290
     0
174
     0
 93
        1
 44
0.0
173
     0
291
     1
 45
0.0
1001
ACAD
1000
AcDbSavedByObjectVersion
1070
     0
  0
VISUALSTYLE
  5
2B
102
{ACAD_REACTORS
330
2A
102
}
330
2A
100
AcDbVisualStyle
  2
Flat
 70
     0
 71
     2
 72
     1
 73
     1
 90
        2
 40
-0.6
 41
30.0
 62
     5
 63
     7
 74
     0
 91
        4
 64
     7
 65
   257
 75
     1
175
     1
 42
1.0
 92
        8
 66
     7
 43
1.0
 76
     1
 77
     6
 78
     2
 67
     7
 79
     5
170
     0
171
     0
290
     0
174
     0
 93
       13
 44
0.0
173
     0
291
     1
 45
0.0
1001
ACAD
1000
AcDbSavedByObjectVersion
1070
     0
  0
VISUALSTYLE
  5
2C
102
{ACAD_REACTORS
330
2A
102
}
330
2A
100
AcDbVisualStyle
  2
FlatWithEdges
 70
     1
 71
     2
 72
     1
 73
     1
 90
        2
 40
-0.6
 41
30.0
 62
     5
 63
     7
 74
     1
 91
        4
 64
     7
 65
   257
 75
     1
175
     1
 42
1.0
 92
        0
 66
   257
 43
1.0
 76
     1
 77
     6
 78
     2
 67
     7
 79
     5
170
     0
171
     0
290
     0
174
     0
 93
       13
 44
0.0
173
     0
291
     1
 45
0.0
1001
ACAD
1000
AcDbSavedByObjectVersion
1070
     0
  0
VISUALSTYLE
  5
2D
102
{ACAD_REACTORS
330
2A
102
}
330
2A
100
AcDbVisualStyle
  2
Gouraud
 70
     2
 71
     2
 72
     2
 73
     1
 90
        2
 40
-0.6
 41
30.0
 62
     5
 63
     7
 74
     0
 91
        4
 64
     7
 65
   257
 75
     1
175
     1
 42
1.0
 92
        0
 66
     7
 43
1.0
 76
     1
 77
     6
 78
     2
 67
     7
 79
     5
170
     0
171
     0
290
     0
174
     0
 93
       13
 44
0.0
173
     0
291
     1
 45
0.0
1001
ACAD
1000
AcDbSavedByObjectVersion
1070
     0
  0
VISUALSTYLE
  5
2E
102
{ACAD_REACTORS
330
2A
102
}
330
2A
100
AcDbVisualStyle
  2
GouraudWithEdges
 70
     3
 71
     2
 72
     2
 73
     1
 90
        2
 40
-0.6
 41
30.0
 62
     5
 63
     7
 74
     1
 91
        4
 64
     7
 65
   257
 75
     1
175
     1
 42
1.0
 92
        0
 66
   257
 43
1.0
 76
     1
 77
     6
 78
     2
 67
     7
 79
     5
170
     0
171
     0
290
     0
174
     0
 93
       13
 44
0.0
173
     0
291
     1
 45
0.0
1001
ACAD
1000
AcDbSavedByObjectVersion
1070
     0
  0
VISUALSTYLE
  5
38
102
{ACAD_REACTORS
330
2A
102
}
330
2A
100
AcDbVisualStyle
  2
Linepattern
 70
    14
 71
     2
 72
     2
 73
     0
 90
        0
 40
-0.6
 41
-30.0
 62
     5
 63
     7
 74
     1
 91
        4
 64
     7
 65
   257
 75
     7
175
     7
 42
1.0
 92
        8
 66
     7
 43
1.0
 76
     1
 77
     6
 78
     2
 67
     7
 79
     5
170
     0
171
     0
290
     0
174
     0
 93
        1
 44
0.0
173
     0
291
     1
 45
0.0
1001
ACAD
1000
AcDbSavedByObjectVersion
1070
     0
  0
VISUALSTYLE
  5
33
102
{ACAD_REACTORS
330
2A
102
}
330
2A
100
AcDbVisualStyle
  2
Realistic
 70
     8
 71
     2
 72
     2
 73
     0
 90
        0
 40
-0.6
 41
-30.0
 62
     5
 63
     7
 74
     1
 91
        0
 64
     7
 65
   257
 75
     1
175
     1
 42
1.0
 92
        8
 66
     8
 43
1.0
 76
     1
 77
     6
 78
     2
 67
     7
 79
     5
170
     0
171
     0
290
     0
174
     0
 93
       13
 44
0.0
173
     0
291
     0
 45
0.0
1001
ACAD
1000
AcDbSavedByObjectVersion
1070
     0
  0
VISUALSTYLE
  5
37
102
{ACAD_REACTORS
330
2A
102
}
330
2A
100
AcDbVisualStyle
  2
Thicken
 70
    13
 71
     2
 72
     2
 73
     0
 90
        0
 40
-0.6
 41
-30.0
 62
     5
 63
     7
 74
     1
 91
        4
 64
     7
 65
   257
 75
     1
175
     1
 42
1.0
 92
       12
 66
     7
 43
1.0
 76
     1
 77
     6
 78
     2
 67
     7
 79
     5
170
     0
171
     0
290
     0
174
     0
 93
        1
 44
0.0
173
     0
291
     1
 45
0.0
1001
ACAD
1000
AcDbSavedByObjectVersion
1070
     0
  0
XRECORD
  5
224
102
{ACAD_REACTORS
330
21B
102
}
330
21B
100
AcDbXrecord
 90
        0
  0
XRECORD
  5
23A
102
{ACAD_REACTORS
330
21B
102
}
330
21B
100
AcDbXrecord
1000
DSTYLE
1002
{
1070
   179
 70
     2
1070
   143
 40
0.0393700787
1070
    41
 40
3.0
1070
    44
 40
0.5
1070
    42
 40
0.5
1070
   147
 40
0.762
1070
    73
 70
     1
1070
    74
 70
     1
1070
   340
340
11
1070
   140
 40
1.75
1070
   284
 70
     0
1070
    78
 70
     0
1002
}
  0
XRECORD
  5
225
102
{ACAD_REACTORS
330
21B
102
}
330
21B
100
AcDbXrecord
  1
{B2D02300-9EE9-4028-B554-AC5B81348E5A}
  0
XRECORD
  5
21E
102
{ACAD_REACTORS
330
21B
102
}
330
21B
100
AcDbXrecord
  1

  0
XRECORD
  5
223
102
{ACAD_REACTORS
330
21B
102
}
330
21B
100
AcDbXrecord
 90
        4
  0
XRECORD
  5
220
102
{ACAD_REACTORS
330
21B
102
}
330
21B
100
AcDbXrecord
340
1A
  0
XRECORD
  5
222
102
{ACAD_REACTORS
330
21B
102
}
330
21B
100
AcDbXrecord
 90
    10269
  0
XRECORD
  5
221
102
{ACAD_REACTORS
330
21B
102
}
330
21B
100
AcDbXrecord
340
19
  0
XRECORD
  5
227
102
{ACAD_REACTORS
330
21B
102
}
330
21B
100
AcDbXrecord
 40
0.0
  0
XRECORD
  5
22A
102
{ACAD_REACTORS
330
21B
102
}
330
21B
100
AcDbXrecord
340
0
  0
XRECORD
  5
230
102
{ACAD_REACTORS
330
21B
102
}
330
21B
100
AcDbXrecord
 10
0.0
 20
0.0
 30
0.0
  0
XRECORD
  5
22C
102
{ACAD_REACTORS
330
21B
102
}
330
21B
100
AcDbXrecord
 10
0.0
 20
0.0
 30
0.0
  0
XRECORD
  5
22F
102
{ACAD_REACTORS
330
21B
102
}
330
21B
100
AcDbXrecord
 10
0.0
 20
0.0
 30
0.0
  0
XRECORD
  5
22D
102
{ACAD_REACTORS
330
21B
102
}
330
21B
100
AcDbXrecord
 10
0.0
 20
0.0
 30
0.0
  0
XRECORD
  5
22E
102
{ACAD_REACTORS
330
21B
102
}
330
21B
100
AcDbXrecord
 10
0.0
 20
0.0
 30
0.0
  0
XRECORD
  5
22B
102
{ACAD_REACTORS
330
21B
102
}
330
21B
100
AcDbXrecord
 10
0.0
 20
0.0
 30
0.0
  0
XRECORD
  5
228
102
{ACAD_REACTORS
330
21B
102
}
330
21B
100
AcDbXrecord
340
0
  0
XRECORD
  5
229
102
{ACAD_REACTORS
330
21B
102
}
330
21B
100
AcDbXrecord
 70
     0
  0
XRECORD
  5
21F
102
{ACAD_REACTORS
330
21B
102
}
330
21B
100
AcDbXrecord
  1

  0
XRECORD
  5
21C
102
{ACAD_REACTORS
330
21B
102
}
330
21B
100
AcDbXrecord
 90
        1
  0
XRECORD
  5
21D
102
{ACAD_REACTORS
330
21B
102
}
330
21B
100
AcDbXrecord
 90
       70
  0
XRECORD
  5
233
102
{ACAD_REACTORS
330
21B
102
}
330
21B
100
AcDbXrecord
340
0
  0
XRECORD
  5
239
102
{ACAD_REACTORS
330
21B
102
}
330
21B
100
AcDbXrecord
 10
0.0
 20
0.0
 30
0.0
  0
XRECORD
  5
235
102
{ACAD_REACTORS
330
21B
102
}
330
21B
100
AcDbXrecord
 10
0.0
 20
0.0
 30
0.0
  0
XRECORD
  5
238
102
{ACAD_REACTORS
330
21B
102
}
330
21B
100
AcDbXrecord
 10
0.0
 20
0.0
 30
0.0
  0
XRECORD
  5
236
102
{ACAD_REACTORS
330
21B
102
}
330
21B
100
AcDbXrecord
 10
0.0
 20
0.0
 30
0.0
  0
XRECORD
  5
237
102
{ACAD_REACTORS
330
21B
102
}
330
21B
100
AcDbXrecord
 10
0.0
 20
0.0
 30
0.0
  0
XRECORD
  5
234
102
{ACAD_REACTORS
330
21B
102
}
330
21B
100
AcDbXrecord
 10
0.0
 20
0.0
 30
0.0
  0
XRECORD
  5
231
102
{ACAD_REACTORS
330
21B
102
}
330
21B
100
AcDbXrecord
340
0
  0
XRECORD
  5
232
102
{ACAD_REACTORS
330
21B
102
}
330
21B
100
AcDbXrecord
 70
     0
  0
XRECORD
  5
226
102
{ACAD_REACTORS
330
21B
102
}
330
21B
100
AcDbXrecord
  1
{FAEB1C32-E019-11D5-929B-00C0DF256EC4}
  0
DICTIONARYVAR
  5
23F
102
{ACAD_REACTORS
330
23D
102
}
330
23D
100
DictionaryVariables
280
     0
  1
80.000000
  0
DICTIONARYVAR
  5
23E
102
{ACAD_REACTORS
330
23D
102
}
330
23D
100
DictionaryVariables
280
     0
  1
5.000000
  0
ENDSEC
  0
EOF
