  0
SECTION
  2
HEADER
  9
$ACADVER
  1
AC1014
  9
$ACADMAINTVER
 70
     9
  9
$DWGCODEPAGE
  3
ANSI_1252
  9
$INSBASE
 10
0.0
 20
0.0
 30
0.0
  9
$EXTMIN
 10
0.0
 20
0.0
 30
0.0
  9
$EXTMAX
 10
84.0
 20
59.4
 30
0.0
  9
$LIMMIN
 10
0.0
 20
0.0
  9
$LIMMAX
 10
84.0
 20
59.4
  9
$ORTHOMODE
 70
     0
  9
$REGENMODE
 70
     1
  9
$FILLMODE
 70
     1
  9
$QTEXTMODE
 70
     0
  9
$MIRRTEXT
 70
     1
  9
$DRAGMODE
 70
     2
  9
$LTSCALE
 40
1.0
  9
$OSMODE
 70
    37
  9
$ATTMODE
 70
     1
  9
$TEXTSIZE
 40
0.7
  9
$TRACEWID
 40
1.0
  9
$TEXTSTYLE
  7
STANDARD
  9
$CLAYER
  8
0
  9
$CELTYPE
  6
BYLAYER
  9
$CECOLOR
 62
   256
  9
$CELTSCALE
 40
1.0
  9
$DELOBJ
 70
     1
  9
$DISPSILH
 70
     0
  9
$DIMSCALE
 40
1.0
  9
$DIMASZ
 40
1.2
  9
$DIMEXO
 40
0.2
  9
$DIMDLI
 40
3.75
  9
$DIMRND
 40
0.0
  9
$DIMDLE
 40
0.0
  9
$DIMEXE
 40
0.2
  9
$DIMTP
 40
0.0
  9
$DIMTM
 40
0.0
  9
$DIMTXT
 40
0.7
  9
$DIMCEN
 40
2.5
  9
$DIMTSZ
 40
0.0
  9
$DIMTOL
 70
     0
  9
$DIMLIM
 70
     0
  9
$DIMTIH
 70
     1
  9
$DIMTOH
 70
     1
  9
$DIMSE1
 70
     0
  9
$DIMSE2
 70
     0
  9
$DIMTAD
 70
     1
  9
$DIMZIN
 70
     0
  9
$DIMBLK
  1

  9
$DIMASO
 70
     1
  9
$DIMSHO
 70
     1
  9
$DIMPOST
  1

  9
$DIMAPOST
  1

  9
$DIMALT
 70
     0
  9
$DIMALTD
 70
     3
  9
$DIMALTF
 40
0.0393700787
  9
$DIMLFAC
 40
1.0
  9
$DIMTOFL
 70
     1
  9
$DIMTVP
 40
0.0
  9
$DIMTIX
 70
     0
  9
$DIMSOXD
 70
     0
  9
$DIMSAH
 70
     0
  9
$DIMBLK1
  1

  9
$DIMBLK2
  1

  9
$DIMSTYLE
  2
ISO-25
  9
$DIMCLRD
 70
     0
  9
$DIMCLRE
 70
     0
  9
$DIMCLRT
 70
     0
  9
$DIMTFAC
 40
1.0
  9
$DIMGAP
 40
0.3048
  9
$DIMJUST
 70
     0
  9
$DIMSD1
 70
     0
  9
$DIMSD2
 70
     0
  9
$DIMTOLJ
 70
     0
  9
$DIMTZIN
 70
     0
  9
$DIMALTZ
 70
     0
  9
$DIMALTTZ
 70
     0
  9
$DIMFIT
 70
     3
  9
$DIMUPT
 70
     0
  9
$DIMUNIT
 70
     2
  9
$DIMDEC
 70
     2
  9
$DIMTDEC
 70
     2
  9
$DIMALTU
 70
     2
  9
$DIMALTTD
 70
     3
  9
$DIMTXSTY
  7
STANDARD
  9
$DIMAUNIT
 70
     0
  9
$LUNITS
 70
     2
  9
$LUPREC
 70
     2
  9
$SKETCHINC
 40
1.0
  9
$FILLETRAD
 40
10.0
  9
$AUNITS
 70
     0
  9
$AUPREC
 70
     2
  9
$MENU
  1
.
  9
$ELEVATION
 40
0.0
  9
$PELEVATION
 40
0.0
  9
$THICKNESS
 40
0.0
  9
$LIMCHECK
 70
     0
  9
$CHAMFERA
 40
10.0
  9
$CHAMFERB
 40
10.0
  9
$CHAMFERC
 40
20.0
  9
$CHAMFERD
 40
0.0
  9
$SKPOLY
 70
     0
  9
$TDCREATE
 40
2455264.525216099
  9
$TDUPDATE
 40
2455264.525216111
  9
$TDINDWG
 40
0.0000000116
  9
$TDUSRTIMER
 40
0.0000000116
  9
$USRTIMER
 70
     1
  9
$ANGBASE
 50
0.0
  9
$ANGDIR
 70
     0
  9
$PDMODE
 70
     0
  9
$PDSIZE
 40
-1.0
  9
$PLINEWID
 40
0.0
  9
$COORDS
 70
     1
  9
$SPLFRAME
 70
     0
  9
$SPLINETYPE
 70
     6
  9
$SPLINESEGS
 70
     8
  9
$ATTDIA
 70
     0
  9
$ATTREQ
 70
     1
  9
$HANDLING
 70
     1
  9
$HANDSEED
  5
17B
  9
$SURFTAB1
 70
     6
  9
$SURFTAB2
 70
     6
  9
$SURFTYPE
 70
     6
  9
$SURFU
 70
     6
  9
$SURFV
 70
     6
  9
$UCSNAME
  2

  9
$UCSORG
 10
0.0
 20
0.0
 30
0.0
  9
$UCSXDIR
 10
1.0
 20
0.0
 30
0.0
  9
$UCSYDIR
 10
0.0
 20
1.0
 30
0.0
  9
$PUCSNAME
  2

  9
$PUCSORG
 10
0.0
 20
0.0
 30
0.0
  9
$PUCSXDIR
 10
1.0
 20
0.0
 30
0.0
  9
$PUCSYDIR
 10
0.0
 20
1.0
 30
0.0
  9
$USERI1
 70
     0
  9
$USERI2
 70
     0
  9
$USERI3
 70
     0
  9
$USERI4
 70
     0
  9
$USERI5
 70
     0
  9
$USERR1
 40
0.0
  9
$USERR2
 40
0.0
  9
$USERR3
 40
0.0
  9
$USERR4
 40
0.0
  9
$USERR5
 40
0.0
  9
$WORLDVIEW
 70
     1
  9
$SHADEDGE
 70
     3
  9
$SHADEDIF
 70
    70
  9
$TILEMODE
 70
     1
  9
$MAXACTVP
 70
    64
  9
$PINSBASE
 10
0.0
 20
0.0
 30
0.0
  9
$PLIMCHECK
 70
     0
  9
$PEXTMIN
 10
1.0000000000E+20
 20
1.0000000000E+20
 30
1.0000000000E+20
  9
$PEXTMAX
 10
-1.0000000000E+20
 20
-1.0000000000E+20
 30
-1.0000000000E+20
  9
$PLIMMIN
 10
0.0
 20
0.0
  9
$PLIMMAX
 10
420.0
 20
297.0
  9
$UNITMODE
 70
     0
  9
$VISRETAIN
 70
     1
  9
$PLINEGEN
 70
     0
  9
$PSLTSCALE
 70
     1
  9
$TREEDEPTH
 70
  3020
  9
$PICKSTYLE
 70
     1
  9
$CMLSTYLE
  2
STANDARD
  9
$CMLJUST
 70
     0
  9
$CMLSCALE
 40
20.0
  9
$PROXYGRAPHICS
 70
     1
  9
$MEASUREMENT
 70
     1
  0
ENDSEC
  0
SECTION
  2
CLASSES
  0
CLASS
  1
ACDBDICTIONARYWDFLT
  2
AcDbDictionaryWithDefault
  3
ObjectDBX Classes
 90
        0
280
     0
281
     0
  0
CLASS
  1
VISUALSTYLE
  2
AcDbVisualStyle
  3
ObjectDBX Classes
 90
     4095
280
     0
281
     0
  0
CLASS
  1
DICTIONARYVAR
  2
AcDbDictionaryVar
  3
ObjectDBX Classes
 90
        0
280
     0
281
     0
  0
CLASS
  1
XRECORD
  2
AcDbXrecord
  3
AutoCAD 2000
 90
        0
280
     0
281
     0
  0
CLASS
  1
LWPOLYLINE
  2
AcDbPolyline
  3
AutoCAD 2000
 90
        0
280
     0
281
     1
  0
CLASS
  1
HATCH
  2
AcDbHatch
  3
AutoCAD 2000
 90
        0
280
     0
281
     1
  0
CLASS
  1
ACDBPLACEHOLDER
  2
AcDbPlaceHolder
  3
ObjectDBX Classes
 90
        0
280
     0
281
     0
  0
CLASS
  1
LAYOUT
  2
AcDbLayout
  3
ObjectDBX Classes
 90
        0
280
     0
281
     0
  0
ENDSEC
  0
SECTION
  2
TABLES
  0
TABLE
  2
VPORT
  5
8
330
0
100
AcDbSymbolTable
 70
     1
  0
VPORT
  5
29
330
8
100
AcDbSymbolTableRecord
100
AcDbViewportTableRecord
  2
*ACTIVE
 70
     0
 10
0.0
 20
0.0
 11
1.0
 21
1.0
 12
42.0
 22
29.7
 13
0.0
 23
0.0
 14
10.0
 24
10.0
 15
10.0
 25
10.0
 16
0.0
 26
0.0
 36
1.0
 17
0.0
 27
0.0
 37
0.0
 40
59.4
 41
1.4141414141
 42
50.0
 43
0.0
 44
0.0
 50
0.0
 51
0.0
 71
     0
 72
  2000
 73
     1
 74
     3
 75
     0
 76
     0
 77
     0
 78
     0
  0
ENDTAB
  0
TABLE
  2
LTYPE
  5
5
330
0
100
AcDbSymbolTable
 70
     6
  0
LTYPE
  5
14
330
5
100
AcDbSymbolTableRecord
100
AcDbLinetypeTableRecord
  2
BYBLOCK
 70
     0
  3

 72
    65
 73
     0
 40
0.0
  0
LTYPE
  5
15
330
5
100
AcDbSymbolTableRecord
100
AcDbLinetypeTableRecord
  2
BYLAYER
 70
     0
  3

 72
    65
 73
     0
 40
0.0
  0
LTYPE
  5
16
330
5
100
AcDbSymbolTableRecord
100
AcDbLinetypeTableRecord
  2
CONTINUOUS
 70
     0
  3
Solid line
 72
    65
 73
     0
 40
0.0
  0
LTYPE
  5
3B
330
5
100
AcDbSymbolTableRecord
100
AcDbLinetypeTableRecord
  2
HIDDEN
 70
     0
  3
Hidden __ __ __ __ __ __ __ __ __ __ __ __ __ __
 72
    65
 73
     2
 40
1.905
 49
1.27
 74
     0
 49
-0.635
 74
     0
  0
LTYPE
  5
3C
330
5
100
AcDbSymbolTableRecord
100
AcDbLinetypeTableRecord
  2
PHANTOM
 70
     0
  3
Phantom ______  __  __  ______  __  __  ______
 72
    65
 73
     6
 40
12.7
 49
6.35
 74
     0
 49
-1.27
 74
     0
 49
1.27
 74
     0
 49
-1.27
 74
     0
 49
1.27
 74
     0
 49
-1.27
 74
     0
  0
LTYPE
  5
3D
330
5
100
AcDbSymbolTableRecord
100
AcDbLinetypeTableRecord
  2
CENTER
 70
     0
  3
Center ____ _ ____ _ ____ _ ____ _ ____ _ ____
 72
    65
 73
     4
 40
10.16
 49
6.35
 74
     0
 49
-1.27
 74
     0
 49
1.27
 74
     0
 49
-1.27
 74
     0
  0
LTYPE
  5
3E
330
5
100
AcDbSymbolTableRecord
100
AcDbLinetypeTableRecord
  2
CENTERX2
 70
     0
  3
Center (2x) ________  __  ________  __  _____
 72
    65
 73
     4
 40
20.32
 49
12.7
 74
     0
 49
-2.54
 74
     0
 49
2.54
 74
     0
 49
-2.54
 74
     0
  0
LTYPE
  5
3F
330
5
100
AcDbSymbolTableRecord
100
AcDbLinetypeTableRecord
  2
DOT2
 70
     0
  3
Dot (.5x) ........................................
 72
    65
 73
     2
 40
0.635
 49
0.0
 74
     0
 49
-0.635
 74
     0
  0
ENDTAB
  0
TABLE
  2
LAYER
  5
2
330
0
100
AcDbSymbolTable
 70
     1
  0
LAYER
  5
10
330
2
100
AcDbSymbolTableRecord
100
AcDbLayerTableRecord
  2
0
 70
     0
 62
     7
  6
CONTINUOUS
  0
ENDTAB
  0
TABLE
  2
STYLE
  5
3
330
0
100
AcDbSymbolTable
 70
     1
  0
STYLE
  5
11
330
3
100
AcDbSymbolTableRecord
100
AcDbTextStyleTableRecord
  2
STANDARD
 70
     0
 40
0.0
 41
1.0
 50
0.0
 71
     0
 42
2.5
  3
txt
  4

  0
ENDTAB
  0
TABLE
  2
VIEW
  5
6
330
0
100
AcDbSymbolTable
 70
     0
  0
ENDTAB
  0
TABLE
  2
UCS
  5
7
330
0
100
AcDbSymbolTable
 70
     0
  0
ENDTAB
  0
TABLE
  2
APPID
  5
9
330
0
100
AcDbSymbolTable
 70
     1
  0
APPID
  5
12
330
9
100
AcDbSymbolTableRecord
100
AcDbRegAppTableRecord
  2
ACAD
 70
     0
  0
ENDTAB
  0
TABLE
  2
DIMSTYLE
  5
A
330
0
100
AcDbSymbolTable
 70
     1
  0
DIMSTYLE
105
27
330
A
100
AcDbSymbolTableRecord
100
AcDbDimStyleTableRecord
  2
ISO-25
 70
     0
  3

  4

  5

  6

  7

 40
1.0
 41
2.5
 42
0.625
 43
3.75
 44
1.25
 45
0.0
 46
0.0
 47
0.0
 48
0.0
140
2.5
141
2.5
142
0.0
143
0.0393700787
144
1.0
145
0.0
146
1.0
147
0.625
 71
     0
 72
     0
 73
     0
 74
     0
 75
     0
 76
     0
 77
     1
 78
     8
170
     0
171
     3
172
     1
173
     0
174
     0
175
     0
176
     0
177
     0
178
     0
270
     2
271
     2
272
     2
273
     2
274
     3
340
11
275
     0
280
     0
281
     0
282
     0
283
     0
284
     8
285
     0
286
     0
287
     3
288
     0
  0
ENDTAB
  0
TABLE
  2
BLOCK_RECORD
  5
1
330
0
100
AcDbSymbolTable
 70
     1
  0
BLOCK_RECORD
  5
1F
330
1
100
AcDbSymbolTableRecord
100
AcDbBlockTableRecord
  2
*MODEL_SPACE
  0
BLOCK_RECORD
  5
1B
330
1
100
AcDbSymbolTableRecord
100
AcDbBlockTableRecord
  2
*PAPER_SPACE
  0
ENDTAB
  0
ENDSEC
  0
SECTION
  2
BLOCKS
  0
BLOCK
  5
20
330
1F
100
AcDbEntity
  8
0
100
AcDbBlockBegin
  2
*MODEL_SPACE
 70
     0
 10
0.0
 20
0.0
 30
0.0
  3
*MODEL_SPACE
  1

  0
ENDBLK
  5
21
330
1F
100
AcDbEntity
  8
0
100
AcDbBlockEnd
  0
BLOCK
  5
1C
330
1B
100
AcDbEntity
 67
     1
  8
0
100
AcDbBlockBegin
  2
*PAPER_SPACE
 70
     0
 10
0.0
 20
0.0
 30
0.0
  3
*PAPER_SPACE
  1

  0
ENDBLK
  5
1D
330
1B
100
AcDbEntity
 67
     1
  8
0
100
AcDbBlockEnd
  0
ENDSEC
  0
SECTION
  2
ENTITIES
  0
SPLINE
  5
40
330
1F
100
AcDbEntity
  8
0
  6
CONTINUOUS
 62
     7
100
AcDbSpline
210
0.0
220
0.0
230
1.0
 70
     8
 71
     3
 72
    14
 73
    10
 74
     0
 42
0.00000001
 43
0.00000001
 40
0.0
 40
0.0
 40
0.0
 40
0.0
 40
0.25
 40
0.25
 40
0.5
 40
0.5
 40
0.75
 40
0.75
 40
1.0
 40
1.0
 40
1.0
 40
1.0
 10
27.68740598883228
 20
40.99621693907875
 30
0.0
 10
25.77790130403228
 20
40.99621693907874
 30
0.0
 10
23.9464608756187
 20
40.23760947495146
 30
0.0
 10
21.24601345295958
 20
37.53716205229233
 30
0.0
 10
20.48740598883229
 20
35.70572162387874
 30
0.0
 10
20.48740598883229
 20
31.88671225427874
 30
0.0
 10
21.24601345295959
 20
30.05527182586517
 30
0.0
 10
23.94646087561871
 20
27.35482440320605
 30
0.0
 10
25.77790130403229
 20
26.59621693907875
 30
0.0
 10
27.68740598883229
 20
26.59621693907875
 30
0.0
  0
SPLINE
  5
41
330
1F
100
AcDbEntity
  8
0
  6
CONTINUOUS
 62
     7
100
AcDbSpline
210
0.0
220
0.0
230
1.0
 70
     8
 71
     3
 72
    14
 73
    10
 74
     0
 42
0.00000001
 43
0.00000001
 40
0.0
 40
0.0
 40
0.0
 40
0.0
 40
0.25
 40
0.25
 40
0.5
 40
0.5
 40
0.75
 40
0.75
 40
1.0
 40
1.0
 40
1.0
 40
1.0
 10
27.6874059888323
 20
26.59621693907875
 30
0.0
 10
29.5969106736323
 20
26.59621693907875
 30
0.0
 10
31.42835110204589
 20
27.35482440320605
 30
0.0
 10
34.128798524705
 20
30.05527182586517
 30
0.0
 10
34.8874059888323
 20
31.88671225427876
 30
0.0
 10
34.88740598883229
 20
35.70572162387875
 30
0.0
 10
34.128798524705
 20
37.53716205229233
 30
0.0
 10
31.42835110204587
 20
40.23760947495146
 30
0.0
 10
29.59691067363229
 20
40.99621693907875
 30
0.0
 10
27.68740598883229
 20
40.99621693907875
 30
0.0
  0
CIRCLE
  5
42
330
1F
100
AcDbEntity
  8
0
  6
CONTINUOUS
 62
     7
100
AcDbCircle
 10
27.6874059888
 20
33.7962169391
 30
0.0
 40
7.500000000000007
  0
ARC
  5
43
330
1F
100
AcDbEntity
  8
0
  6
CONTINUOUS
 62
     7
100
AcDbCircle
 10
3.4116475045
 20
40.9962169391
 30
0.0
 40
0.3000000000000043
100
AcDbArc
 50
90.0
 51
180.0
  0
ARC
  5
44
330
1F
100
AcDbEntity
  8
0
  6
CONTINUOUS
 62
     7
100
AcDbCircle
 10
3.4116475045
 20
26.5962169391
 30
0.0
 40
0.3000000000000007
100
AcDbArc
 50
180.0
 51
270.0
  0
LINE
  5
45
330
1F
100
AcDbEntity
  8
0
  6
CONTINUOUS
 62
     7
100
AcDbLine
 10
3.4116475045
 20
26.2962169391
 30
0.0
 11
7.8116475045
 21
26.2962169391
 31
0.0
  0
LINE
  5
46
330
1F
100
AcDbEntity
  8
0
  6
CONTINUOUS
 62
     7
100
AcDbLine
 10
7.8116475045
 20
41.2962169391
 30
0.0
 11
3.4116475045
 21
41.2962169391
 31
0.0
  0
ARC
  5
47
330
1F
100
AcDbEntity
  8
0
  6
CONTINUOUS
 62
     7
100
AcDbCircle
 10
7.8116475045
 20
40.9962169391
 30
0.0
 40
0.3000000000000043
100
AcDbArc
 50
0.0
 51
90.0
  0
ARC
  5
48
330
1F
100
AcDbEntity
  8
0
  6
CONTINUOUS
 62
     7
100
AcDbCircle
 10
7.8116475045
 20
26.5962169391
 30
0.0
 40
0.3000000000000007
100
AcDbArc
 50
270.0
 51
0.0
  0
ARC
  5
49
330
1F
100
AcDbEntity
  8
0
  6
CONTINUOUS
 62
     7
100
AcDbCircle
 10
8.6240061533
 20
28.3559540458
 30
0.0
 40
0.5000000000003566
100
AcDbArc
 50
85.3963415651
 51
163.7084122108
  0
ARC
  5
4A
330
1F
100
AcDbEntity
  8
0
  6
CONTINUOUS
 62
     7
100
AcDbCircle
 10
8.6240061533
 20
39.2364798323
 30
0.0
 40
0.5000000000003576
100
AcDbArc
 50
196.2915877892
 51
274.6036584349
  0
LINE
  5
4B
330
1F
100
AcDbEntity
  8
0
  6
CONTINUOUS
 62
     7
100
AcDbLine
 10
13.1116475046
 20
28.4962169391
 30
0.0
 11
15.1116475046
 21
28.9962169391
 31
0.0
  0
LINE
  5
4C
330
1F
100
AcDbEntity
  8
0
  6
CONTINUOUS
 62
     7
100
AcDbLine
 10
15.1116475046
 20
38.5962169391
 30
0.0
 11
13.1116475046
 21
39.0962169391
 31
0.0
  0
LINE
  5
4D
330
1F
100
AcDbEntity
  8
0
  6
CONTINUOUS
 62
     7
100
AcDbLine
 10
13.1116475046
 20
39.0962169391
 30
0.0
 11
8.6641374384
 21
38.7380929546
 31
0.0
  0
LINE
  5
4E
330
1F
100
AcDbEntity
  8
0
  6
CONTINUOUS
 62
     7
100
AcDbLine
 10
8.6641374384
 20
28.8543409236
 30
0.0
 11
13.1116475046
 21
28.4962169391
 31
0.0
  0
LINE
  5
4F
330
1F
100
AcDbEntity
  8
0
  6
CONTINUOUS
 62
     7
100
AcDbLine
 10
8.1116475045
 20
28.4962169391
 30
0.0
 11
8.1440829086
 21
28.4962169391
 31
0.0
  0
LINE
  5
50
330
1F
100
AcDbEntity
  8
0
  6
CONTINUOUS
 62
     7
100
AcDbLine
 10
8.1440829086
 20
39.0962169391
 30
0.0
 11
8.1116475045
 21
39.0962169391
 31
0.0
  0
LINE
  5
51
330
1F
100
AcDbEntity
  8
0
  6
CONTINUOUS
 62
     7
100
AcDbLine
 10
3.8116475045
 20
30.9837169391
 30
0.0
 11
3.8116475045
 21
36.6087169391
 31
0.0
  0
LWPOLYLINE
  5
52
330
1F
100
AcDbEntity
  8
0
  6
CONTINUOUS
 62
     7
100
AcDbPolyline
 90
        9
 70
   128
 43
0.0
 10
3.8116475045
 20
36.6087169391
 10
3.8701746011
 20
36.6065552831
 10
3.9264525342
 20
36.6001533865
 10
3.9783185744
 20
36.5897572705
 10
4.0237795389
 20
36.575766452
 10
4.0610883882
 20
36.5587185903
 10
4.0888113643
 20
36.5392688252
 10
4.1058830886
 20
36.5181646003
 10
4.1116475045
 20
36.4962169391
  0
SPLINE
  5
53
330
1F
100
AcDbEntity
  8
0
  6
CONTINUOUS
 62
     7
100
AcDbSpline
210
0.0
220
0.0
230
1.0
 70
    24
 71
     3
 72
     8
 73
     4
 74
     0
 42
0.00000001
 43
0.00000001
 40
0.0
 40
0.0
 40
0.0
 40
0.0
 40
1.0
 40
1.0
 40
1.0
 40
1.0
 10
4.111647504520728
 20
36.49621693907875
 30
0.0
 10
4.111647504520724
 20
34.76443401464938
 30
0.0
 10
4.111647504520724
 20
32.82799986350812
 30
0.0
 10
4.111647504520728
 20
31.09621693907875
 30
0.0
  0
LWPOLYLINE
  5
54
330
1F
100
AcDbEntity
  8
0
  6
CONTINUOUS
 62
     7
100
AcDbPolyline
 90
        9
 70
   128
 43
0.0
 10
3.8116475045
 20
30.9837169391
 10
3.8701746011
 20
30.985878595
 10
3.9264525342
 20
30.9922804917
 10
3.9783185744
 20
31.0026766077
 10
4.0237795389
 20
31.0166674262
 10
4.0610883882
 20
31.0337152879
 10
4.0888113643
 20
31.0531650529
 10
4.1058830886
 20
31.0742692779
 10
4.1116475045
 20
31.0962169391
  0
SPLINE
  5
55
330
1F
100
AcDbEntity
  8
0
  6
CONTINUOUS
 62
     7
100
AcDbSpline
210
0.0
220
0.0
230
1.0
 70
    24
 71
     3
 72
    14
 73
    10
 74
     0
 42
0.00000001
 43
0.00000001
 40
0.0
 40
0.0
 40
0.0
 40
0.0
 40
0.25
 40
0.25
 40
0.5
 40
0.5
 40
0.75
 40
0.75
 40
1.0
 40
1.0
 40
1.0
 40
1.0
 10
3.111647504520751
 20
26.59621693907875
 30
0.0
 10
3.111647504520744
 20
26.59621693907875
 30
0.0
 10
3.111647504520738
 20
27.35482440320605
 30
0.0
 10
3.111647504520729
 20
30.05527182586517
 30
0.0
 10
3.111647504520726
 20
31.88671225427876
 30
0.0
 10
3.111647504520726
 20
35.70572162387875
 30
0.0
 10
3.111647504520729
 20
37.53716205229233
 30
0.0
 10
3.111647504520738
 20
40.23760947495146
 30
0.0
 10
3.111647504520744
 20
40.99621693907875
 30
0.0
 10
3.111647504520751
 20
40.99621693907875
 30
0.0
  0
SPLINE
  5
56
330
1F
100
AcDbEntity
  8
0
  6
CONTINUOUS
 62
     7
100
AcDbSpline
210
0.0
220
0.0
230
1.0
 70
     8
 71
     3
 72
    16
 73
    12
 74
     0
 42
0.00000001
 43
0.00000001
 40
0.0
 40
0.0
 40
0.0
 40
0.0
 40
0.0839966112557673
 40
0.1672876458540912
 40
0.250910723531002
 40
0.3765803624676838
 40
0.5003714662867346
 40
0.6262150077030972
 40
0.7505449644848498
 40
0.8771120941157717
 40
1.0
 40
1.0
 40
1.0
 40
1.0
 10
3.811647504520726
 20
36.60871693907875
 30
0.0
 10
3.812527770851352
 20
36.63489418812866
 30
0.0
 10
3.814280909221742
 20
36.68702879573994
 30
0.0
 10
3.828740408760589
 20
36.76382500471001
 30
0.0
 10
3.855616586860829
 20
36.85072137734161
 30
0.0
 10
3.901113979032765
 20
36.94460919720558
 30
0.0
 10
3.972048560681088
 20
37.03976224315245
 30
0.0
 10
4.061038367147046
 20
37.12092903205069
 30
0.0
 10
4.167831959091168
 20
37.18299894917992
 30
0.0
 10
4.286037692885003
 20
37.22564124036339
 30
0.0
 10
4.370191295756802
 20
37.23105163891232
 30
0.0
 10
4.411647504520727
 20
37.23371693907875
 30
0.0
  0
SPLINE
  5
57
330
1F
100
AcDbEntity
  8
0
  6
CONTINUOUS
 62
     7
100
AcDbSpline
210
0.0
220
0.0
230
1.0
 70
     8
 71
     3
 72
    17
 73
    13
 74
     0
 42
0.00000001
 43
0.00000001
 40
0.0
 40
0.0
 40
0.0
 40
0.0
 40
0.0624405942420249
 40
0.1244380089863514
 40
0.1869130565026771
 40
0.2507658870324611
 40
0.3736086618347407
 40
0.5003200205516459
 40
0.6245313295331474
 40
0.7499469773200257
 40
0.87435725487552
 40
1.0
 40
1.0
 40
1.0
 40
1.0
 10
4.411647504520726
 20
30.35871693907875
 30
0.0
 10
4.390610293460433
 20
30.3593717808176
 30
0.0
 10
4.348685185431804
 20
30.36067681647866
 30
0.0
 10
4.286637642169204
 20
30.37121479601489
 30
0.0
 10
4.225994971348402
 20
30.3880902906551
 30
0.0
 10
4.149353655353628
 20
30.41888316974631
 30
0.0
 10
4.06064180128244
 20
30.47138430625863
 30
0.0
 10
3.972103127233205
 20
30.55276267259413
 30
0.0
 10
3.900639519493689
 20
30.64816577036903
 30
0.0
 10
3.849829922647586
 20
30.75364727694387
 30
0.0
 10
3.817465000376497
 20
30.8665286228959
 30
0.0
 10
3.813593031225329
 20
30.94452602184331
 30
0.0
 10
3.811647504520726
 20
30.98371693907875
 30
0.0
  0
LINE
  5
58
330
1F
100
AcDbEntity
  8
0
  6
CONTINUOUS
 62
     7
100
AcDbLine
 10
7.8116475045
 20
30.3587169391
 30
0.0
 11
4.4116475045
 21
30.3587169391
 31
0.0
  0
LINE
  5
59
330
1F
100
AcDbEntity
  8
0
  6
CONTINUOUS
 62
     7
100
AcDbLine
 10
4.4116475045
 20
37.2337169391
 30
0.0
 11
7.8116475045
 21
37.2337169391
 31
0.0
  0
LINE
  5
5A
330
1F
100
AcDbEntity
  8
0
  6
CONTINUOUS
 62
     7
100
AcDbLine
 10
4.4116475045
 20
37.2337169391
 30
0.0
 11
4.4116475045
 21
36.7962169391
 31
0.0
  0
SPLINE
  5
5B
330
1F
100
AcDbEntity
  8
0
  6
CONTINUOUS
 62
     7
100
AcDbSpline
210
0.0
220
0.0
230
1.0
 70
     8
 71
     3
 72
    10
 73
     6
 74
     0
 42
0.00000001
 43
0.00000001
 40
0.0
 40
0.0
 40
0.0
 40
0.0
 40
0.5
 40
0.5
 40
1.0
 40
1.0
 40
1.0
 40
1.0
 10
4.411647504520726
 20
36.79621693907875
 30
0.0
 10
4.328280005405196
 20
36.79621693907875
 30
0.0
 10
4.249467573873859
 20
36.76044916281115
 30
0.0
 10
4.141081212321377
 20
36.64759355381394
 30
0.0
 10
4.111647504520728
 20
36.57304778909945
 30
0.0
 10
4.111647504520728
 20
36.49621693907875
 30
0.0
  0
LINE
  5
5C
330
1F
100
AcDbEntity
  8
0
  6
CONTINUOUS
 62
     7
100
AcDbLine
 10
4.4116475045
 20
30.3587169391
 30
0.0
 11
4.4116475045
 21
30.7962169391
 31
0.0
  0
SPLINE
  5
5D
330
1F
100
AcDbEntity
  8
0
  6
CONTINUOUS
 62
     7
100
AcDbSpline
210
0.0
220
0.0
230
1.0
 70
     8
 71
     3
 72
    10
 73
     6
 74
     0
 42
0.00000001
 43
0.00000001
 40
0.0
 40
0.0
 40
0.0
 40
0.0
 40
0.5
 40
0.5
 40
1.0
 40
1.0
 40
1.0
 40
1.0
 10
4.111647504520724
 20
31.09621693907875
 30
0.0
 10
4.111647504520724
 20
31.02037708891453
 30
0.0
 10
4.141369719242402
 20
30.94459983471143
 30
0.0
 10
4.248957381923277
 20
30.83245615434964
 30
0.0
 10
4.329377685729497
 20
30.79621693907875
 30
0.0
 10
4.411647504520727
 20
30.79621693907875
 30
0.0
  0
LWPOLYLINE
  5
5E
330
1F
100
AcDbEntity
  8
0
  6
CONTINUOUS
 62
     7
100
AcDbPolyline
 90
        9
 70
   128
 43
0.0
 10
7.8116475045
 20
37.2337169391
 10
7.8701746011
 20
37.2310749151
 10
7.9264525342
 20
37.2232503748
 10
7.9783185744
 20
37.2105440108
 10
8.0237795389
 20
37.1934441215
 10
8.0610883882
 20
37.1726078461
 10
8.0888113643
 20
37.148835911
 10
8.1058830886
 20
37.1230418584
 10
8.1116475045
 20
37.0962169391
  0
ARC
  5
5F
330
1F
100
AcDbEntity
  8
0
  6
CONTINUOUS
 62
     7
100
AcDbCircle
 10
7.8116475045
 20
37.0962169391
 30
0.0
 40
0.2999999999999998
100
AcDbArc
 50
270.0
 51
360.0
  0
LINE
  5
60
330
1F
100
AcDbEntity
  8
0
  6
CONTINUOUS
 62
     7
100
AcDbLine
 10
7.8116475045
 20
36.7962169391
 30
0.0
 11
7.8116475045
 21
37.0962169391
 31
0.0
  0
LINE
  5
61
330
1F
100
AcDbEntity
  8
0
  6
CONTINUOUS
 62
     7
100
AcDbLine
 10
7.8116475045
 20
37.0962169391
 30
0.0
 11
7.8116475045
 21
37.2337169391
 31
0.0
  0
LINE
  5
62
330
1F
100
AcDbEntity
  8
0
  6
CONTINUOUS
 62
     7
100
AcDbLine
 10
7.8116475045
 20
30.3587169391
 30
0.0
 11
7.8116475045
 21
30.4962169391
 31
0.0
  0
LINE
  5
63
330
1F
100
AcDbEntity
  8
0
  6
CONTINUOUS
 62
     7
100
AcDbLine
 10
7.8116475045
 20
30.4962169391
 30
0.0
 11
7.8116475045
 21
30.7962169391
 31
0.0
  0
ARC
  5
64
330
1F
100
AcDbEntity
  8
0
  6
CONTINUOUS
 62
     7
100
AcDbCircle
 10
7.8116475045
 20
30.4962169391
 30
0.0
 40
0.3000000000000007
100
AcDbArc
 50
0.0
 51
90.0
  0
LWPOLYLINE
  5
65
330
1F
100
AcDbEntity
  8
0
  6
CONTINUOUS
 62
     7
100
AcDbPolyline
 90
        9
 70
   128
 43
0.0
 10
8.1116475045
 20
30.4962169391
 10
8.1058830886
 20
30.4693920198
 10
8.0888113643
 20
30.4435979671
 10
8.0610883882
 20
30.419826032
 10
8.0237795389
 20
30.3989897567
 10
7.9783185744
 20
30.3818898674
 10
7.9264525342
 20
30.3691835034
 10
7.8701746011
 20
30.361358963
 10
7.8116475045
 20
30.3587169391
  0
LINE
  5
66
330
1F
100
AcDbEntity
  8
0
  6
CONTINUOUS
 62
     7
100
AcDbLine
 10
4.4116475045
 20
36.7962169391
 30
0.0
 11
7.8116475045
 21
36.7962169391
 31
0.0
  0
LINE
  5
67
330
1F
100
AcDbEntity
  8
0
  6
CONTINUOUS
 62
     7
100
AcDbLine
 10
7.8116475045
 20
30.7962169391
 30
0.0
 11
4.4116475045
 21
30.7962169391
 31
0.0
  0
SPLINE
  5
68
330
1F
100
AcDbEntity
  8
0
  6
CONTINUOUS
 62
     7
100
AcDbSpline
210
0.0
220
0.0
230
1.0
 70
    24
 71
     3
 72
     8
 73
     4
 74
     0
 42
0.00000001
 43
0.00000001
 40
0.0
 40
0.0
 40
0.0
 40
0.0
 40
1.0
 40
1.0
 40
1.0
 40
1.0
 10
8.111647504520729
 20
30.49621693907888
 30
0.0
 10
8.111647504520732
 20
28.10148709992485
 30
0.0
 10
8.111647504520741
 20
26.59621693907875
 30
0.0
 10
8.111647504520752
 20
26.59621693907875
 30
0.0
  0
SPLINE
  5
69
330
1F
100
AcDbEntity
  8
0
  6
CONTINUOUS
 62
     7
100
AcDbSpline
210
0.0
220
0.0
230
1.0
 70
    24
 71
     3
 72
     8
 73
     4
 74
     0
 42
0.00000001
 43
0.00000001
 40
0.0
 40
0.0
 40
0.0
 40
0.0
 40
1.0
 40
1.0
 40
1.0
 40
1.0
 10
8.111647504520752
 20
40.99621693907874
 30
0.0
 10
8.111647504520741
 20
40.99621693907875
 30
0.0
 10
8.111647504520732
 20
39.4909467782327
 30
0.0
 10
8.111647504520729
 20
37.09621693907875
 30
0.0
  0
SPLINE
  5
6A
330
1F
100
AcDbEntity
  8
0
  6
CONTINUOUS
 62
     7
100
AcDbSpline
210
0.0
220
0.0
230
1.0
 70
     8
 71
     3
 72
     8
 73
     4
 74
     0
 42
0.00000001
 43
0.00000001
 40
0.0
 40
0.0
 40
0.0
 40
0.0
 40
1.0
 40
1.0
 40
1.0
 40
1.0
 10
8.155428533805424
 20
37.16314479578553
 30
0.0
 10
8.147110024564578
 20
37.21135708255805
 30
0.0
 10
8.144082908589652
 20
37.25654836419607
 30
0.0
 10
8.144082908589652
 20
37.29421693907875
 30
0.0
  0
LINE
  5
6B
330
1F
100
AcDbEntity
  8
0
  6
CONTINUOUS
 62
     7
100
AcDbLine
 10
8.1440829086
 20
37.2942169391
 30
0.0
 11
8.1440829086
 21
39.0962169391
 31
0.0
  0
LINE
  5
6C
330
1F
100
AcDbEntity
  8
0
  6
CONTINUOUS
 62
     7
100
AcDbLine
 10
8.1440829086
 20
28.4962169391
 30
0.0
 11
8.1440829086
 21
30.2982169391
 31
0.0
  0
SPLINE
  5
6D
330
1F
100
AcDbEntity
  8
0
  6
CONTINUOUS
 62
     7
100
AcDbSpline
210
0.0
220
0.0
230
1.0
 70
     8
 71
     3
 72
     8
 73
     4
 74
     0
 42
0.00000001
 43
0.00000001
 40
0.0
 40
0.0
 40
0.0
 40
0.0
 40
1.0
 40
1.0
 40
1.0
 40
1.0
 10
8.144082908589652
 20
30.29821693907875
 30
0.0
 10
8.144082908589652
 20
30.3358822676609
 30
0.0
 10
8.14711152960002
 20
30.38108551840529
 30
0.0
 10
8.155428533782581
 20
30.42928908223957
 30
0.0
  0
SPLINE
  5
6E
330
1F
100
AcDbEntity
  8
0
  6
CONTINUOUS
 62
     7
100
AcDbSpline
210
0.0
220
0.0
230
1.0
 70
     8
 71
     3
 72
    14
 73
    10
 74
     0
 42
0.00000001
 43
0.00000001
 40
0.0
 40
0.0
 40
0.0
 40
0.0
 40
0.249999999999999
 40
0.249999999999999
 40
0.4999999999999993
 40
0.4999999999999993
 40
0.7499999999999997
 40
0.7499999999999997
 40
1.0
 40
1.0
 40
1.0
 40
1.0
 10
8.155427375658878
 20
30.42928935756049
 30
0.0
 10
8.17125081243293
 20
30.41207937461103
 30
0.0
 10
8.192618993598739
 20
30.39520896665837
 30
0.0
 10
8.247163454731274
 20
30.36254433765358
 30
0.0
 10
8.280802653491085
 20
30.34659529996693
 30
0.0
 10
8.359811929840962
 20
30.31839513761112
 30
0.0
 10
8.405894499872128
 20
30.30591488291701
 30
0.0
 10
8.508869367343172
 20
30.28803996848353
 30
0.0
 10
8.566112334563048
 20
30.28288986595443
 30
0.0
 10
8.624005915048173
 20
30.28283243009452
 30
0.0
  0
SPLINE
  5
6F
330
1F
100
AcDbEntity
  8
0
  6
CONTINUOUS
 62
     7
100
AcDbSpline
210
0.0
220
0.0
230
1.0
 70
     8
 71
     3
 72
     8
 73
     4
 74
     0
 42
0.00000001
 43
0.00000001
 40
0.0
 40
0.0
 40
0.0
 40
0.0
 40
1.0
 40
1.0
 40
1.0
 40
1.0
 10
8.62400623873921
 20
30.28283242977344
 30
0.0
 10
8.637380122774847
 20
30.28284016737106
 30
0.0
 10
8.650779795254184
 20
30.28311600901813
 30
0.0
 10
8.664137438369245
 20
30.28367349767473
 30
0.0
  0
SPLINE
  5
70
330
1F
100
AcDbEntity
  8
0
  6
CONTINUOUS
 62
     7
100
AcDbSpline
210
0.0
220
0.0
230
1.0
 70
     8
 71
     3
 72
     8
 73
     4
 74
     0
 42
0.00000001
 43
0.00000001
 40
0.0
 40
0.0
 40
0.0
 40
0.0
 40
1.0
 40
1.0
 40
1.0
 40
1.0
 10
8.664137438369245
 20
37.30876038048277
 30
0.0
 10
8.650821858930405
 20
37.30932233387455
 30
0.0
 10
8.637417014589682
 20
37.30960194968399
 30
0.0
 10
8.62400629924993
 20
37.30961221032096
 30
0.0
  0
SPLINE
  5
71
330
1F
100
AcDbEntity
  8
0
  6
CONTINUOUS
 62
     7
100
AcDbSpline
210
0.0
220
0.0
230
1.0
 70
     8
 71
     3
 72
    12
 73
     8
 74
     0
 42
0.00000001
 43
0.00000001
 40
0.0
 40
0.0
 40
0.0
 40
0.0
 40
0.2500000000000004
 40
0.2500000000000004
 40
0.5000000000000009
 40
0.5000000000000009
 40
1.0
 40
1.0
 40
1.0
 40
1.0
 10
8.62400629924993
 20
37.30961221032096
 30
0.0
 10
8.566471018074601
 20
37.30953835475884
 30
0.0
 10
8.509281277926481
 20
37.30445917473827
 30
0.0
 10
8.40615245144108
 20
37.2866011426172
 30
0.0
 10
8.360228481697881
 20
37.27417254006104
 30
0.0
 10
8.24168721941474
 20
37.23194422492592
 30
0.0
 10
8.187037918082845
 20
37.19749702344078
 30
0.0
 10
8.155428550930283
 20
37.16314479985756
 30
0.0
  0
SPLINE
  5
72
330
1F
100
AcDbEntity
  8
0
  6
CONTINUOUS
 62
     7
100
AcDbSpline
210
0.0
220
0.0
230
1.0
 70
     8
 71
     3
 72
    17
 73
    13
 74
     0
 42
0.00000001
 43
0.00000001
 40
0.0
 40
0.0
 40
0.0
 40
0.0
 40
0.0665386396412289
 40
0.1314884484385369
 40
0.1932511447108437
 40
0.2503471616016562
 40
0.3737857620023829
 40
0.5003481168747841
 40
0.615261647976571
 40
0.7503176756475431
 40
0.9333361906229737
 40
1.0
 40
1.0
 40
1.0
 40
1.0
 10
13.11190354399109
 20
37.28796410118436
 30
0.0
 10
13.11291839111693
 20
37.27597853209308
 30
0.0
 10
13.1149238525255
 20
37.25229358914922
 30
0.0
 10
13.1171385311068
 20
37.21283668944997
 30
0.0
 10
13.11854445263667
 20
37.17319003383441
 30
0.0
 10
13.11957328136864
 20
37.11891028059766
 30
0.0
 10
13.11961835746665
 20
37.04792373207481
 30
0.0
 10
13.11670548539988
 20
36.96759609091058
 30
0.0
 10
13.11176545885712
 20
36.89537034191953
 30
0.0
 10
13.10358273688276
 20
36.83111832066027
 30
0.0
 10
13.09365169010736
 20
36.79938204736801
 30
0.0
 10
13.08812660467215
 20
36.79688392423569
 30
0.0
 10
13.08665143720405
 20
36.79621693907875
 30
0.0
  0
ARC
  5
73
330
1F
100
AcDbEntity
  8
0
  6
CONTINUOUS
 62
     7
100
AcDbCircle
 10
9.9041404322
 20
37.1101771447
 30
0.0
 40
1.255803617719194
100
AcDbArc
 50
170.9014895639
 51
194.4779504699
  0
SPLINE
  5
74
330
1F
100
AcDbEntity
  8
0
  6
CONTINUOUS
 62
     7
100
AcDbSpline
210
0.0
220
0.0
230
1.0
 70
     8
 71
     3
 72
     8
 73
     4
 74
     0
 42
0.00000001
 43
0.00000001
 40
0.0
 40
0.0
 40
0.0
 40
0.0
 40
1.0
 40
1.0
 40
1.0
 40
1.0
 10
8.664137438369242
 20
37.30876038048277
 30
0.0
 10
10.14602258598014
 20
37.30329784041725
 30
0.0
 10
11.62860770509259
 20
37.29825177589596
 30
0.0
 10
13.11164750101816
 20
37.29353994546086
 30
0.0
  0
SPLINE
  5
75
330
1F
100
AcDbEntity
  8
0
  6
CONTINUOUS
 62
     7
100
AcDbSpline
210
0.0
220
0.0
230
1.0
 70
     8
 71
     3
 72
     8
 73
     4
 74
     0
 42
0.00000001
 43
0.00000001
 40
0.0
 40
0.0
 40
0.0
 40
0.0
 40
0.0000073649609158
 40
0.0000073649609158
 40
0.0000073649609158
 40
0.0000073649609158
 10
13.11190370789196
 20
37.28796402235099
 30
0.0
 10
13.11173369245938
 20
37.28983418413273
 30
0.0
 10
13.11164753290131
 20
37.29169530525375
 30
0.0
 10
13.11164742964486
 20
37.29353994499322
 30
0.0
  0
SPLINE
  5
76
330
1F
100
AcDbEntity
  8
0
  6
CONTINUOUS
 62
     7
100
AcDbSpline
210
0.0
220
0.0
230
1.0
 70
    24
 71
     3
 72
     8
 73
     4
 74
     0
 42
0.00000001
 43
0.00000001
 40
0.0
 40
0.0
 40
0.0
 40
0.0
 40
1.0
 40
1.0
 40
1.0
 40
1.0
 10
13.08665094879606
 20
36.79621693907875
 30
0.0
 10
11.61997984707223
 20
36.79621693907875
 30
0.0
 10
10.15375622685451
 20
36.79621693907875
 30
0.0
 10
8.688216209437066
 20
36.79621693907875
 30
0.0
  0
SPLINE
  5
77
330
1F
100
AcDbEntity
  8
0
  6
CONTINUOUS
 62
     7
100
AcDbSpline
210
0.0
220
0.0
230
1.0
 70
     8
 71
     3
 72
    17
 73
    13
 74
     0
 42
0.00000001
 43
0.00000001
 40
0.0
 40
0.0
 40
0.0
 40
0.0
 40
0.0664492539133497
 40
0.131347612149188
 40
0.1931250148060682
 40
0.2503291877422316
 40
0.373734323872496
 40
0.5003127157944514
 40
0.615180729587926
 40
0.750265533053645
 40
0.9320350378699263
 40
0.9999999999999999
 40
0.9999999999999999
 40
0.9999999999999999
 40
0.9999999999999999
 10
13.11190347884475
 20
30.30446982442474
 30
0.0
 10
13.11287911352284
 20
30.31643886537839
 30
0.0
 10
13.11480761200478
 20
30.34009759525709
 30
0.0
 10
13.11687645221008
 20
30.37952389876108
 30
0.0
 10
13.11841620690353
 20
30.41918316785441
 30
0.0
 10
13.11967265825777
 20
30.47348364040384
 30
0.0
 10
13.11938353254955
 20
30.5444925327965
 30
0.0
 10
13.11683269743986
 20
30.62481132372957
 30
0.0
 10
13.11149549737137
 20
30.69704468466502
 30
0.0
 10
13.1033745451218
 20
30.7611159195502
 30
0.0
 10
13.09508680493634
 20
30.79297908842721
 30
0.0
 10
13.08845561884146
 20
30.79552427054751
 30
0.0
 10
13.08665094879601
 20
30.79621693907875
 30
0.0
  0
SPLINE
  5
78
330
1F
100
AcDbEntity
  8
0
  6
CONTINUOUS
 62
     7
100
AcDbSpline
210
0.0
220
0.0
230
1.0
 70
     8
 71
     3
 72
     8
 73
     4
 74
     0
 42
0.00000001
 43
0.00000001
 40
0.0
 40
0.0
 40
0.0
 40
0.0
 40
0.0000073649497513
 40
0.0000073649497513
 40
0.0000073649497513
 40
0.0000073649497513
 10
13.11190370681166
 20
30.30446984392314
 30
0.0
 10
13.11173369199166
 20
30.30259968501978
 30
0.0
 10
13.11164753288431
 20
30.30073856677637
 30
0.0
 10
13.11164742964468
 20
30.29889392983729
 30
0.0
  0
SPLINE
  5
79
330
1F
100
AcDbEntity
  8
0
  6
CONTINUOUS
 62
     7
100
AcDbSpline
210
0.0
220
0.0
230
1.0
 70
     8
 71
     3
 72
     8
 73
     4
 74
     0
 42
0.00000001
 43
0.00000001
 40
0.0
 40
0.0
 40
0.0
 40
0.0
 40
1.0
 40
1.0
 40
1.0
 40
1.0
 10
13.11164750101816
 20
30.29889393269665
 30
0.0
 10
11.62860770509262
 20
30.29418210226184
 30
0.0
 10
10.14602258597952
 20
30.28913603774487
 30
0.0
 10
8.664137438369227
 20
30.28367349767473
 30
0.0
  0
ARC
  5
7A
330
1F
100
AcDbEntity
  8
0
  6
CONTINUOUS
 62
     7
100
AcDbCircle
 10
9.9041404322
 20
30.4822567334
 30
0.0
 40
1.255803617719481
100
AcDbArc
 50
165.5220495301
 51
189.0985104361
  0
SPLINE
  5
7B
330
1F
100
AcDbEntity
  8
0
  6
CONTINUOUS
 62
     7
100
AcDbSpline
210
0.0
220
0.0
230
1.0
 70
    24
 71
     3
 72
     8
 73
     4
 74
     0
 42
0.00000001
 43
0.00000001
 40
0.0
 40
0.0
 40
0.0
 40
0.0
 40
1.0
 40
1.0
 40
1.0
 40
1.0
 10
8.688216209437048
 20
30.79621693907875
 30
0.0
 10
10.15375622685333
 20
30.79621693907875
 30
0.0
 10
11.61997984707232
 20
30.79621693907875
 30
0.0
 10
13.08665094879601
 20
30.79621693907875
 30
0.0
  0
SPLINE
  5
7C
330
1F
100
AcDbEntity
  8
0
  6
CONTINUOUS
 62
     7
100
AcDbSpline
210
0.0
220
0.0
230
1.0
 70
     8
 71
     3
 72
    14
 73
    10
 74
     0
 42
0.00000001
 43
0.00000001
 40
0.0
 40
0.0
 40
0.0
 40
0.0
 40
0.0911871552882895
 40
0.1859117657032703
 40
0.2852313576318558
 40
0.3900644549681645
 40
0.5011929163985861
 40
0.70671455536677
 40
1.0
 40
1.0
 40
1.0
 40
1.0
 10
15.11164750452074
 20
37.09621693907875
 30
0.0
 10
15.11090890101795
 20
37.08029910095896
 30
0.0
 10
15.10940304110902
 20
37.04784591847208
 30
0.0
 10
15.09713799606573
 20
36.99997100115283
 30
0.0
 10
15.07725041948609
 20
36.95361925408693
 30
0.0
 10
15.04900527277659
 20
36.91025935732541
 30
0.0
 10
15.00344848900174
 20
36.86168937302759
 30
0.0
 10
14.9259019329086
 20
36.80981382722355
 30
0.0
 10
14.8539521086378
 20
36.80125141326331
 30
0.0
 10
14.81164750452074
 20
36.79621693907875
 30
0.0
  0
SPLINE
  5
7D
330
1F
100
AcDbEntity
  8
0
  6
CONTINUOUS
 62
     7
100
AcDbSpline
210
0.0
220
0.0
230
1.0
 70
     8
 71
     3
 72
     8
 73
     4
 74
     0
 42
0.00000001
 43
0.00000001
 40
0.0
 40
0.0
 40
0.0
 40
0.0
 40
1.0
 40
1.0
 40
1.0
 40
1.0
 10
13.1119035439911
 20
37.28796410118436
 30
0.0
 10
13.78159780882365
 20
37.29437319045319
 30
0.0
 10
14.44936690640993
 20
37.30140255477654
 30
0.0
 10
15.11164752528287
 20
37.30922429772568
 30
0.0
  0
SPLINE
  5
7E
330
1F
100
AcDbEntity
  8
0
  6
CONTINUOUS
 62
     7
100
AcDbSpline
210
0.0
220
0.0
230
1.0
 70
    24
 71
     3
 72
     8
 73
     4
 74
     0
 42
0.00000001
 43
0.00000001
 40
0.0
 40
0.0
 40
0.0
 40
0.0
 40
1.0
 40
1.0
 40
1.0
 40
1.0
 10
15.11164750452074
 20
37.09621694086945
 30
0.0
 10
15.11164750452074
 20
37.17679398490525
 30
0.0
 10
15.11164750452074
 20
37.25435278852866
 30
0.0
 10
15.11164750452074
 20
37.30922431571743
 30
0.0
  0
SPLINE
  5
7F
330
1F
100
AcDbEntity
  8
0
  6
CONTINUOUS
 62
     7
100
AcDbSpline
210
0.0
220
0.0
230
1.0
 70
    24
 71
     3
 72
     8
 73
     4
 74
     0
 42
0.00000001
 43
0.00000001
 40
0.0
 40
0.0
 40
0.0
 40
0.0
 40
1.0
 40
1.0
 40
1.0
 40
1.0
 10
13.08665143720405
 20
36.79621693907875
 30
0.0
 10
13.66390350692647
 20
36.79621693907875
 30
0.0
 10
14.23966028775683
 20
36.79621693907875
 30
0.0
 10
14.81164750452074
 20
36.79621693907875
 30
0.0
  0
SPLINE
  5
80
330
1F
100
AcDbEntity
  8
0
  6
CONTINUOUS
 62
     7
100
AcDbSpline
210
0.0
220
0.0
230
1.0
 70
     8
 71
     3
 72
    15
 73
    11
 74
     0
 42
0.00000001
 43
0.00000001
 40
0.0
 40
0.0
 40
0.0
 40
0.0
 40
0.1283982999201563
 40
0.2425929658812562
 40
0.3426148271370908
 40
0.4285138330997205
 40
0.5003734573107345
 40
0.681502458063824
 40
0.8466249009334235
 40
1.0
 40
1.0
 40
1.0
 40
1.0
 10
14.81164750452035
 20
30.79621693907875
 30
0.0
 10
14.83004159168459
 20
30.79525176953599
 30
0.0
 10
14.86479498143061
 20
30.7934281991141
 30
0.0
 10
14.91291347438489
 20
30.77982389254542
 30
0.0
 10
14.95323220932466
 20
30.76180313903019
 30
0.0
 10
14.98589625579666
 20
30.74128637279336
 30
0.0
 10
15.02622539990026
 20
30.70878782705948
 30
0.0
 10
15.06950768806664
 20
30.65692151776517
 30
0.0
 10
15.10507976288712
 20
30.57882944888541
 30
0.0
 10
15.10951275896406
 20
30.52306889186162
 30
0.0
 10
15.11164750452074
 20
30.49621693907875
 30
0.0
  0
SPLINE
  5
81
330
1F
100
AcDbEntity
  8
0
  6
CONTINUOUS
 62
     7
100
AcDbSpline
210
0.0
220
0.0
230
1.0
 70
    24
 71
     3
 72
     8
 73
     4
 74
     0
 42
0.00000001
 43
0.00000001
 40
0.0
 40
0.0
 40
0.0
 40
0.0
 40
1.0
 40
1.0
 40
1.0
 40
1.0
 10
15.11164750452073
 20
30.2832095624406
 30
0.0
 10
15.11164750452073
 20
30.33809664216918
 30
0.0
 10
15.11164750452074
 20
30.41559900726529
 30
0.0
 10
15.11164750452074
 20
30.49621693728805
 30
0.0
  0
SPLINE
  5
82
330
1F
100
AcDbEntity
  8
0
  6
CONTINUOUS
 62
     7
100
AcDbSpline
210
0.0
220
0.0
230
1.0
 70
     8
 71
     3
 72
     8
 73
     4
 74
     0
 42
0.00000001
 43
0.00000001
 40
0.0
 40
0.0
 40
0.0
 40
0.0
 40
1.0
 40
1.0
 40
1.0
 40
1.0
 10
15.11164752528253
 20
30.28320958043182
 30
0.0
 10
14.44936690640985
 20
30.29103132338135
 30
0.0
 10
13.78159780882349
 20
30.29806068770419
 30
0.0
 10
13.11190354399109
 20
30.30446977697313
 30
0.0
  0
SPLINE
  5
83
330
1F
100
AcDbEntity
  8
0
  6
CONTINUOUS
 62
     7
100
AcDbSpline
210
0.0
220
0.0
230
1.0
 70
    24
 71
     3
 72
     8
 73
     4
 74
     0
 42
0.00000001
 43
0.00000001
 40
0.0
 40
0.0
 40
0.0
 40
0.0
 40
1.0
 40
1.0
 40
1.0
 40
1.0
 10
14.81164750452036
 20
30.79621693907875
 30
0.0
 10
14.23966028775657
 20
30.79621693907875
 30
0.0
 10
13.66390350692624
 20
30.79621693907875
 30
0.0
 10
13.086651437204
 20
30.79621693907875
 30
0.0
  0
SPLINE
  5
84
330
1F
100
AcDbEntity
  8
0
  6
CONTINUOUS
 62
     7
100
AcDbSpline
210
0.0
220
0.0
230
1.0
 70
     8
 71
     3
 72
    16
 73
    12
 74
     0
 42
0.00000001
 43
0.00000001
 40
0.0
 40
0.0
 40
0.0
 40
0.0
 40
0.0833603492026494
 40
0.1668547959417489
 40
0.2504838900786935
 40
0.3767712644003198
 40
0.5001557026638553
 40
0.6322488038708993
 40
0.7504575448163202
 40
0.8755130694995298
 40
1.0
 40
1.0
 40
1.0
 40
1.0
 10
7.956047632980638
 20
36.79621693907875
 30
0.0
 10
7.964683444286699
 20
36.79677280500704
 30
0.0
 10
7.981968958887429
 20
36.79788543105674
 30
0.0
 10
8.00798820897262
 20
36.80684566704546
 30
0.0
 10
8.038890030024465
 20
36.82324611115974
 30
0.0
 10
8.072527156752308
 20
36.85129547447092
 30
0.0
 10
8.10691140163163
 20
36.89606513673726
 30
0.0
 10
8.135634301274875
 20
36.95189503214136
 30
0.0
 10
8.155421053542957
 20
37.01830629696956
 30
0.0
 10
8.163898379188254
 20
37.09067257615576
 30
0.0
 10
8.158247523685946
 20
37.13902411299139
 30
0.0
 10
8.155428533804375
 20
37.1631447957875
 30
0.0
  0
SPLINE
  5
85
330
1F
100
AcDbEntity
  8
0
  6
CONTINUOUS
 62
     7
100
AcDbSpline
210
0.0
220
0.0
230
1.0
 70
    24
 71
     3
 72
    12
 73
     8
 74
     0
 42
0.00000001
 43
0.00000001
 40
0.0
 40
0.0
 40
0.0
 40
0.0
 40
0.2499999999999998
 40
0.2499999999999998
 40
0.4999999999999996
 40
0.4999999999999996
 40
1.0
 40
1.0
 40
1.0
 40
1.0
 10
8.68821617157174
 20
36.79621693907894
 30
0.0
 10
8.610407457426037
 20
36.79621693907894
 30
0.0
 10
8.530656689536817
 20
36.79621693907894
 30
0.0
 10
8.380521843035545
 20
36.79621693907893
 30
0.0
 10
8.310131340993578
 20
36.79621693907893
 30
0.0
 10
8.121738686586472
 20
36.79621693907892
 30
0.0
 10
8.025201264361879
 20
36.79621693907891
 30
0.0
 10
7.956047632980688
 20
36.7962169390789
 30
0.0
  0
SPLINE
  5
86
330
1F
100
AcDbEntity
  8
0
  6
CONTINUOUS
 62
     7
100
AcDbSpline
210
0.0
220
0.0
230
1.0
 70
     8
 71
     3
 72
    16
 73
    12
 74
     0
 42
0.00000001
 43
0.00000001
 40
0.0
 40
0.0
 40
0.0
 40
0.0
 40
0.0832601276585637
 40
0.1661862699606748
 40
0.2499937691367621
 40
0.3681166260415539
 40
0.5002180184130787
 40
0.6143283413773971
 40
0.7498323279837705
 40
0.8744790079747901
 40
1.0
 40
1.0
 40
1.0
 40
1.0
 10
8.155428533804683
 20
30.42928908237042
 30
0.0
 10
8.157587139481775
 20
30.44525826064812
 30
0.0
 10
8.161895691917136
 20
30.47713255927028
 30
0.0
 10
8.160868138524085
 20
30.5265975084583
 30
0.0
 10
8.153404316963304
 20
30.58129634727385
 30
0.0
 10
8.135554296630184
 20
30.64056401779123
 30
0.0
 10
8.107763136257438
 20
30.69500805392768
 30
0.0
 10
8.072984317821197
 20
30.74009311142619
 30
0.0
 10
8.035563347426656
 20
30.77197720960384
 30
0.0
 10
7.995652191796926
 20
30.79248602868494
 30
0.0
 10
7.969279875491936
 20
30.79497040805822
 30
0.0
 10
7.956047632980638
 20
30.79621693907875
 30
0.0
  0
SPLINE
  5
87
330
1F
100
AcDbEntity
  8
0
  6
CONTINUOUS
 62
     7
100
AcDbSpline
210
0.0
220
0.0
230
1.0
 70
     8
 71
     3
 72
    12
 73
     8
 74
     0
 42
0.00000001
 43
0.00000001
 40
0.0
 40
0.0
 40
0.0
 40
0.0
 40
0.2500000000000008
 40
0.2500000000000008
 40
0.5000000000000016
 40
0.5000000000000016
 40
1.0
 40
1.0
 40
1.0
 40
1.0
 10
8.688216209437066
 20
30.79621693907875
 30
0.0
 10
8.609596913929787
 20
30.79621693907875
 30
0.0
 10
8.530038489004864
 20
30.79621693906355
 30
0.0
 10
8.380040029802943
 20
30.79621693900537
 30
0.0
 10
8.310113647320852
 20
30.79621693896254
 30
0.0
 10
8.121607247877643
 20
30.79621693880405
 30
0.0
 10
8.024822859730252
 20
30.79621693865906
 30
0.0
 10
7.956047632980629
 20
30.79621693850796
 30
0.0
  0
LINE
  5
88
330
1F
100
AcDbEntity
  8
0
  6
CONTINUOUS
 62
     7
100
AcDbLine
 10
8.1116475045
 20
30.2982169391
 30
0.0
 11
8.1440829086
 21
30.2982169391
 31
0.0
  0
LINE
  5
89
330
1F
100
AcDbEntity
  8
0
  6
CONTINUOUS
 62
     7
100
AcDbLine
 10
7.956047633
 20
30.7962169391
 30
0.0
 11
7.8116475045
 21
30.7962169391
 31
0.0
  0
LINE
  5
8A
330
1F
100
AcDbEntity
  8
0
  6
CONTINUOUS
 62
     7
100
AcDbLine
 10
8.1116475045
 20
37.2942169391
 30
0.0
 11
8.1440829086
 21
37.2942169391
 31
0.0
  0
LINE
  5
8B
330
1F
100
AcDbEntity
  8
0
  6
CONTINUOUS
 62
     7
100
AcDbLine
 10
7.8116475045
 20
36.7962169391
 30
0.0
 11
7.956047633
 21
36.7962169391
 31
0.0
  0
LINE
  5
8C
330
1F
100
AcDbEntity
  8
0
  6
CONTINUOUS
 62
     7
100
AcDbLine
 10
13.1116475045
 20
30.2988939322
 30
0.0
 11
13.1116475046
 21
28.4962169391
 31
0.0
  0
LINE
  5
8D
330
1F
100
AcDbEntity
  8
0
  6
CONTINUOUS
 62
     7
100
AcDbLine
 10
13.1116475046
 20
39.0962169391
 30
0.0
 11
13.1116475046
 21
37.2935399459
 31
0.0
  0
LINE
  5
8E
330
1F
100
AcDbEntity
  8
0
  6
CONTINUOUS
 62
     7
100
AcDbLine
 10
15.1116475046
 20
30.2832095802
 30
0.0
 11
15.1116475046
 21
28.9962169391
 31
0.0
  0
LINE
  5
8F
330
1F
100
AcDbEntity
  8
0
  6
CONTINUOUS
 62
     7
100
AcDbLine
 10
15.1116475046
 20
38.5962169391
 30
0.0
 11
15.1116475046
 21
37.309224298
 31
0.0
  0
LINE
  5
90
330
1F
100
AcDbEntity
  8
0
  6
CONTINUOUS
 62
     7
100
AcDbLine
 10
14.8116475045
 20
31.0962169391
 30
0.0
 11
14.8116475045
 21
30.7962169391
 31
0.0
  0
LINE
  5
91
330
1F
100
AcDbEntity
  8
0
  6
CONTINUOUS
 62
     7
100
AcDbLine
 10
15.1116475045
 20
31.0962169391
 30
0.0
 11
14.8116475045
 21
31.0962169391
 31
0.0
  0
SPLINE
  5
92
330
1F
100
AcDbEntity
  8
0
  6
CONTINUOUS
 62
     7
100
AcDbSpline
210
0.0
220
0.0
230
1.0
 70
    24
 71
     3
 72
    16
 73
    12
 74
     0
 42
0.00000001
 43
0.00000001
 40
0.0
 40
0.0
 40
0.0
 40
0.0
 40
0.0803902450337957
 40
0.1600175802236618
 40
0.2401462504188243
 40
0.369834829547261
 40
0.5000926012260003
 40
0.6297814361037992
 40
0.7600394646309447
 40
0.8795941200305978
 40
0.9999999999999999
 40
0.9999999999999999
 40
0.9999999999999999
 40
0.9999999999999999
 10
15.11164750452075
 20
31.09621693907875
 30
0.0
 10
15.11164750452076
 20
31.07097987991904
 30
0.0
 10
15.11164750452076
 20
31.02074526330604
 30
0.0
 10
15.11164750452075
 20
30.94652983103658
 30
0.0
 10
15.11164750452076
 20
30.85999271589646
 30
0.0
 10
15.11164750452075
 20
30.76443225102299
 30
0.0
 10
15.11164750452075
 20
30.66923156215515
 30
0.0
 10
15.11164750452075
 20
30.59099124683571
 30
0.0
 10
15.11164750452075
 20
30.53635449929252
 30
0.0
 10
15.11164750452075
 20
30.50229798926221
 30
0.0
 10
15.11164750452075
 20
30.49824874383999
 30
0.0
 10
15.11164750452075
 20
30.49621693907875
 30
0.0
  0
LINE
  5
93
330
1F
100
AcDbEntity
  8
0
  6
CONTINUOUS
 62
     7
100
AcDbLine
 10
14.8116475045
 20
36.7962169391
 30
0.0
 11
14.8116475045
 21
36.4962169391
 31
0.0
  0
LINE
  5
94
330
1F
100
AcDbEntity
  8
0
  6
CONTINUOUS
 62
     7
100
AcDbLine
 10
15.1116475045
 20
36.4962169391
 30
0.0
 11
14.8116475045
 21
36.4962169391
 31
0.0
  0
SPLINE
  5
95
330
1F
100
AcDbEntity
  8
0
  6
CONTINUOUS
 62
     7
100
AcDbSpline
210
0.0
220
0.0
230
1.0
 70
    24
 71
     3
 72
     8
 73
     4
 74
     0
 42
0.00000001
 43
0.00000001
 40
0.0
 40
0.0
 40
0.0
 40
0.0
 40
1.0
 40
1.0
 40
1.0
 40
1.0
 10
15.11164750452075
 20
37.09621693907875
 30
0.0
 10
15.11164750452075
 20
37.09621693907875
 30
0.0
 10
15.11164750452075
 20
36.82736594503261
 30
0.0
 10
15.11164750452075
 20
36.49621693907875
 30
0.0
  0
ARC
  5
96
330
1F
100
AcDbEntity
  8
0
  6
CONTINUOUS
 62
     7
100
AcDbCircle
 10
14.3116475045
 20
31.0962169391
 30
0.0
 40
0.3000000000000007
100
AcDbArc
 50
270.0
 51
0.0
  0
LINE
  5
97
330
1F
100
AcDbEntity
  8
0
  6
CONTINUOUS
 62
     7
100
AcDbLine
 10
14.6116475045
 20
31.0962169391
 30
0.0
 11
14.8116475045
 21
31.0962169391
 31
0.0
  0
ARC
  5
98
330
1F
100
AcDbEntity
  8
0
  6
CONTINUOUS
 62
     7
100
AcDbCircle
 10
14.3116475045
 20
36.4962169391
 30
0.0
 40
0.3000000000000043
100
AcDbArc
 50
0.0
 51
90.0
  0
LINE
  5
99
330
1F
100
AcDbEntity
  8
0
  6
CONTINUOUS
 62
     7
100
AcDbLine
 10
14.8116475045
 20
36.4962169391
 30
0.0
 11
14.6116475045
 21
36.4962169391
 31
0.0
  0
LINE
  5
9A
330
1F
100
AcDbEntity
  8
0
  6
CONTINUOUS
 62
     7
100
AcDbLine
 10
14.8116475045
 20
31.0962169391
 30
0.0
 11
14.8116475045
 21
36.4962169391
 31
0.0
  0
LINE
  5
9B
330
1F
100
AcDbEntity
  8
0
  6
CONTINUOUS
 62
     7
100
AcDbLine
 10
15.1116475045
 20
36.4962169391
 30
0.0
 11
15.1116475045
 21
31.0962169391
 31
0.0
  0
LINE
  5
9C
330
1F
100
AcDbEntity
  8
0
  6
CONTINUOUS
 62
     7
100
AcDbLine
 10
14.6116475045
 20
36.4962169391
 30
0.0
 11
14.6116475045
 21
31.0962169391
 31
0.0
  0
LINE
  5
9D
330
1F
100
AcDbEntity
  8
0
  6
CONTINUOUS
 62
     7
100
AcDbLine
 10
14.6116475045
 20
36.4962169391
 30
0.0
 11
4.1116475045
 21
36.4962169391
 31
0.0
  0
LINE
  5
9E
330
1F
100
AcDbEntity
  8
0
  6
CONTINUOUS
 62
     7
100
AcDbLine
 10
4.1116475045
 20
31.0962169391
 30
0.0
 11
14.6116475045
 21
31.0962169391
 31
0.0
  0
LINE
  5
9F
330
1F
100
AcDbEntity
  8
0
  6
CONTINUOUS
 62
     7
100
AcDbLine
 10
3.4116475045
 20
26.2962169391
 30
0.0
 11
3.4116475045
 21
41.2962169391
 31
0.0
  0
LINE
  5
A0
330
1F
100
AcDbEntity
  8
0
  6
CONTINUOUS
 62
     7
100
AcDbLine
 10
7.8116475045
 20
37.2337169391
 30
0.0
 11
7.8116475045
 21
41.2962169391
 31
0.0
  0
LINE
  5
A1
330
1F
100
AcDbEntity
  8
0
  6
CONTINUOUS
 62
     7
100
AcDbLine
 10
7.8116475045
 20
26.2962169391
 30
0.0
 11
7.8116475045
 21
30.3587169391
 31
0.0
  0
LINE
  5
A2
330
1F
100
AcDbEntity
  8
0
  6
CONTINUOUS
 62
     7
100
AcDbLine
 10
8.6641374384
 20
30.2836734977
 30
0.0
 11
8.6641374384
 21
28.8543409236
 31
0.0
  0
LINE
  5
A3
330
1F
100
AcDbEntity
  8
0
  6
CONTINUOUS
 62
     7
100
AcDbLine
 10
8.6641374384
 20
38.7380929546
 30
0.0
 11
8.6641374384
 21
37.3087603805
 31
0.0
  0
ARC
  5
A4
330
1F
100
AcDbEntity
  8
0
  6
CONTINUOUS
 62
     7
100
AcDbCircle
 10
20.4874059888
 20
10.7692907953
 30
0.0
 40
0.2999999999999989
100
AcDbArc
 50
90.0
 51
180.0
  0
ARC
  5
A5
330
1F
100
AcDbEntity
  8
0
  6
CONTINUOUS
 62
     7
100
AcDbCircle
 10
20.4874059888
 20
6.3692907953
 30
0.0
 40
0.2999999999999998
100
AcDbArc
 50
180.0
 51
270.0
  0
ARC
  5
A6
330
1F
100
AcDbEntity
  8
0
  6
CONTINUOUS
 62
     7
100
AcDbCircle
 10
34.8874059888
 20
6.3692907953
 30
0.0
 40
0.3000000000000043
100
AcDbArc
 50
270.0
 51
0.0
  0
LINE
  5
A7
330
1F
100
AcDbEntity
  8
0
  6
CONTINUOUS
 62
     7
100
AcDbLine
 10
35.1874059888
 20
6.3692907953
 30
0.0
 11
35.1874059888
 21
6.7692907953
 31
0.0
  0
LINE
  5
A8
330
1F
100
AcDbEntity
  8
0
  6
CONTINUOUS
 62
     7
100
AcDbLine
 10
20.1874059888
 20
10.7692907953
 30
0.0
 11
20.1874059888
 21
6.3692907953
 31
0.0
  0
ARC
  5
A9
330
1F
100
AcDbEntity
  8
0
  6
CONTINUOUS
 62
     7
100
AcDbCircle
 10
22.2471430956
 20
11.581649444
 30
0.0
 40
0.5000000000003576
100
AcDbArc
 50
286.2915877892
 51
4.6036584349
  0
LINE
  5
AA
330
1F
100
AcDbEntity
  8
0
  6
CONTINUOUS
 62
     7
100
AcDbLine
 10
22.3874059888
 20
16.0692907953
 30
0.0
 11
22.7455299734
 21
11.6217807291
 31
0.0
  0
LINE
  5
AB
330
1F
100
AcDbEntity
  8
0
  6
CONTINUOUS
 62
     7
100
AcDbLine
 10
22.8874059888
 20
18.0692907953
 30
0.0
 11
22.3874059888
 21
16.0692907953
 31
0.0
  0
LINE
  5
AC
330
1F
100
AcDbEntity
  8
0
  6
CONTINUOUS
 62
     7
100
AcDbLine
 10
22.3874059888
 20
11.1017261993
 30
0.0
 11
22.3874059888
 21
11.0692907953
 31
0.0
  0
ARC
  5
AD
330
1F
100
AcDbEntity
  8
0
  6
CONTINUOUS
 62
     7
100
AcDbCircle
 10
34.0866246911
 20
10.7692907953
 30
0.0
 40
0.3000000000000043
100
AcDbArc
 50
0.0
 51
90.0
  0
SPLINE
  5
AE
330
1F
100
AcDbEntity
  8
0
  6
CONTINUOUS
 62
     7
100
AcDbSpline
210
0.0
220
0.0
230
1.0
 70
     8
 71
     3
 72
    13
 73
     9
 74
     0
 42
0.00000001
 43
0.00000001
 40
0.0
 40
0.0
 40
0.0
 40
0.0
 40
0.331002479099993
 40
0.6153856487179603
 40
0.7337352321762277
 40
0.8345803274725113
 40
0.9210123335049033
 40
1.0
 40
1.0
 40
1.0
 40
1.0
 10
31.74906745399192
 20
11.11643440384474
 30
0.0
 10
31.67018351128888
 20
11.14431543093941
 30
0.0
 10
31.52352585970348
 20
11.1961506437518
 30
0.0
 10
31.37549383595778
 20
11.31349466000386
 30
0.0
 10
31.29813064670856
 20
11.41487582156009
 30
0.0
 10
31.26405195530069
 20
11.48462005156907
 30
0.0
 10
31.24815555667322
 20
11.55080565514797
 30
0.0
 10
31.25031327404025
 20
11.59204767902417
 30
0.0
 10
31.25134358112026
 20
11.61174068879588
 30
0.0
  0
SPLINE
  5
AF
330
1F
100
AcDbEntity
  8
0
  6
CONTINUOUS
 62
     7
100
AcDbSpline
210
0.0
220
0.0
230
1.0
 70
     8
 71
     3
 72
     9
 73
     5
 74
     0
 42
0.00000001
 43
0.00000001
 40
0.0
 40
0.0
 40
0.0
 40
0.0
 40
0.4603074695815627
 40
1.0
 40
1.0
 40
1.0
 40
1.0
 10
31.74909641429929
 20
16.06477367727242
 30
0.0
 10
31.64577719967189
 20
16.37356266828593
 30
0.0
 10
31.4213202411061
 20
17.04439469126876
 30
0.0
 10
31.18170535969536
 20
17.70996803332154
 30
0.0
 10
31.05238699802088
 20
18.06917299447306
 30
0.0
  0
SPLINE
  5
B0
330
1F
100
AcDbEntity
  8
0
  6
CONTINUOUS
 62
     7
100
AcDbSpline
210
0.0
220
0.0
230
1.0
 70
     8
 71
     3
 72
     9
 73
     5
 74
     0
 42
0.00000001
 43
0.00000001
 40
0.0
 40
0.0
 40
0.0
 40
0.0
 40
0.4565162699159503
 40
1.0
 40
1.0
 40
1.0
 40
1.0
 10
31.25134352955851
 20
11.61174069469826
 30
0.0
 10
31.32830938174565
 20
12.29094709524739
 30
0.0
 10
31.49690326822712
 20
13.77875036822644
 30
0.0
 10
31.65756576875025
 20
15.26743187547749
 30
0.0
 10
31.7448832238192
 20
16.07650605394545
 30
0.0
  0
LINE
  5
B1
330
1F
100
AcDbEntity
  8
0
  6
CONTINUOUS
 62
     7
100
AcDbLine
 10
31.743733983
 20
11.0692907953
 30
0.0
 11
31.743733983
 21
11.1294064572
 31
0.0
  0
LINE
  5
B2
330
1F
100
AcDbEntity
  8
0
  6
CONTINUOUS
 62
     7
100
AcDbLine
 10
34.3866246911
 20
7.3692907953
 30
0.0
 11
34.3866246911
 21
10.7692907953
 31
0.0
  0
SPLINE
  5
B3
330
1F
100
AcDbEntity
  8
0
  6
CONTINUOUS
 62
     7
100
AcDbSpline
210
0.0
220
0.0
230
1.0
 70
     8
 71
     3
 72
    12
 73
     8
 74
     0
 42
0.00000001
 43
0.00000001
 40
0.0
 40
0.0
 40
0.0
 40
0.0
 40
0.1661539394206183
 40
0.2708958698373737
 40
0.5604984500639582
 40
0.7606595560691408
 40
1.0
 40
1.0
 40
1.0
 40
1.0
 10
34.45658042032041
 20
7.048722605505044
 30
0.0
 10
34.4570167961568
 20
7.049216484757082
 30
0.0
 10
34.45772825934682
 20
7.050021700992351
 30
0.0
 10
34.43642313003959
 20
7.088560391650697
 30
0.0
 10
34.41144439809531
 20
7.15722683415491
 30
0.0
 10
34.39081117977275
 20
7.259211952636971
 30
0.0
 10
34.38810072819827
 20
7.330480115764773
 30
0.0
 10
34.38662469089377
 20
7.369290795280301
 30
0.0
  0
ARC
  5
B4
330
1F
100
AcDbEntity
  8
0
  6
CONTINUOUS
 62
     7
100
AcDbCircle
 10
34.8874059888
 20
6.7692907953
 30
0.0
 40
0.3000000000000043
100
AcDbArc
 50
0.0
 51
90.0
  0
SPLINE
  5
B5
330
1F
100
AcDbEntity
  8
0
  6
CONTINUOUS
 62
     7
100
AcDbSpline
210
0.0
220
0.0
230
1.0
 70
    24
 71
     3
 72
    10
 73
     6
 74
     0
 42
0.00000001
 43
0.00000001
 40
0.0
 40
0.0
 40
0.0
 40
0.0
 40
0.4999999999999999
 40
0.4999999999999999
 40
0.9999999999999999
 40
0.9999999999999999
 40
0.9999999999999999
 40
0.9999999999999999
 10
20.48740598883229
 20
11.0692907952803
 30
0.0
 10
20.48740598883225
 20
11.0692907952803
 30
0.0
 10
21.24601345295955
 20
11.0692907952803
 30
0.0
 10
23.94646087561864
 20
11.0692907952803
 30
0.0
 10
25.77790130403229
 20
11.0692907952803
 30
0.0
 10
27.68740598883229
 20
11.0692907952803
 30
0.0
  0
SPLINE
  5
B6
330
1F
100
AcDbEntity
  8
0
  6
CONTINUOUS
 62
     7
100
AcDbSpline
210
0.0
220
0.0
230
1.0
 70
    24
 71
     3
 72
     8
 73
     4
 74
     0
 42
0.00000001
 43
0.00000001
 40
0.0
 40
0.0
 40
0.0
 40
0.0
 40
1.0
 40
1.0
 40
1.0
 40
1.0
 10
27.68740598883229
 20
11.0692907952803
 30
0.0
 10
30.38180598420722
 20
11.0692907952803
 30
0.0
 10
32.85169135992924
 20
11.0692907952803
 30
0.0
 10
34.08662469114275
 20
11.0692907952803
 30
0.0
  0
ARC
  5
B7
330
1F
100
AcDbEntity
  8
0
  6
CONTINUOUS
 62
     7
100
AcDbCircle
 10
34.0688979177
 20
10.7850460036
 30
0.0
 40
0.2847970155839177
100
AcDbArc
 50
356.8287307499
 51
86.4314012465
  0
SPLINE
  5
B8
330
1F
100
AcDbEntity
  8
0
  6
CONTINUOUS
 62
     7
100
AcDbSpline
210
0.0
220
0.0
230
1.0
 70
    24
 71
     3
 72
    10
 73
     6
 74
     0
 42
0.00000001
 43
0.00000001
 40
0.0
 40
0.0
 40
0.0
 40
0.0
 40
0.5
 40
0.5
 40
1.0
 40
1.0
 40
1.0
 40
1.0
 10
27.68740598883229
 20
6.069290795280305
 30
0.0
 10
25.77790130403229
 20
6.069290795280305
 30
0.0
 10
23.94646087561879
 20
6.069290795280305
 30
0.0
 10
21.24601345295963
 20
6.069290795280305
 30
0.0
 10
20.48740598883234
 20
6.069290795280305
 30
0.0
 10
20.48740598883229
 20
6.069290795280305
 30
0.0
  0
SPLINE
  5
B9
330
1F
100
AcDbEntity
  8
0
  6
CONTINUOUS
 62
     7
100
AcDbSpline
210
0.0
220
0.0
230
1.0
 70
    24
 71
     3
 72
    10
 73
     6
 74
     0
 42
0.00000001
 43
0.00000001
 40
0.0
 40
0.0
 40
0.0
 40
0.0
 40
0.5
 40
0.5
 40
1.0
 40
1.0
 40
1.0
 40
1.0
 10
34.88740598883229
 20
6.069290795280305
 30
0.0
 10
34.88740598883234
 20
6.069290795280305
 30
0.0
 10
34.12879852470505
 20
6.069290795280305
 30
0.0
 10
31.42835110204595
 20
6.069290795280305
 30
0.0
 10
29.59691067363229
 20
6.069290795280305
 30
0.0
 10
27.68740598883229
 20
6.069290795280305
 30
0.0
  0
SPLINE
  5
BA
330
1F
100
AcDbEntity
  8
0
  6
CONTINUOUS
 62
     7
100
AcDbSpline
210
0.0
220
0.0
230
1.0
 70
     8
 71
     3
 72
    16
 73
    12
 74
     0
 42
0.00000001
 43
0.00000001
 40
0.0
 40
0.0
 40
0.0
 40
0.0
 40
0.0839966112557673
 40
0.1672876458540912
 40
0.250910723531002
 40
0.3765803624676838
 40
0.5003714662867346
 40
0.6262150077030972
 40
0.7505449644848498
 40
0.8771120941157717
 40
1.0
 40
1.0
 40
1.0
 40
1.0
 10
34.64009207048447
 20
6.769290795280305
 30
0.0
 10
34.62940294307802
 20
6.77017106161093
 30
0.0
 10
34.60811447758724
 20
6.771924199981321
 30
0.0
 10
34.57546752935254
 20
6.786383699520168
 30
0.0
 10
34.53747836202321
 20
6.813259877620408
 30
0.0
 10
34.49487975462872
 20
6.858757269792343
 30
0.0
 10
34.44999870503215
 20
6.929691851440666
 30
0.0
 10
34.4103822322034
 20
7.018681657906624
 30
0.0
 10
34.37925793219332
 20
7.125475249850745
 30
0.0
 10
34.35743487149813
 20
7.243680983644579
 30
0.0
 10
34.35463707136461
 20
7.32783458651638
 30
0.0
 10
34.35325880373902
 20
7.369290795280305
 30
0.0
  0
LINE
  5
BB
330
1F
100
AcDbEntity
  8
0
  6
CONTINUOUS
 62
     7
100
AcDbLine
 10
34.3532588037
 20
7.3692907953
 30
0.0
 11
34.3532588037
 21
10.7692907953
 31
0.0
  0
SPLINE
  5
BC
330
1F
100
AcDbEntity
  8
0
  6
CONTINUOUS
 62
     7
100
AcDbSpline
210
0.0
220
0.0
230
1.0
 70
     8
 71
     3
 72
     8
 73
     4
 74
     0
 42
0.00000001
 43
0.00000001
 40
0.0
 40
0.0
 40
0.0
 40
0.0
 40
1.0
 40
1.0
 40
1.0
 40
1.0
 10
31.73617314250963
 20
11.11307182456499
 30
0.0
 10
31.72513924053026
 20
11.10475331532415
 30
0.0
 10
31.70220616613426
 20
11.10172619934922
 30
0.0
 10
31.6691136626828
 20
11.10172619934922
 30
0.0
  0
LINE
  5
BD
330
1F
100
AcDbEntity
  8
0
  6
CONTINUOUS
 62
     7
100
AcDbLine
 10
31.6691136627
 20
11.1017261993
 30
0.0
 11
22.3874059888
 21
11.1017261993
 31
0.0
  0
SPLINE
  5
BE
330
1F
100
AcDbEntity
  8
0
  6
CONTINUOUS
 62
     7
100
AcDbSpline
210
0.0
220
0.0
230
1.0
 70
     8
 71
     3
 72
     8
 73
     4
 74
     0
 42
0.00000001
 43
0.00000001
 40
0.0
 40
0.0
 40
0.0
 40
0.0
 40
1.0
 40
1.0
 40
1.0
 40
1.0
 10
31.16363629256882
 20
11.62178072912881
 30
0.0
 10
31.16154420617114
 20
11.60846514968997
 30
0.0
 10
31.16053842835978
 20
11.59506030534925
 30
0.0
 10
31.16057176417163
 20
11.5816495900095
 30
0.0
  0
SPLINE
  5
BF
330
1F
100
AcDbEntity
  8
0
  6
CONTINUOUS
 62
     7
100
AcDbSpline
210
0.0
220
0.0
230
1.0
 70
     8
 71
     3
 72
    12
 73
     8
 74
     0
 42
0.00000001
 43
0.00000001
 40
0.0
 40
0.0
 40
0.0
 40
0.0
 40
0.2500000000000004
 40
0.2500000000000004
 40
0.5000000000000009
 40
0.5000000000000009
 40
1.0
 40
1.0
 40
1.0
 40
1.0
 10
31.16057176417163
 20
11.5816495900095
 30
0.0
 10
31.16083397086812
 20
11.52411430883417
 30
0.0
 10
31.18039541007961
 20
11.46692456868605
 30
0.0
 10
31.24936525075671
 20
11.36379574220065
 30
0.0
 10
31.29743627568268
 20
11.31787177245745
 30
0.0
 10
31.46180135486765
 20
11.19933051017431
 30
0.0
 10
31.5971861273713
 20
11.14468120884241
 30
0.0
 10
31.73617314741139
 20
11.11307184168985
 30
0.0
  0
LINE
  5
C0
330
1F
100
AcDbEntity
  8
0
  6
CONTINUOUS
 62
     7
100
AcDbLine
 10
22.3874059888
 20
16.0692907953
 30
0.0
 11
31.6697083111
 21
16.0692907953
 31
0.0
  0
SPLINE
  5
C1
330
1F
100
AcDbEntity
  8
0
  6
CONTINUOUS
 62
     7
100
AcDbSpline
210
0.0
220
0.0
230
1.0
 70
     8
 71
     3
 72
     8
 73
     4
 74
     0
 42
0.00000001
 43
0.00000001
 40
0.0
 40
0.0
 40
0.0
 40
0.0
 40
1.0
 40
1.0
 40
1.0
 40
1.0
 10
31.16363629256882
 20
11.62178072912881
 30
0.0
 10
31.33879044758558
 20
13.10366587673971
 30
0.0
 10
31.50664076545994
 20
14.58625099585216
 30
0.0
 10
31.66970834405392
 20
16.06929079177772
 30
0.0
  0
LINE
  5
C2
330
1F
100
AcDbEntity
  8
0
  6
CONTINUOUS
 62
     7
100
AcDbLine
 10
22.8874059888
 20
18.0692907953
 30
0.0
 11
30.9583048403
 21
18.0692907953
 31
0.0
  0
SPLINE
  5
C3
330
1F
100
AcDbEntity
  8
0
  6
CONTINUOUS
 62
     7
100
AcDbSpline
210
0.0
220
0.0
230
1.0
 70
     8
 71
     3
 72
     8
 73
     4
 74
     0
 42
0.00000001
 43
0.00000001
 40
0.0
 40
0.0
 40
0.0
 40
0.0
 40
1.0
 40
1.0
 40
1.0
 40
1.0
 10
31.67451335544152
 20
16.06954683475067
 30
0.0
 10
31.44636152872007
 20
16.73924109958322
 30
0.0
 10
31.20968458644694
 20
17.4070101971695
 30
0.0
 10
30.95830489697295
 20
18.06929081604244
 30
0.0
  0
SPLINE
  5
C4
330
1F
100
AcDbEntity
  8
0
  6
CONTINUOUS
 62
     7
100
AcDbSpline
210
0.0
220
0.0
230
1.0
 70
     8
 71
     3
 72
     8
 73
     4
 74
     0
 42
0.00000001
 43
0.00000001
 40
0.0
 40
0.0
 40
0.0
 40
0.0
 40
0.0000073649609158
 40
0.0000073649609158
 40
0.0000073649609158
 40
0.0000073649609158
 10
31.67451313207058
 20
16.06954699865154
 30
0.0
 10
31.67293181910497
 20
16.06937698321895
 30
0.0
 10
31.67132829522687
 20
16.06929082366088
 30
0.0
 10
31.66970833681589
 20
16.06929072040443
 30
0.0
  0
LINE
  5
C5
330
1F
100
AcDbEntity
  8
0
  6
CONTINUOUS
 62
     7
100
AcDbLine
 10
31.6691136627
 20
11.0692907953
 30
0.0
 11
31.6691136627
 21
11.1017261993
 31
0.0
  0
LINE
  5
C6
330
1F
100
AcDbEntity
  8
0
  6
CONTINUOUS
 62
     7
100
AcDbLine
 10
34.3866246911
 20
10.7692907953
 30
0.0
 11
34.3532588037
 21
10.7692907953
 31
0.0
  0
SPLINE
  5
C7
330
1F
100
AcDbEntity
  8
0
  6
CONTINUOUS
 62
     7
100
AcDbSpline
210
0.0
220
0.0
230
1.0
 70
     8
 71
     3
 72
     9
 73
     5
 74
     0
 42
0.00000001
 43
0.00000001
 40
0.0
 40
0.0
 40
0.0
 40
0.0
 40
0.1810528606201714
 40
1.0
 40
1.0
 40
1.0
 40
1.0
 10
31.74142337986239
 20
11.11699827641852
 30
0.0
 10
31.74229424411856
 20
11.11765106686873
 30
0.0
 10
31.74710424409971
 20
11.12125659095696
 30
0.0
 10
31.74109466781578
 20
11.11675686349604
 30
0.0
 10
31.73617314250918
 20
11.11307182456394
 30
0.0
  0
SPLINE
  5
C8
330
1F
100
AcDbEntity
  8
0
  6
CONTINUOUS
 62
     7
100
AcDbSpline
210
0.0
220
0.0
230
1.0
 70
     8
 71
     3
 72
    10
 73
     6
 74
     0
 42
0.00000001
 43
0.00000001
 40
0.0
 40
0.0
 40
0.0
 40
0.0
 40
0.4320998282344838
 40
0.8228748957336434
 40
1.0
 40
1.0
 40
1.0
 40
1.0
 10
31.67451335544153
 20
16.06954683475065
 30
0.0
 10
31.69155632929471
 20
16.07144143082545
 30
0.0
 10
31.72401233694861
 20
16.07504942936106
 30
0.0
 10
31.74474387458958
 20
16.07705785290269
 30
0.0
 10
31.74265781229844
 20
16.07687611737577
 30
0.0
 10
31.74200718034023
 20
16.07681943501194
 30
0.0
  0
SPLINE
  5
C9
330
1F
100
AcDbEntity
  8
0
  6
CONTINUOUS
 62
     7
100
AcDbSpline
210
0.0
220
0.0
230
1.0
 70
    24
 71
     3
 72
     8
 73
     4
 74
     0
 42
0.00000001
 43
0.00000001
 40
0.0
 40
0.0
 40
0.0
 40
0.0
 40
1.0
 40
1.0
 40
1.0
 40
1.0
 10
31.05279758272013
 20
18.06929079528031
 30
0.0
 10
31.05280287301021
 20
18.06929079528031
 30
0.0
 10
31.01723456004287
 20
18.06929079528031
 30
0.0
 10
30.95830488526786
 20
18.06929079528031
 30
0.0
  0
SPLINE
  5
CA
330
1F
100
AcDbEntity
  8
0
  6
CONTINUOUS
 62
     7
100
AcDbSpline
210
0.0
220
0.0
230
1.0
 70
    24
 71
     3
 72
    11
 73
     7
 74
     0
 42
0.00000001
 43
0.00000001
 40
0.0
 40
0.0
 40
0.0
 40
0.0
 40
0.2813863718744171
 40
0.5629858725027512
 40
0.8391271171197249
 40
1.0
 40
1.0
 40
1.0
 40
1.0
 10
34.88740598883229
 20
7.069290795280306
 30
0.0
 10
34.88108259231416
 20
7.069290795280306
 30
0.0
 10
34.86843100978644
 20
7.069290795280306
 30
0.0
 10
34.76146751943295
 20
7.069290795280306
 30
0.0
 10
34.62732416799219
 20
7.069290795280306
 30
0.0
 10
34.50262794392858
 20
7.069290795280306
 30
0.0
 10
34.4567249861357
 20
7.069290795280306
 30
0.0
  0
SPLINE
  5
CB
330
1F
100
AcDbEntity
  8
0
  6
CONTINUOUS
 62
     7
100
AcDbSpline
210
0.0
220
0.0
230
1.0
 70
     8
 71
     3
 72
     9
 73
     5
 74
     0
 42
0.00000001
 43
0.00000001
 40
0.0
 40
0.0
 40
0.0
 40
0.0
 40
0.2565025519706954
 40
1.0
 40
1.0
 40
1.0
 40
1.0
 10
31.74310780111382
 20
11.11825931302349
 30
0.0
 10
31.74335693865398
 20
11.11844572608853
 30
0.0
 10
31.74432822544329
 20
11.1191724754468
 30
0.0
 10
31.7426602538743
 20
11.11792286400869
 30
0.0
 10
31.74142012126936
 20
11.11699378109341
 30
0.0
  0
LINE
  5
CC
330
1F
100
AcDbEntity
  8
0
  6
CONTINUOUS
 62
     7
100
AcDbLine
 10
34.3532588037
 20
10.7692907953
 30
0.0
 11
20.1874059888
 21
10.7692907953
 31
0.0
  0
LINE
  5
CD
330
1F
100
AcDbEntity
  8
0
  6
CONTINUOUS
 62
     7
100
AcDbLine
 10
27.6874059888
 20
6.3692907953
 30
0.0
 11
20.1874059888
 21
6.3692907953
 31
0.0
  0
LINE
  5
CE
330
1F
100
AcDbEntity
  8
0
  6
CONTINUOUS
 62
     7
100
AcDbLine
 10
35.1874059888
 20
6.3692907953
 30
0.0
 11
27.6874059888
 21
6.3692907953
 31
0.0
  0
LINE
  5
CF
330
1F
100
AcDbEntity
  8
0
  6
CONTINUOUS
 62
     7
100
AcDbLine
 10
35.1874059888
 20
6.7692907953
 30
0.0
 11
34.6400920705
 21
6.7692907953
 31
0.0
  0
LINE
  5
D0
330
1F
100
AcDbEntity
  8
0
  6
CONTINUOUS
 62
     7
100
AcDbLine
 10
22.7455299734
 20
11.6217807291
 30
0.0
 11
31.1636362926
 21
11.6217807291
 31
0.0
  0
LINE
  5
D1
330
1F
100
AcDbEntity
  8
0
  6
CONTINUOUS
 62
     7
100
AcDbLine
 10
31.1636362926
 20
11.6217807291
 30
0.0
 11
31.2513427045
 21
11.6117407891
 31
0.0
  0
LINE
  5
D2
330
1F
100
AcDbEntity
  8
0
  6
CONTINUOUS
 62
     7
100
AcDbLine
 10
34.3532588037
 20
7.3692907953
 30
0.0
 11
34.3866246911
 21
7.3692907953
 31
0.0
  0
ARC
  5
D3
330
1F
100
AcDbEntity
  8
0
  6
CONTINUOUS
 62
     7
100
AcDbCircle
 10
34.3437095074
 20
6.777232397
 30
0.0
 40
0.29648894198563
100
AcDbArc
 50
358.4651208652
 51
67.6893442408
  0
ARC
  5
D4
330
1F
100
AcDbEntity
  8
0
  6
CONTINUOUS
 62
     7
100
AcDbCircle
 10
20.4874059888
 20
52.5918860249
 30
0.0
 40
0.2999999999999972
100
AcDbArc
 50
180.0
 51
270.0
  0
ARC
  5
D5
330
1F
100
AcDbEntity
  8
0
  6
CONTINUOUS
 62
     7
100
AcDbCircle
 10
34.8874059888
 20
56.9918860249
 30
0.0
 40
0.3000000000000043
100
AcDbArc
 50
0.0
 51
90.0
  0
ARC
  5
D6
330
1F
100
AcDbEntity
  8
0
  6
CONTINUOUS
 62
     7
100
AcDbCircle
 10
20.4874059888
 20
56.9918860249
 30
0.0
 40
0.3000000000000043
100
AcDbArc
 50
90.0
 51
180.0
  0
LINE
  5
D7
330
1F
100
AcDbEntity
  8
0
  6
CONTINUOUS
 62
     7
100
AcDbLine
 10
20.1874059888
 20
56.9918860249
 30
0.0
 11
20.1874059888
 21
52.5918860249
 31
0.0
  0
LINE
  5
D8
330
1F
100
AcDbEntity
  8
0
  6
CONTINUOUS
 62
     7
100
AcDbLine
 10
35.1874059888
 20
56.5918860249
 30
0.0
 11
35.1874059888
 21
56.9918860249
 31
0.0
  0
ARC
  5
D9
330
1F
100
AcDbEntity
  8
0
  6
CONTINUOUS
 62
     7
100
AcDbCircle
 10
22.2471430956
 20
51.7795273762
 30
0.0
 40
0.5000000000003558
100
AcDbArc
 50
355.3963415651
 51
73.7084122108
  0
LINE
  5
DA
330
1F
100
AcDbEntity
  8
0
  6
CONTINUOUS
 62
     7
100
AcDbLine
 10
22.3874059888
 20
47.2918860249
 30
0.0
 11
22.8874059888
 21
45.2918860249
 31
0.0
  0
LINE
  5
DB
330
1F
100
AcDbEntity
  8
0
  6
CONTINUOUS
 62
     7
100
AcDbLine
 10
22.7455299734
 20
51.7393960911
 30
0.0
 11
22.3874059888
 21
47.2918860249
 31
0.0
  0
LINE
  5
DC
330
1F
100
AcDbEntity
  8
0
  6
CONTINUOUS
 62
     7
100
AcDbLine
 10
22.3874059888
 20
52.2918860249
 30
0.0
 11
22.3874059888
 21
52.2594506209
 31
0.0
  0
ARC
  5
DD
330
1F
100
AcDbEntity
  8
0
  6
CONTINUOUS
 62
     7
100
AcDbCircle
 10
34.0866246911
 20
52.5918860249
 30
0.0
 40
0.3000000000000043
100
AcDbArc
 50
270.0000000001
 51
0.0
  0
SPLINE
  5
DE
330
1F
100
AcDbEntity
  8
0
  6
CONTINUOUS
 62
     7
100
AcDbSpline
210
0.0
220
0.0
230
1.0
 70
     8
 71
     3
 72
    13
 73
     9
 74
     0
 42
0.00000001
 43
0.00000001
 40
0.0
 40
0.0
 40
0.0
 40
0.0
 40
0.0789417649522398
 40
0.1650336780562259
 40
0.2657954608727016
 40
0.3844336078063173
 40
0.6690322231265875
 40
1.0
 40
1.0
 40
1.0
 40
1.0
 10
31.25134358077698
 20
51.74943613137286
 30
0.0
 10
31.25030294577751
 20
51.76912027102122
 30
0.0
 10
31.24812742029262
 20
51.81027144071582
 30
0.0
 10
31.26383609534931
 20
51.87638600589977
 30
0.0
 10
31.29783424302219
 20
51.9461523362982
 30
0.0
 10
31.37499725430256
 20
52.04787998302195
 30
0.0
 10
31.52357849224333
 20
52.16486204375709
 30
0.0
 10
31.67023654030341
 20
52.21681597006332
 30
0.0
 10
31.74908926641483
 20
52.24474971645928
 30
0.0
  0
SPLINE
  5
DF
330
1F
100
AcDbEntity
  8
0
  6
CONTINUOUS
 62
     7
100
AcDbSpline
210
0.0
220
0.0
230
1.0
 70
     8
 71
     3
 72
     9
 73
     5
 74
     0
 42
0.00000001
 43
0.00000001
 40
0.0
 40
0.0
 40
0.0
 40
0.0
 40
0.442688026891786
 40
1.0
 40
1.0
 40
1.0
 40
1.0
 10
31.05245988344792
 20
45.29199497451204
 30
0.0
 10
31.15879883299044
 20
45.58653633063406
 30
0.0
 10
31.39901077251171
 20
46.25188379482924
 30
0.0
 10
31.62381199913353
 20
46.92260319219035
 30
0.0
 10
31.74909641429929
 20
47.29640314293562
 30
0.0
  0
SPLINE
  5
E0
330
1F
100
AcDbEntity
  8
0
  6
CONTINUOUS
 62
     7
100
AcDbSpline
210
0.0
220
0.0
230
1.0
 70
     8
 71
     3
 72
     9
 73
     5
 74
     0
 42
0.00000001
 43
0.00000001
 40
0.0
 40
0.0
 40
0.0
 40
0.0
 40
0.4478895012394451
 40
1.0
 40
1.0
 40
1.0
 40
1.0
 10
31.74488722162528
 20
47.28471460543075
 30
0.0
 10
31.67301846218175
 20
47.95148226893433
 30
0.0
 10
31.51255754661072
 20
49.44017012979832
 30
0.0
 10
31.3442615282146
 20
50.92799332122415
 30
0.0
 10
31.2513435295585
 20
51.7494361255098
 30
0.0
  0
LINE
  5
E1
330
1F
100
AcDbEntity
  8
0
  6
CONTINUOUS
 62
     7
100
AcDbLine
 10
31.743733983
 20
52.2319691475
 30
0.0
 11
31.743733983
 21
52.2918860249
 31
0.0
  0
LINE
  5
E2
330
1F
100
AcDbEntity
  8
0
  6
CONTINUOUS
 62
     7
100
AcDbLine
 10
34.3866246911
 20
52.5918860249
 30
0.0
 11
34.3866246911
 21
55.9918860249
 31
0.0
  0
SPLINE
  5
E3
330
1F
100
AcDbEntity
  8
0
  6
CONTINUOUS
 62
     7
100
AcDbSpline
210
0.0
220
0.0
230
1.0
 70
     8
 71
     3
 72
    12
 73
     8
 74
     0
 42
0.00000001
 43
0.00000001
 40
0.0
 40
0.0
 40
0.0
 40
0.0
 40
0.2387439767438972
 40
0.4386414848239025
 40
0.7281423732086384
 40
0.8324772253090665
 40
1.0
 40
1.0
 40
1.0
 40
1.0
 10
34.38662469089341
 20
55.99188602492773
 30
0.0
 10
34.38811494249453
 20
56.03065365199932
 30
0.0
 10
34.39085296413591
 20
56.10188095470954
 30
0.0
 10
34.41142600206709
 20
56.20393520011169
 30
0.0
 10
34.43647336277736
 20
56.27272850004423
 30
0.0
 10
34.45774866504883
 20
56.31115651692868
 30
0.0
 10
34.45708740994075
 20
56.312032364943
 30
0.0
 10
34.45667993455817
 20
56.31257207571478
 30
0.0
  0
ARC
  5
E4
330
1F
100
AcDbEntity
  8
0
  6
CONTINUOUS
 62
     7
100
AcDbCircle
 10
34.8874059888
 20
56.5918860249
 30
0.0
 40
0.3000000000000043
100
AcDbArc
 50
270.0
 51
0.0
  0
LINE
  5
E5
330
1F
100
AcDbEntity
  8
0
  6
CONTINUOUS
 62
     7
100
AcDbLine
 10
31.743733983
 20
52.231770363
 30
0.0
 11
31.743733983
 21
52.2319691475
 31
0.0
  0
ARC
  5
E6
330
1F
100
AcDbEntity
  8
0
  6
CONTINUOUS
 62
     7
100
AcDbCircle
 10
34.0688979177
 20
52.5761308166
 30
0.0
 40
0.284797015583849
100
AcDbArc
 50
273.5685987535
 51
3.1712692501
  0
SPLINE
  5
E7
330
1F
100
AcDbEntity
  8
0
  6
CONTINUOUS
 62
     7
100
AcDbSpline
210
0.0
220
0.0
230
1.0
 70
    24
 71
     3
 72
     8
 73
     4
 74
     0
 42
0.00000001
 43
0.00000001
 40
0.0
 40
0.0
 40
0.0
 40
0.0
 40
1.0
 40
1.0
 40
1.0
 40
1.0
 10
34.08662469114282
 20
52.29188602492773
 30
0.0
 10
32.85169135992933
 20
52.29188602492773
 30
0.0
 10
30.38180598420728
 20
52.29188602492775
 30
0.0
 10
27.68740598883229
 20
52.29188602492775
 30
0.0
  0
SPLINE
  5
E8
330
1F
100
AcDbEntity
  8
0
  6
CONTINUOUS
 62
     7
100
AcDbSpline
210
0.0
220
0.0
230
1.0
 70
    24
 71
     3
 72
    10
 73
     6
 74
     0
 42
0.00000001
 43
0.00000001
 40
0.0
 40
0.0
 40
0.0
 40
0.0
 40
0.4999999999999999
 40
0.4999999999999999
 40
0.9999999999999999
 40
0.9999999999999999
 40
0.9999999999999999
 40
0.9999999999999999
 10
27.68740598883229
 20
52.29188602492775
 30
0.0
 10
25.77790130403229
 20
52.29188602492775
 30
0.0
 10
23.94646087561879
 20
52.29188602492775
 30
0.0
 10
21.24601345295963
 20
52.29188602492773
 30
0.0
 10
20.48740598883234
 20
52.29188602492773
 30
0.0
 10
20.48740598883229
 20
52.29188602492773
 30
0.0
  0
SPLINE
  5
E9
330
1F
100
AcDbEntity
  8
0
  6
CONTINUOUS
 62
     7
100
AcDbSpline
210
0.0
220
0.0
230
1.0
 70
    24
 71
     3
 72
    10
 73
     6
 74
     0
 42
0.00000001
 43
0.00000001
 40
0.0
 40
0.0
 40
0.0
 40
0.0
 40
0.5
 40
0.5
 40
1.0
 40
1.0
 40
1.0
 40
1.0
 10
20.48740598883229
 20
57.29188602492772
 30
0.0
 10
20.48740598883225
 20
57.29188602492773
 30
0.0
 10
21.24601345295955
 20
57.29188602492773
 30
0.0
 10
23.94646087561863
 20
57.29188602492774
 30
0.0
 10
25.77790130403229
 20
57.29188602492774
 30
0.0
 10
27.68740598883229
 20
57.29188602492774
 30
0.0
  0
SPLINE
  5
EA
330
1F
100
AcDbEntity
  8
0
  6
CONTINUOUS
 62
     7
100
AcDbSpline
210
0.0
220
0.0
230
1.0
 70
    24
 71
     3
 72
    10
 73
     6
 74
     0
 42
0.00000001
 43
0.00000001
 40
0.0
 40
0.0
 40
0.0
 40
0.0
 40
0.4999999999999999
 40
0.4999999999999999
 40
1.0
 40
1.0
 40
1.0
 40
1.0
 10
27.68740598883229
 20
57.29188602492774
 30
0.0
 10
29.59691067363229
 20
57.29188602492774
 30
0.0
 10
31.42835110204579
 20
57.29188602492774
 30
0.0
 10
34.12879852470495
 20
57.29188602492773
 30
0.0
 10
34.88740598883225
 20
57.29188602492773
 30
0.0
 10
34.88740598883229
 20
57.29188602492772
 30
0.0
  0
SPLINE
  5
EB
330
1F
100
AcDbEntity
  8
0
  6
CONTINUOUS
 62
     7
100
AcDbSpline
210
0.0
220
0.0
230
1.0
 70
     8
 71
     3
 72
    17
 73
    13
 74
     0
 42
0.00000001
 43
0.00000001
 40
0.0
 40
0.0
 40
0.0
 40
0.0
 40
0.0624405942420249
 40
0.1244380089863514
 40
0.1869130565026771
 40
0.2507658870324611
 40
0.3736086618347407
 40
0.5003200205516459
 40
0.6245313295331474
 40
0.7499469773200257
 40
0.87435725487552
 40
1.0
 40
1.0
 40
1.0
 40
1.0
 10
34.35325880373902
 20
55.99188602492773
 30
0.0
 10
34.35359670947702
 20
56.01292323598803
 30
0.0
 10
34.3542701226271
 20
56.05484834401666
 30
0.0
 10
34.35969472010134
 20
56.11689588727926
 30
0.0
 10
34.36833724983174
 20
56.17753855810006
 30
0.0
 10
34.38398925534912
 20
56.25417987409483
 30
0.0
 10
34.4103268394108
 20
56.34289172816602
 30
0.0
 10
34.4500422396972
 20
56.43143040221526
 30
0.0
 10
34.49504688343848
 20
56.50289400995477
 30
0.0
 10
34.54285568141721
 20
56.55370360680087
 30
0.0
 10
34.59201279122276
 20
56.58606852907197
 30
0.0
 10
34.62401306947429
 20
56.58994049822314
 30
0.0
 10
34.64009207048447
 20
56.59188602492773
 30
0.0
  0
LINE
  5
EC
330
1F
100
AcDbEntity
  8
0
  6
CONTINUOUS
 62
     7
100
AcDbLine
 10
34.3532588037
 20
52.5918860249
 30
0.0
 11
34.3532588037
 21
55.9918860249
 31
0.0
  0
LINE
  5
ED
330
1F
100
AcDbEntity
  8
0
  6
CONTINUOUS
 62
     7
100
AcDbLine
 10
22.3874059888
 20
52.2594506209
 30
0.0
 11
31.6691136627
 21
52.2594506209
 31
0.0
  0
SPLINE
  5
EE
330
1F
100
AcDbEntity
  8
0
  6
CONTINUOUS
 62
     7
100
AcDbSpline
210
0.0
220
0.0
230
1.0
 70
     8
 71
     3
 72
     8
 73
     4
 74
     0
 42
0.00000001
 43
0.00000001
 40
0.0
 40
0.0
 40
0.0
 40
0.0
 40
1.0
 40
1.0
 40
1.0
 40
1.0
 10
31.6691136626828
 20
52.25945062085881
 30
0.0
 10
31.70220331420233
 20
52.25945062085881
 30
0.0
 10
31.72514123681552
 20
52.25642199984845
 30
0.0
 10
31.73617314247933
 20
52.24810499566589
 30
0.0
  0
SPLINE
  5
EF
330
1F
100
AcDbEntity
  8
0
  6
CONTINUOUS
 62
     7
100
AcDbSpline
210
0.0
220
0.0
230
1.0
 70
     8
 71
     3
 72
    14
 73
    10
 74
     0
 42
0.00000001
 43
0.00000001
 40
0.0
 40
0.0
 40
0.0
 40
0.0
 40
0.249999999999999
 40
0.249999999999999
 40
0.4999999999999993
 40
0.4999999999999993
 40
0.7499999999999997
 40
0.7499999999999997
 40
1.0
 40
1.0
 40
1.0
 40
1.0
 10
31.73617281135143
 20
52.2481061537896
 30
0.0
 10
31.66653298704662
 20
52.23228271701554
 30
0.0
 10
31.59922014974857
 20
52.21091453584973
 30
0.0
 10
31.47009477241388
 20
52.15637007471719
 30
0.0
 10
31.40769084543683
 20
52.12273087595739
 30
0.0
 10
31.29791459439398
 20
52.04372159960751
 30
0.0
 10
31.24963835449407
 20
51.99763902957635
 30
0.0
 10
31.18060213678559
 20
51.8946641621053
 30
0.0
 10
31.16076418960977
 20
51.83742119488542
 30
0.0
 10
31.16056111831205
 20
51.7795276144003
 30
0.0
  0
SPLINE
  5
F0
330
1F
100
AcDbEntity
  8
0
  6
CONTINUOUS
 62
     7
100
AcDbSpline
210
0.0
220
0.0
230
1.0
 70
     8
 71
     3
 72
     8
 73
     4
 74
     0
 42
0.00000001
 43
0.00000001
 40
0.0
 40
0.0
 40
0.0
 40
0.0
 40
1.0
 40
1.0
 40
1.0
 40
1.0
 10
31.16056111717685
 20
51.77952729070926
 30
0.0
 10
31.16053546002374
 20
51.76615340667362
 30
0.0
 10
31.16154390242681
 20
51.75275373419429
 30
0.0
 10
31.16363629256882
 20
51.73939609107923
 30
0.0
  0
LINE
  5
F1
330
1F
100
AcDbEntity
  8
0
  6
CONTINUOUS
 62
     7
100
AcDbLine
 10
31.6697083111
 20
47.2918860249
 30
0.0
 11
22.3874059888
 21
47.2918860249
 31
0.0
  0
SPLINE
  5
F2
330
1F
100
AcDbEntity
  8
0
  6
CONTINUOUS
 62
     7
100
AcDbSpline
210
0.0
220
0.0
230
1.0
 70
     8
 71
     3
 72
     8
 73
     4
 74
     0
 42
0.00000001
 43
0.00000001
 40
0.0
 40
0.0
 40
0.0
 40
0.0
 40
0.0000073649497513
 40
0.0000073649497513
 40
0.0000073649497513
 40
0.0000073649497513
 10
31.67451312202262
 20
47.29162982263681
 30
0.0
 10
31.67293181136465
 20
47.29179983745681
 30
0.0
 10
31.6713282898541
 20
47.29188599656416
 30
0.0
 10
31.66970833389415
 20
47.29188609980379
 30
0.0
  0
SPLINE
  5
F3
330
1F
100
AcDbEntity
  8
0
  6
CONTINUOUS
 62
     7
100
AcDbSpline
210
0.0
220
0.0
230
1.0
 70
     8
 71
     3
 72
     8
 73
     4
 74
     0
 42
0.00000001
 43
0.00000001
 40
0.0
 40
0.0
 40
0.0
 40
0.0
 40
1.0
 40
1.0
 40
1.0
 40
1.0
 10
30.95830489697308
 20
45.29188600416595
 30
0.0
 10
31.20968458644738
 20
45.95416662303862
 30
0.0
 10
31.44636152872003
 20
46.62193572062498
 30
0.0
 10
31.67451335544151
 20
47.29162998545738
 30
0.0
  0
LINE
  5
F4
330
1F
100
AcDbEntity
  8
0
  6
CONTINUOUS
 62
     7
100
AcDbLine
 10
30.9583048403
 20
45.2918860249
 30
0.0
 11
22.8874059888
 21
45.2918860249
 31
0.0
  0
SPLINE
  5
F5
330
1F
100
AcDbEntity
  8
0
  6
CONTINUOUS
 62
     7
100
AcDbSpline
210
0.0
220
0.0
230
1.0
 70
     8
 71
     3
 72
     8
 73
     4
 74
     0
 42
0.00000001
 43
0.00000001
 40
0.0
 40
0.0
 40
0.0
 40
0.0
 40
1.0
 40
1.0
 40
1.0
 40
1.0
 10
31.66970834405393
 20
47.29188602843031
 30
0.0
 10
31.50664076546022
 20
48.77492582435585
 30
0.0
 10
31.33879044759017
 20
50.25751094346895
 30
0.0
 10
31.16363629256881
 20
51.73939609107925
 30
0.0
  0
LINE
  5
F6
330
1F
100
AcDbEntity
  8
0
  6
CONTINUOUS
 62
     7
100
AcDbLine
 10
31.6691136627
 20
52.2918860249
 30
0.0
 11
31.6691136627
 21
52.2594506209
 31
0.0
  0
LINE
  5
F7
330
1F
100
AcDbEntity
  8
0
  6
CONTINUOUS
 62
     7
100
AcDbLine
 10
34.3532588037
 20
52.5918860249
 30
0.0
 11
34.3866246911
 21
52.5918860249
 31
0.0
  0
SPLINE
  5
F8
330
1F
100
AcDbEntity
  8
0
  6
CONTINUOUS
 62
     7
100
AcDbSpline
210
0.0
220
0.0
230
1.0
 70
     8
 71
     3
 72
     9
 73
     5
 74
     0
 42
0.00000001
 43
0.00000001
 40
0.0
 40
0.0
 40
0.0
 40
0.0
 40
0.8186654589489839
 40
0.9999999999999999
 40
0.9999999999999999
 40
0.9999999999999999
 40
0.9999999999999999
 10
31.73617314250928
 20
52.24810499564379
 30
0.0
 10
31.74109348451146
 20
52.2444224374215
 30
0.0
 10
31.74710368311992
 20
52.2399241919147
 30
0.0
 10
31.74229254651716
 20
52.24352930719063
 30
0.0
 10
31.74142012126936
 20
52.24418303911462
 30
0.0
  0
SPLINE
  5
F9
330
1F
100
AcDbEntity
  8
0
  6
CONTINUOUS
 62
     7
100
AcDbSpline
210
0.0
220
0.0
230
1.0
 70
     8
 71
     3
 72
    10
 73
     6
 74
     0
 42
0.00000001
 43
0.00000001
 40
0.0
 40
0.0
 40
0.0
 40
0.0
 40
0.4316397294252587
 40
0.8228169164758845
 40
0.9999999999999999
 40
0.9999999999999999
 40
0.9999999999999999
 40
0.9999999999999999
 10
31.67451308129521
 20
47.29163005060372
 30
0.0
 10
31.69155437152199
 20
47.28986186098894
 30
0.0
 10
31.72403947639369
 20
47.28649123445159
 30
0.0
 10
31.74473746737522
 20
47.28405498014311
 30
0.0
 10
31.742661573847
 20
47.28431982883123
 30
0.0
 10
31.74201442583993
 20
47.28440239390422
 30
0.0
  0
SPLINE
  5
FA
330
1F
100
AcDbEntity
  8
0
  6
CONTINUOUS
 62
     7
100
AcDbSpline
210
0.0
220
0.0
230
1.0
 70
    24
 71
     3
 72
     8
 73
     4
 74
     0
 42
0.00000001
 43
0.00000001
 40
0.0
 40
0.0
 40
0.0
 40
0.0
 40
1.0
 40
1.0
 40
1.0
 40
1.0
 10
30.95830488526843
 20
45.29188602492774
 30
0.0
 10
31.01725126280642
 20
45.29188602492774
 30
0.0
 10
31.05280287569458
 20
45.29188602492773
 30
0.0
 10
31.05279758272012
 20
45.29188602492773
 30
0.0
  0
SPLINE
  5
FB
330
1F
100
AcDbEntity
  8
0
  6
CONTINUOUS
 62
     7
100
AcDbSpline
210
0.0
220
0.0
230
1.0
 70
    24
 71
     3
 72
    11
 73
     7
 74
     0
 42
0.00000001
 43
0.00000001
 40
0.0
 40
0.0
 40
0.0
 40
0.0
 40
0.1608194110378575
 40
0.4370490771892037
 40
0.7184179808334944
 40
1.0
 40
1.0
 40
1.0
 40
1.0
 10
34.45666836849703
 20
56.29188602492773
 30
0.0
 10
34.50255357186158
 20
56.29188602492773
 30
0.0
 10
34.62725298257139
 20
56.29188602492773
 30
0.0
 10
34.76142612502288
 20
56.29188602492773
 30
0.0
 10
34.8684099097479
 20
56.29188602492773
 30
0.0
 10
34.88107236460171
 20
56.29188602492772
 30
0.0
 10
34.88740598883229
 20
56.29188602492772
 30
0.0
  0
SPLINE
  5
FC
330
1F
100
AcDbEntity
  8
0
  6
CONTINUOUS
 62
     7
100
AcDbSpline
210
0.0
220
0.0
230
1.0
 70
     8
 71
     3
 72
     9
 73
     5
 74
     0
 42
0.00000001
 43
0.00000001
 40
0.0
 40
0.0
 40
0.0
 40
0.0
 40
0.7426952575347505
 40
1.0
 40
1.0
 40
1.0
 40
1.0
 10
31.74142337986239
 20
52.24417854378949
 30
0.0
 10
31.74266098073425
 20
52.24325102053555
 30
0.0
 10
31.74432734504628
 20
52.24200215938486
 30
0.0
 10
31.74335613329515
 20
52.24272918129539
 30
0.0
 10
31.74310623590565
 20
52.24291624748084
 30
0.0
  0
LINE
  5
FD
330
1F
100
AcDbEntity
  8
0
  6
CONTINUOUS
 62
     7
100
AcDbLine
 10
20.1874059888
 20
52.5918860249
 30
0.0
 11
34.3532588037
 21
52.5918860249
 31
0.0
  0
LINE
  5
FE
330
1F
100
AcDbEntity
  8
0
  6
CONTINUOUS
 62
     7
100
AcDbLine
 10
20.1874059888
 20
56.9918860249
 30
0.0
 11
35.1874059888
 21
56.9918860249
 31
0.0
  0
LINE
  5
FF
330
1F
100
AcDbEntity
  8
0
  6
CONTINUOUS
 62
     7
100
AcDbLine
 10
34.6400920705
 20
56.5918860249
 30
0.0
 11
35.1874059888
 21
56.5918860249
 31
0.0
  0
LINE
  5
100
330
1F
100
AcDbEntity
  8
0
  6
CONTINUOUS
 62
     7
100
AcDbLine
 10
31.1636362926
 20
51.7393960911
 30
0.0
 11
22.7455299734
 21
51.7393960911
 31
0.0
  0
LINE
  5
101
330
1F
100
AcDbEntity
  8
0
  6
CONTINUOUS
 62
     7
100
AcDbLine
 10
31.1636362926
 20
51.7393960911
 30
0.0
 11
31.251342712
 21
51.7494360319
 31
0.0
  0
LINE
  5
102
330
1F
100
AcDbEntity
  8
0
  6
CONTINUOUS
 62
     7
100
AcDbLine
 10
34.3532588037
 20
55.9918860249
 30
0.0
 11
34.3866246911
 21
55.9918860249
 31
0.0
  0
ARC
  5
103
330
1F
100
AcDbEntity
  8
0
  6
CONTINUOUS
 62
     7
100
AcDbCircle
 10
34.343705618
 20
56.5839459115
 30
0.0
 40
0.2964927901905869
100
AcDbArc
 50
292.3215439681
 51
1.5345714875
  0
ARC
  5
104
330
1F
100
AcDbEntity
  8
0
  6
CONTINUOUS
 62
     7
100
AcDbCircle
 10
48.9140287669
 20
26.5962169391
 30
0.0
 40
0.3000000000000043
100
AcDbArc
 50
180.0
 51
270.0
  0
ARC
  5
105
330
1F
100
AcDbEntity
  8
0
  6
CONTINUOUS
 62
     7
100
AcDbCircle
 10
48.9140287669
 20
40.9962169391
 30
0.0
 40
0.3000000000000043
100
AcDbArc
 50
90.0
 51
180.0
  0
ARC
  5
106
330
1F
100
AcDbEntity
  8
0
  6
CONTINUOUS
 62
     7
100
AcDbCircle
 10
53.3140287669
 20
26.5962169391
 30
0.0
 40
0.3000000000000043
100
AcDbArc
 50
270.0
 51
0.0
  0
ARC
  5
107
330
1F
100
AcDbEntity
  8
0
  6
CONTINUOUS
 62
     7
100
AcDbCircle
 10
53.3140287669
 20
40.9962169391
 30
0.0
 40
0.3000000000000043
100
AcDbArc
 50
0.0
 51
90.0
  0
LINE
  5
108
330
1F
100
AcDbEntity
  8
0
  6
CONTINUOUS
 62
     7
100
AcDbLine
 10
53.3140287669
 20
41.2962169391
 30
0.0
 11
48.9140287669
 21
41.2962169391
 31
0.0
  0
LINE
  5
109
330
1F
100
AcDbEntity
  8
0
  6
CONTINUOUS
 62
     7
100
AcDbLine
 10
48.9140287669
 20
26.2962169391
 30
0.0
 11
53.3140287669
 21
26.2962169391
 31
0.0
  0
ARC
  5
10A
330
1F
100
AcDbEntity
  8
0
  6
CONTINUOUS
 62
     7
100
AcDbCircle
 10
48.1016701181
 20
39.2364798323
 30
0.0
 40
0.5000000000003558
100
AcDbArc
 50
265.3963415651
 51
343.7084122108
  0
ARC
  5
10B
330
1F
100
AcDbEntity
  8
0
  6
CONTINUOUS
 62
     7
100
AcDbCircle
 10
48.1016701181
 20
28.3559540458
 30
0.0
 40
0.5000000000003548
100
AcDbArc
 50
16.2915877892
 51
94.6036584349
  0
LINE
  5
10C
330
1F
100
AcDbEntity
  8
0
  6
CONTINUOUS
 62
     7
100
AcDbLine
 10
43.6140287668
 20
39.0962169391
 30
0.0
 11
41.6140287668
 21
38.5962169391
 31
0.0
  0
LINE
  5
10D
330
1F
100
AcDbEntity
  8
0
  6
CONTINUOUS
 62
     7
100
AcDbLine
 10
41.6140287668
 20
28.9962169391
 30
0.0
 11
43.6140287668
 21
28.4962169391
 31
0.0
  0
LINE
  5
10E
330
1F
100
AcDbEntity
  8
0
  6
CONTINUOUS
 62
     7
100
AcDbLine
 10
43.6140287668
 20
28.4962169391
 30
0.0
 11
48.061538833
 21
28.8543409236
 31
0.0
  0
LINE
  5
10F
330
1F
100
AcDbEntity
  8
0
  6
CONTINUOUS
 62
     7
100
AcDbLine
 10
48.061538833
 20
38.7380929546
 30
0.0
 11
43.6140287668
 21
39.0962169391
 31
0.0
  0
LINE
  5
110
330
1F
100
AcDbEntity
  8
0
  6
CONTINUOUS
 62
     7
100
AcDbLine
 10
48.6140287669
 20
39.0962169391
 30
0.0
 11
48.5815933628
 21
39.0962169391
 31
0.0
  0
LINE
  5
111
330
1F
100
AcDbEntity
  8
0
  6
CONTINUOUS
 62
     7
100
AcDbLine
 10
48.5815933628
 20
28.4962169391
 30
0.0
 11
48.6140287669
 21
28.4962169391
 31
0.0
  0
SPLINE
  5
112
330
1F
100
AcDbEntity
  8
0
  6
CONTINUOUS
 62
     7
100
AcDbSpline
210
0.0
220
0.0
230
1.0
 70
    24
 71
     3
 72
    14
 73
    10
 74
     0
 42
0.00000001
 43
0.00000001
 40
0.0
 40
0.0
 40
0.0
 40
0.0
 40
0.25
 40
0.25
 40
0.5
 40
0.5
 40
0.75
 40
0.75
 40
1.0
 40
1.0
 40
1.0
 40
1.0
 10
48.61402876685761
 20
26.59621693907875
 30
0.0
 10
48.61402876685762
 20
26.59621693907875
 30
0.0
 10
48.61402876685762
 20
27.35482440320605
 30
0.0
 10
48.61402876685763
 20
30.05527182586517
 30
0.0
 10
48.61402876685764
 20
31.88671225427876
 30
0.0
 10
48.61402876685764
 20
35.70572162387875
 30
0.0
 10
48.61402876685763
 20
37.53716205229233
 30
0.0
 10
48.61402876685762
 20
40.23760947495146
 30
0.0
 10
48.61402876685762
 20
40.99621693907875
 30
0.0
 10
48.61402876685761
 20
40.99621693907875
 30
0.0
  0
SPLINE
  5
113
330
1F
100
AcDbEntity
  8
0
  6
CONTINUOUS
 62
     7
100
AcDbSpline
210
0.0
220
0.0
230
1.0
 70
    24
 71
     3
 72
    14
 73
    10
 74
     0
 42
0.00000001
 43
0.00000001
 40
0.0
 40
0.0
 40
0.0
 40
0.0
 40
0.25
 40
0.25
 40
0.5
 40
0.5
 40
0.75
 40
0.75
 40
1.0
 40
1.0
 40
1.0
 40
1.0
 10
53.61402876685761
 20
40.99621693907875
 30
0.0
 10
53.61402876685761
 20
40.99621693907874
 30
0.0
 10
53.61402876685762
 20
40.23760947495146
 30
0.0
 10
53.61402876685764
 20
37.53716205229233
 30
0.0
 10
53.61402876685764
 20
35.70572162387874
 30
0.0
 10
53.61402876685764
 20
31.88671225427874
 30
0.0
 10
53.61402876685764
 20
30.05527182586517
 30
0.0
 10
53.61402876685762
 20
27.35482440320605
 30
0.0
 10
53.61402876685761
 20
26.59621693907875
 30
0.0
 10
53.61402876685761
 20
26.59621693907875
 30
0.0
  0
LINE
  5
114
330
1F
100
AcDbEntity
  8
0
  6
CONTINUOUS
 62
     7
100
AcDbLine
 10
48.5815933628
 20
39.0962169391
 30
0.0
 11
48.5815933628
 21
28.4962169391
 31
0.0
  0
LINE
  5
115
330
1F
100
AcDbEntity
  8
0
  6
CONTINUOUS
 62
     7
100
AcDbLine
 10
43.6140287668
 20
28.4962169391
 30
0.0
 11
43.6140287668
 21
39.0962169391
 31
0.0
  0
LINE
  5
116
330
1F
100
AcDbEntity
  8
0
  6
CONTINUOUS
 62
     7
100
AcDbLine
 10
41.6140287668
 20
28.9962169391
 30
0.0
 11
41.6140287668
 21
38.5962169391
 31
0.0
  0
LINE
  5
117
330
1F
100
AcDbEntity
  8
0
  6
CONTINUOUS
 62
     7
100
AcDbLine
 10
48.9140287669
 20
41.2962169391
 30
0.0
 11
48.9140287669
 21
26.2962169391
 31
0.0
  0
LINE
  5
118
330
1F
100
AcDbEntity
  8
0
  6
CONTINUOUS
 62
     7
100
AcDbLine
 10
53.3140287669
 20
41.2962169391
 30
0.0
 11
53.3140287669
 21
26.2962169391
 31
0.0
  0
LINE
  5
119
330
1F
100
AcDbEntity
  8
0
  6
CONTINUOUS
 62
     7
100
AcDbLine
 10
48.061538833
 20
28.8543409236
 30
0.0
 11
48.061538833
 21
38.7380929546
 31
0.0
  0
LINE
  5
11A
330
1F
100
AcDbEntity
  8
0
  6
CONTINUOUS
 62
     7
100
AcDbLine
 10
63.727000132
 20
36.7270653493
 30
0.0
 11
63.6825837144
 21
36.606838793
 31
0.0
  0
LINE
  5
11B
330
1F
100
AcDbEntity
  8
0
  6
CONTINUOUS
 62
     7
100
AcDbLine
 10
63.6825837144
 20
30.9855950851
 30
0.0
 11
63.7268597423
 21
30.8657219502
 31
0.0
  0
SPLINE
  5
11C
330
1F
100
AcDbEntity
  8
0
  6
CONTINUOUS
 62
     7
100
AcDbSpline
210
0.0
220
0.0
230
1.0
 70
     8
 71
     3
 72
    14
 73
    10
 74
     0
 42
0.00000001
 43
0.00000001
 40
0.0
 40
0.0
 40
0.0
 40
0.0
 40
0.0911871552882895
 40
0.1859117657032703
 40
0.2852313576318558
 40
0.3900644549681645
 40
0.5011929163985861
 40
0.70671455536677
 40
1.0
 40
1.0
 40
1.0
 40
1.0
 10
67.265208029076
 20
37.09621693907875
 30
0.0
 10
67.26576124543999
 20
37.08029910095896
 30
0.0
 10
67.26688913928335
 20
37.04784591847208
 30
0.0
 10
67.27567908819641
 20
36.99997100115283
 30
0.0
 10
67.28957481548971
 20
36.95361925408693
 30
0.0
 10
67.30914453371054
 20
36.91025935732541
 30
0.0
 10
67.3406673525853
 20
36.86168937302759
 30
0.0
 10
67.39636192610753
 20
36.80981382722355
 30
0.0
 10
67.44605777403787
 20
36.80125141326331
 30
0.0
 10
67.47527762543099
 20
36.79621693907875
 30
0.0
  0
SPLINE
  5
11D
330
1F
100
AcDbEntity
  8
0
  6
CONTINUOUS
 62
     7
100
AcDbSpline
210
0.0
220
0.0
230
1.0
 70
    24
 71
     3
 72
     8
 73
     4
 74
     0
 42
0.00000001
 43
0.00000001
 40
0.0
 40
0.0
 40
0.0
 40
0.0
 40
1.0
 40
1.0
 40
1.0
 40
1.0
 10
66.87827005326234
 20
36.79621693907875
 30
0.0
 10
67.07043343500104
 20
36.79621693907875
 30
0.0
 10
67.26828519156358
 20
36.79621693907875
 30
0.0
 10
67.47527762543099
 20
36.79621693907875
 30
0.0
  0
SPLINE
  5
11E
330
1F
100
AcDbEntity
  8
0
  6
CONTINUOUS
 62
     7
100
AcDbSpline
210
0.0
220
0.0
230
1.0
 70
     8
 71
     3
 72
    17
 73
    13
 74
     0
 42
0.00000001
 43
0.00000001
 40
0.0
 40
0.0
 40
0.0
 40
0.0
 40
0.0665386396412289
 40
0.1314884484385369
 40
0.1932511447108437
 40
0.2503471616016562
 40
0.3737857620023829
 40
0.5003481168747841
 40
0.615261647976571
 40
0.7503176756475431
 40
0.9333361906229737
 40
1.0
 40
1.0
 40
1.0
 40
1.0
 10
66.6435195281211
 20
37.28796410118436
 30
0.0
 10
66.63425430323005
 20
37.27597853209308
 30
0.0
 10
66.61594509144079
 20
37.25229358914922
 30
0.0
 10
66.59601628353738
 20
37.21283668944997
 30
0.0
 10
66.58229772219183
 20
37.17319003383441
 30
0.0
 10
66.57164189727564
 20
37.11891028059766
 30
0.0
 10
66.57280481720417
 20
37.04792373207481
 30
0.0
 10
66.59822847304059
 20
36.96759609091058
 30
0.0
 10
66.64608101834983
 20
36.89537034191953
 30
0.0
 10
66.72206924735708
 20
36.83111832066027
 30
0.0
 10
66.80656617376796
 20
36.79938204736801
 30
0.0
 10
66.86315985198424
 20
36.79688392423569
 30
0.0
 10
66.87827005326234
 20
36.79621693907875
 30
0.0
  0
SPLINE
  5
11F
330
1F
100
AcDbEntity
  8
0
  6
CONTINUOUS
 62
     7
100
AcDbSpline
210
0.0
220
0.0
230
1.0
 70
     8
 71
     3
 72
     8
 73
     4
 74
     0
 42
0.00000001
 43
0.00000001
 40
0.0
 40
0.0
 40
0.0
 40
0.0
 40
1.0
 40
1.0
 40
1.0
 40
1.0
 10
66.6435195281211
 20
37.28796410118436
 30
0.0
 10
66.87167135484256
 20
37.29437319045319
 30
0.0
 10
67.10834829711571
 20
37.30140255477654
 30
0.0
 10
67.3597279865897
 20
37.30922429772568
 30
0.0
  0
SPLINE
  5
120
330
1F
100
AcDbEntity
  8
0
  6
CONTINUOUS
 62
     7
100
AcDbSpline
210
0.0
220
0.0
230
1.0
 70
     8
 71
     3
 72
     8
 73
     4
 74
     0
 42
0.00000001
 43
0.00000001
 40
0.0
 40
0.0
 40
0.0
 40
0.0
 40
1.0
 40
1.0
 40
1.0
 40
1.0
 10
67.26523530084252
 20
37.09621694086945
 30
0.0
 10
67.26523001055243
 20
37.17679398490525
 30
0.0
 10
67.30079832351979
 20
37.25435278852866
 30
0.0
 10
67.3597279982948
 20
37.30922431571743
 30
0.0
  0
SPLINE
  5
121
330
1F
100
AcDbEntity
  8
0
  6
CONTINUOUS
 62
     7
100
AcDbSpline
210
0.0
220
0.0
230
1.0
 70
     8
 71
     3
 72
    15
 73
    11
 74
     0
 42
0.00000001
 43
0.00000001
 40
0.0
 40
0.0
 40
0.0
 40
0.0
 40
0.1283982999201563
 40
0.2425929658812562
 40
0.3426148271370908
 40
0.4285138330997205
 40
0.5003734573107345
 40
0.681502458063824
 40
0.8466249009334235
 40
1.0
 40
1.0
 40
1.0
 40
1.0
 10
67.47527762543099
 20
30.79621693907875
 30
0.0
 10
67.4624649043037
 20
30.79525176953599
 30
0.0
 10
67.43825682661722
 20
30.7934281991141
 30
0.0
 10
67.40499838823767
 20
30.77982389254542
 30
0.0
 10
67.3767148750206
 20
30.76180313903019
 30
0.0
 10
67.35340890161008
 20
30.74128637279336
 30
0.0
 10
67.32472701629513
 20
30.70878782705948
 30
0.0
 10
67.29504689852929
 20
30.65692151776517
 30
0.0
 10
67.27007935529656
 20
30.57882944888541
 30
0.0
 10
67.26679138033806
 20
30.52306889186162
 30
0.0
 10
67.265208029076
 20
30.49621693907875
 30
0.0
  0
SPLINE
  5
122
330
1F
100
AcDbEntity
  8
0
  6
CONTINUOUS
 62
     7
100
AcDbSpline
210
0.0
220
0.0
230
1.0
 70
     8
 71
     3
 72
     8
 73
     4
 74
     0
 42
0.00000001
 43
0.00000001
 40
0.0
 40
0.0
 40
0.0
 40
0.0
 40
1.0
 40
1.0
 40
1.0
 40
1.0
 10
67.35972799829422
 20
30.2832095624406
 30
0.0
 10
67.30078162075624
 20
30.33809664216918
 30
0.0
 10
67.26523000786807
 20
30.41559900726529
 30
0.0
 10
67.26523530084252
 20
30.49621693728805
 30
0.0
  0
SPLINE
  5
123
330
1F
100
AcDbEntity
  8
0
  6
CONTINUOUS
 62
     7
100
AcDbSpline
210
0.0
220
0.0
230
1.0
 70
     8
 71
     3
 72
     8
 73
     4
 74
     0
 42
0.00000001
 43
0.00000001
 40
0.0
 40
0.0
 40
0.0
 40
0.0
 40
1.0
 40
1.0
 40
1.0
 40
1.0
 10
67.35972798658956
 20
30.28320958043182
 30
0.0
 10
67.10834829711526
 20
30.29103132338135
 30
0.0
 10
66.87167135484262
 20
30.29806068770419
 30
0.0
 10
66.64351952812112
 20
30.30446977697313
 30
0.0
  0
SPLINE
  5
124
330
1F
100
AcDbEntity
  8
0
  6
CONTINUOUS
 62
     7
100
AcDbSpline
210
0.0
220
0.0
230
1.0
 70
     8
 71
     3
 72
    17
 73
    13
 74
     0
 42
0.00000001
 43
0.00000001
 40
0.0
 40
0.0
 40
0.0
 40
0.0
 40
0.0664492539133497
 40
0.131347612149188
 40
0.1931250148060682
 40
0.2503291877422316
 40
0.373734323872496
 40
0.5003127157944514
 40
0.615180729587926
 40
0.750265533053645
 40
0.9320350378699263
 40
0.9999999999999999
 40
0.9999999999999999
 40
0.9999999999999999
 40
0.9999999999999999
 10
66.64351980226742
 20
30.30446982442474
 30
0.0
 10
66.63426178465498
 20
30.31643886537839
 30
0.0
 10
66.61596182739412
 20
30.34009759525709
 30
0.0
 10
66.5960189161093
 20
30.37952389876108
 30
0.0
 10
66.58229703341706
 20
30.41918316785441
 30
0.0
 10
66.57165314445311
 20
30.47348364040384
 30
0.0
 10
66.57277537292929
 20
30.5444925327965
 30
0.0
 10
66.59822769771986
 20
30.62481132372957
 30
0.0
 10
66.64602911893165
 20
30.69704468466502
 30
0.0
 10
66.72179996327064
 20
30.7611159195502
 30
0.0
 10
66.80640675295797
 20
30.79297908842721
 30
0.0
 10
66.86289747481126
 20
30.79552427054751
 30
0.0
 10
66.878271362999
 20
30.79621693907875
 30
0.0
  0
SPLINE
  5
125
330
1F
100
AcDbEntity
  8
0
  6
CONTINUOUS
 62
     7
100
AcDbSpline
210
0.0
220
0.0
230
1.0
 70
    24
 71
     3
 72
     8
 73
     4
 74
     0
 42
0.00000001
 43
0.00000001
 40
0.0
 40
0.0
 40
0.0
 40
0.0
 40
1.0
 40
1.0
 40
1.0
 40
1.0
 10
67.47527762543099
 20
30.79621693907875
 30
0.0
 10
67.26828519156356
 20
30.79621693907875
 30
0.0
 10
67.07043343500126
 20
30.79621693907875
 30
0.0
 10
66.87827005326237
 20
30.79621693907875
 30
0.0
  0
LINE
  5
126
330
1F
100
AcDbEntity
  8
0
  6
CONTINUOUS
 62
     7
100
AcDbLine
 10
67.4752776254
 20
36.7962169391
 30
0.0
 11
70.3306268947
 21
36.7962169391
 31
0.0
  0
LINE
  5
127
330
1F
100
AcDbEntity
  8
0
  6
CONTINUOUS
 62
     7
100
AcDbLine
 10
70.3306268947
 20
37.0962169391
 30
0.0
 11
67.2652080291
 21
37.0962169391
 31
0.0
  0
LINE
  5
128
330
1F
100
AcDbEntity
  8
0
  6
CONTINUOUS
 62
     7
100
AcDbLine
 10
70.3306268947
 20
36.7962169391
 30
0.0
 11
70.3306268947
 21
37.0962169391
 31
0.0
  0
LINE
  5
129
330
1F
100
AcDbEntity
  8
0
  6
CONTINUOUS
 62
     7
100
AcDbLine
 10
67.2652080291
 20
30.4962169391
 30
0.0
 11
70.3306268947
 21
30.4962169391
 31
0.0
  0
SPLINE
  5
12A
330
1F
100
AcDbEntity
  8
0
  6
CONTINUOUS
 62
     7
100
AcDbSpline
210
0.0
220
0.0
230
1.0
 70
     8
 71
     3
 72
    16
 73
    12
 74
     0
 42
0.00000001
 43
0.00000001
 40
0.0
 40
0.0
 40
0.0
 40
0.0
 40
0.0803902450337957
 40
0.1600175802236618
 40
0.2401462504188243
 40
0.369834829547261
 40
0.5000926012260003
 40
0.6297814361037992
 40
0.7600394646309447
 40
0.8795941200305978
 40
0.9999999999999999
 40
0.9999999999999999
 40
0.9999999999999999
 40
0.9999999999999999
 10
70.93062689473035
 20
31.09621693907875
 30
0.0
 10
70.92970418878359
 20
31.07097987991904
 30
0.0
 10
70.92786753344316
 20
31.02074526330604
 30
0.0
 10
70.91320216703691
 20
30.94652983103658
 30
0.0
 10
70.88517654665607
 20
30.85999271589646
 30
0.0
 10
70.8358528817305
 20
30.76443225102299
 30
0.0
 10
70.75789331549913
 20
30.66923156215515
 30
0.0
 10
70.66255172416851
 20
30.59099124683571
 30
0.0
 10
70.5559829043089
 20
30.53635449929252
 30
0.0
 10
70.44387979529523
 20
30.50229798926221
 30
0.0
 10
70.36846703346468
 20
30.49824874383999
 30
0.0
 10
70.33062689473036
 20
30.49621693907875
 30
0.0
  0
LINE
  5
12B
330
1F
100
AcDbEntity
  8
0
  6
CONTINUOUS
 62
     7
100
AcDbLine
 10
70.9306268947
 20
36.4962169391
 30
0.0
 11
70.9306268947
 21
31.0962169391
 31
0.0
  0
SPLINE
  5
12C
330
1F
100
AcDbEntity
  8
0
  6
CONTINUOUS
 62
     7
100
AcDbSpline
210
0.0
220
0.0
230
1.0
 70
     8
 71
     3
 72
     8
 73
     4
 74
     0
 42
0.00000001
 43
0.00000001
 40
0.0
 40
0.0
 40
0.0
 40
0.0
 40
1.0
 40
1.0
 40
1.0
 40
1.0
 10
70.33062689473036
 20
37.09621693907875
 30
0.0
 10
70.6617759006842
 20
37.09621693907875
 30
0.0
 10
70.93062689473035
 20
36.82736594503261
 30
0.0
 10
70.93062689473035
 20
36.49621693907875
 30
0.0
  0
ARC
  5
12D
330
1F
100
AcDbEntity
  8
0
  6
CONTINUOUS
 62
     7
100
AcDbCircle
 10
70.6306268947
 20
33.7962169391
 30
0.0
 40
4.799999999988812
100
AcDbArc
 50
227.043941988
 51
132.956058012
  0
LINE
  5
12E
330
1F
100
AcDbEntity
  8
0
  6
CONTINUOUS
 62
     7
100
AcDbLine
 10
70.3306268947
 20
30.7962169391
 30
0.0
 11
67.4752776254
 21
30.7962169391
 31
0.0
  0
LINE
  5
12F
330
1F
100
AcDbEntity
  8
0
  6
CONTINUOUS
 62
     7
100
AcDbLine
 10
70.3306268947
 20
30.4962169391
 30
0.0
 11
70.3306268947
 21
30.7962169391
 31
0.0
  0
ARC
  5
130
330
1F
100
AcDbEntity
  8
0
  6
CONTINUOUS
 62
     7
100
AcDbCircle
 10
70.6306268947
 20
33.7962169391
 30
0.0
 40
5.300000000005407
100
AcDbArc
 50
221.290131757
 51
138.709868243
  0
SPLINE
  5
131
330
1F
100
AcDbEntity
  8
0
  6
CONTINUOUS
 62
     7
100
AcDbSpline
210
0.0
220
0.0
230
1.0
 70
     8
 71
     3
 72
     8
 73
     4
 74
     0
 42
0.00000001
 43
0.00000001
 40
0.0
 40
0.0
 40
0.0
 40
0.0
 40
0.0000073649497513
 40
0.0000073649497513
 40
0.0000073649497513
 40
0.0000073649497513
 10
66.64351976154002
 20
30.30446984392314
 30
0.0
 10
66.64510107219799
 20
30.30259968501978
 30
0.0
 10
66.64670459370853
 20
30.30073856677637
 30
0.0
 10
66.64832454966849
 20
30.29889392983729
 30
0.0
  0
SPLINE
  5
132
330
1F
100
AcDbEntity
  8
0
  6
CONTINUOUS
 62
     7
100
AcDbSpline
210
0.0
220
0.0
230
1.0
 70
     8
 71
     3
 72
     8
 73
     4
 74
     0
 42
0.00000001
 43
0.00000001
 40
0.0
 40
0.0
 40
0.0
 40
0.0
 40
0.0000073649609158
 40
0.0000073649609158
 40
0.0000073649609158
 40
0.0000073649609158
 10
66.64351975149205
 20
37.28796402235099
 30
0.0
 10
66.64510106445766
 20
37.28983418413273
 30
0.0
 10
66.64670458833577
 20
37.29169530525375
 30
0.0
 10
66.64832454674674
 20
37.29353994499322
 30
0.0
  0
LINE
  5
133
330
1F
100
AcDbEntity
  8
0
  6
CONTINUOUS
 62
     7
100
AcDbLine
 10
70.9306268947
 20
31.0962169391
 30
0.0
 11
70.6306268947
 21
31.0962169391
 31
0.0
  0
LINE
  5
134
330
1F
100
AcDbEntity
  8
0
  6
CONTINUOUS
 62
     7
100
AcDbLine
 10
70.6306268947
 20
31.0962169391
 30
0.0
 11
70.6306268947
 21
36.4962169391
 31
0.0
  0
LINE
  5
135
330
1F
100
AcDbEntity
  8
0
  6
CONTINUOUS
 62
     7
100
AcDbLine
 10
70.9306268947
 20
36.4962169391
 30
0.0
 11
70.6306268947
 21
36.4962169391
 31
0.0
  0
ARC
  5
136
330
1F
100
AcDbEntity
  8
0
  6
CONTINUOUS
 62
     7
100
AcDbCircle
 10
70.3306268947
 20
36.4962169391
 30
0.0
 40
0.3000000000000043
100
AcDbArc
 50
0.0
 51
90.0
  0
ARC
  5
137
330
1F
100
AcDbEntity
  8
0
  6
CONTINUOUS
 62
     7
100
AcDbCircle
 10
70.3306268947
 20
31.0962169391
 30
0.0
 40
0.3000000000000007
100
AcDbArc
 50
270.0
 51
0.0
  0
LINE
  5
138
330
1F
100
AcDbEntity
  8
0
  6
CONTINUOUS
 62
     7
100
AcDbLine
 10
64.2314081924
 20
36.7962169391
 30
0.0
 11
64.2314081924
 21
37.0962169391
 31
0.0
  0
LINE
  5
139
330
1F
100
AcDbEntity
  8
0
  6
CONTINUOUS
 62
     7
100
AcDbLine
 10
64.2314081924
 20
37.0962169391
 30
0.0
 11
66.5742989005
 21
37.0962169391
 31
0.0
  0
LINE
  5
13A
330
1F
100
AcDbEntity
  8
0
  6
CONTINUOUS
 62
     7
100
AcDbLine
 10
64.2314081924
 20
36.7962169391
 30
0.0
 11
66.8742989005
 21
36.7962169391
 31
0.0
  0
SPLINE
  5
13B
330
1F
100
AcDbEntity
  8
0
  6
CONTINUOUS
 62
     7
100
AcDbSpline
210
0.0
220
0.0
230
1.0
 70
     8
 71
     3
 72
     8
 73
     4
 74
     0
 42
0.00000001
 43
0.00000001
 40
0.0
 40
0.0
 40
0.0
 40
0.0
 40
1.0
 40
1.0
 40
1.0
 40
1.0
 10
70.63062689473031
 20
40.99621693907874
 30
0.0
 10
67.93622689935538
 20
40.99621693907875
 30
0.0
 10
65.46634152363336
 20
39.4909467782327
 30
0.0
 10
64.23140819241985
 20
37.09621693907875
 30
0.0
  0
SPLINE
  5
13C
330
1F
100
AcDbEntity
  8
0
  6
CONTINUOUS
 62
     7
100
AcDbSpline
210
0.0
220
0.0
230
1.0
 70
     8
 71
     3
 72
    14
 73
    10
 74
     0
 42
0.00000001
 43
0.00000001
 40
0.0
 40
0.0
 40
0.0
 40
0.0
 40
0.25
 40
0.25
 40
0.5
 40
0.5
 40
0.75
 40
0.75
 40
1.0
 40
1.0
 40
1.0
 40
1.0
 10
70.63062689473031
 20
26.59621693907875
 30
0.0
 10
72.54013157953032
 20
26.59621693907875
 30
0.0
 10
74.3715720079439
 20
27.35482440320605
 30
0.0
 10
77.072019430603
 20
30.05527182586517
 30
0.0
 10
77.8306268947303
 20
31.88671225427876
 30
0.0
 10
77.8306268947303
 20
35.70572162387875
 30
0.0
 10
77.072019430603
 20
37.53716205229233
 30
0.0
 10
74.37157200794388
 20
40.23760947495146
 30
0.0
 10
72.54013157953031
 20
40.99621693907875
 30
0.0
 10
70.63062689473031
 20
40.99621693907875
 30
0.0
  0
SPLINE
  5
13D
330
1F
100
AcDbEntity
  8
0
  6
CONTINUOUS
 62
     7
100
AcDbSpline
210
0.0
220
0.0
230
1.0
 70
     8
 71
     3
 72
     8
 73
     4
 74
     0
 42
0.00000001
 43
0.00000001
 40
0.0
 40
0.0
 40
0.0
 40
0.0
 40
1.0
 40
1.0
 40
1.0
 40
1.0
 10
64.23140819241976
 20
30.49621693907888
 30
0.0
 10
65.46634152363326
 20
28.10148709992485
 30
0.0
 10
67.93622689935532
 20
26.59621693907875
 30
0.0
 10
70.63062689473031
 20
26.59621693907875
 30
0.0
  0
LINE
  5
13E
330
1F
100
AcDbEntity
  8
0
  6
CONTINUOUS
 62
     7
100
AcDbLine
 10
66.5742989005
 20
30.4962169391
 30
0.0
 11
64.2314081924
 21
30.4962169391
 31
0.0
  0
LINE
  5
13F
330
1F
100
AcDbEntity
  8
0
  6
CONTINUOUS
 62
     7
100
AcDbLine
 10
64.2314081924
 20
30.4962169391
 30
0.0
 11
64.2314081924
 21
30.7962169391
 31
0.0
  0
LINE
  5
140
330
1F
100
AcDbEntity
  8
0
  6
CONTINUOUS
 62
     7
100
AcDbLine
 10
66.8742989005
 20
30.7962169391
 30
0.0
 11
64.2314081924
 21
30.7962169391
 31
0.0
  0
LINE
  5
141
330
1F
100
AcDbEntity
  8
0
  6
CONTINUOUS
 62
     7
100
AcDbLine
 10
63.9647740798
 20
37.2337169391
 30
0.0
 11
64.2314081924
 21
37.0962169391
 31
0.0
  0
ARC
  5
142
330
1F
100
AcDbEntity
  8
0
  6
CONTINUOUS
 62
     7
100
AcDbCircle
 10
64.2314081924
 20
37.0962169391
 30
0.0
 40
0.2999999999999972
100
AcDbArc
 50
180.0
 51
270.0
  0
ARC
  5
143
330
1F
100
AcDbEntity
  8
0
  6
CONTINUOUS
 62
     7
100
AcDbCircle
 10
64.2314081924
 20
37.0962169391
 30
0.0
 40
0.2999999999999971
100
AcDbArc
 50
152.720387264
 51
180.0
  0
LINE
  5
144
330
1F
100
AcDbEntity
  8
0
  6
CONTINUOUS
 62
     7
100
AcDbLine
 10
64.2314081924
 20
30.4962169391
 30
0.0
 11
63.9647740798
 21
30.3587169391
 31
0.0
  0
ARC
  5
145
330
1F
100
AcDbEntity
  8
0
  6
CONTINUOUS
 62
     7
100
AcDbCircle
 10
70.6306268947
 20
33.7962169391
 30
0.0
 40
7.500000000000012
100
AcDbArc
 50
207.279612736
 51
152.720387264
  0
ARC
  5
146
330
1F
100
AcDbEntity
  8
0
  6
CONTINUOUS
 62
     7
100
AcDbCircle
 10
64.2314081924
 20
30.4962169391
 30
0.0
 40
0.2999999999999901
100
AcDbArc
 50
180.0
 51
207.279612736
  0
ARC
  5
147
330
1F
100
AcDbEntity
  8
0
  6
CONTINUOUS
 62
     7
100
AcDbCircle
 10
64.2314081924
 20
30.4962169391
 30
0.0
 40
0.3000000000000007
100
AcDbArc
 50
90.0
 51
180.0
  0
LINE
  5
148
330
1F
100
AcDbEntity
  8
0
  6
CONTINUOUS
 62
     7
100
AcDbLine
 10
63.6779408131
 20
36.6087169391
 30
0.0
 11
63.9560482563
 21
36.4962169391
 31
0.0
  0
SPLINE
  5
149
330
1F
100
AcDbEntity
  8
0
  6
CONTINUOUS
 62
     7
100
AcDbSpline
210
0.0
220
0.0
230
1.0
 70
     8
 71
     3
 72
    13
 73
     9
 74
     0
 42
0.00000001
 43
0.00000001
 40
0.0
 40
0.0
 40
0.0
 40
0.0
 40
0.1851458430302462
 40
0.5088028387455812
 40
0.6727195683729084
 40
0.834664787658687
 40
0.999524022657307
 40
1.0
 40
1.0
 40
1.0
 40
1.0
 10
63.71979810541882
 20
36.70744878039387
 30
0.0
 10
63.73824918224717
 20
36.75156801505406
 30
0.0
 10
63.78895494001375
 20
36.87281292917681
 30
0.0
 10
63.85478529577983
 20
37.01236863336204
 30
0.0
 10
63.90786652993046
 20
37.12139937929945
 30
0.0
 10
63.93789452849305
 20
37.18126062230566
 30
0.0
 10
63.95539709006061
 20
37.2154880145179
 30
0.0
 10
63.95779768858473
 20
37.2201547196054
 30
0.0
 10
63.95780459957779
 20
37.22016815440768
 30
0.0
  0
LINE
  5
14A
330
1F
100
AcDbEntity
  8
0
  6
CONTINUOUS
 62
     7
100
AcDbLine
 10
63.6779408131
 20
30.9837169391
 30
0.0
 11
63.9560482563
 21
31.0962169391
 31
0.0
  0
SPLINE
  5
14B
330
1F
100
AcDbEntity
  8
0
  6
CONTINUOUS
 62
     7
100
AcDbSpline
210
0.0
220
0.0
230
1.0
 70
     8
 71
     3
 72
    13
 73
     9
 74
     0
 42
0.00000001
 43
0.00000001
 40
0.0
 40
0.0
 40
0.0
 40
0.0
 40
0.0022576426108786
 40
0.166575046697784
 40
0.3266373995541934
 40
0.491740461109947
 40
0.8157192104620451
 40
1.0
 40
1.0
 40
1.0
 40
1.0
 10
63.9579279529266
 20
30.37202569686986
 30
0.0
 10
63.95789606445057
 20
30.3720876814845
 30
0.0
 10
63.95554324547186
 20
30.37666107588646
 30
0.0
 10
63.93825800284792
 20
30.4104563967748
 30
0.0
 10
63.90796186935444
 20
30.47083853413022
 30
0.0
 10
63.85471340653134
 20
30.58021036707952
 30
0.0
 10
63.78892393393591
 20
30.71968983159692
 30
0.0
 10
63.73822751171597
 20
30.84091156147318
 30
0.0
 10
63.71984639734705
 20
30.88486319323113
 30
0.0
  0
SPLINE
  5
14C
330
1F
100
AcDbEntity
  8
0
  6
CONTINUOUS
 62
     7
100
AcDbSpline
210
0.0
220
0.0
230
1.0
 70
     8
 71
     3
 72
     8
 73
     4
 74
     0
 42
0.00000001
 43
0.00000001
 40
0.0
 40
0.0
 40
0.0
 40
0.0
 40
1.0
 40
1.0
 40
1.0
 40
1.0
 10
63.95604825634418
 20
36.49621693907875
 30
0.0
 10
63.25550757066429
 20
34.76443401464938
 30
0.0
 10
63.25550757066429
 20
32.82799986350812
 30
0.0
 10
63.95604825634418
 20
31.09621693907875
 30
0.0
  0
ARC
  5
14D
330
1F
100
AcDbEntity
  8
0
  6
CONTINUOUS
 62
     7
100
AcDbCircle
 10
70.6306268947
 20
33.7962169391
 30
0.0
 40
7.499999999999995
100
AcDbArc
 50
157.975687163
 51
202.024312837
  0
LWPOLYLINE
  5
14E
330
1F
100
AcDbEntity
  8
0
  6
CONTINUOUS
 62
     7
100
AcDbPolyline
 90
        3
 70
   128
 43
0.0
 10
63.9647740798
 20
30.3587169391
 10
63.8083869296
 20
30.6806043416
 10
63.6779408131
 20
30.9837169391
  0
LINE
  5
14F
330
1F
100
AcDbEntity
  8
0
  6
CONTINUOUS
 62
     7
100
AcDbLine
 10
63.6779408131
 20
36.6087169391
 30
0.0
 11
63.7866762047
 21
36.8638445163
 31
0.0
  0
LWPOLYLINE
  5
150
330
1F
100
AcDbEntity
  8
0
  6
CONTINUOUS
 62
     7
100
AcDbPolyline
 90
        3
 70
   128
 43
0.0
 10
63.7930675749
 20
36.8780642014
 10
63.8083869296
 20
36.9118295366
 10
63.9612897623
 20
37.2269518769
  0
SPLINE
  5
151
330
1F
100
AcDbEntity
  8
0
  6
CONTINUOUS
 62
     7
100
AcDbSpline
210
0.0
220
0.0
230
1.0
 70
     8
 71
     3
 72
    12
 73
     8
 74
     0
 42
0.00000001
 43
0.00000001
 40
0.0
 40
0.0
 40
0.0
 40
0.0
 40
0.1247564065657632
 40
0.2719717893369419
 40
0.4378167897944293
 40
0.7186562123400484
 40
1.0
 40
1.0
 40
1.0
 40
1.0
 10
64.22413573735048
 20
30.80282081294815
 30
0.0
 10
64.21873983715768
 20
30.8079120740856
 30
0.0
 10
64.20697665263745
 20
30.81901113857176
 30
0.0
 10
64.17418682981642
 20
30.85223566682416
 30
0.0
 10
64.12098722972571
 20
30.90764572679592
 30
0.0
 10
64.04491747541368
 20
30.98956270416732
 30
0.0
 10
63.98568904171638
 20
31.06064427039608
 30
0.0
 10
63.95604825634418
 20
31.09621693907875
 30
0.0
  0
LINE
  5
152
330
1F
100
AcDbEntity
  8
0
  6
CONTINUOUS
 62
     7
100
AcDbLine
 10
70.6306268947
 20
31.0962169391
 30
0.0
 11
63.9560482563
 21
31.0962169391
 31
0.0
  0
SPLINE
  5
153
330
1F
100
AcDbEntity
  8
0
  6
CONTINUOUS
 62
     7
100
AcDbSpline
210
0.0
220
0.0
230
1.0
 70
     8
 71
     3
 72
    12
 73
     8
 74
     0
 42
0.00000001
 43
0.00000001
 40
0.0
 40
0.0
 40
0.0
 40
0.0
 40
0.2816455022342833
 40
0.5609662181178174
 40
0.727335433402292
 40
0.8749573501023397
 40
1.0
 40
1.0
 40
1.0
 40
1.0
 10
63.95604825634418
 20
36.49621693907875
 30
0.0
 10
63.98571090108318
 20
36.53182573607386
 30
0.0
 10
64.04479134620519
 20
36.60274940438599
 30
0.0
 10
64.12077996104428
 20
36.6845652908915
 30
0.0
 10
64.17396975678255
 20
36.73998049068847
 30
0.0
 10
64.20689052889901
 20
36.77333912411844
 30
0.0
 10
64.2187008253935
 20
36.78448186201803
 30
0.0
 10
64.22411697017598
 20
36.78959186766146
 30
0.0
  0
LINE
  5
154
330
1F
100
AcDbEntity
  8
0
  6
CONTINUOUS
 62
     7
100
AcDbLine
 10
63.9560482563
 20
36.4962169391
 30
0.0
 11
70.6306268947
 21
36.4962169391
 31
0.0
  0
LINE
  5
155
330
1F
100
AcDbEntity
  8
0
  6
CONTINUOUS
 62
     7
100
AcDbLine
 10
63.7198463973
 20
30.8848631932
 30
0.0
 11
63.6779408131
 21
30.9837169391
 31
0.0
  0
ENDSEC
  0
SECTION
  2
OBJECTS
  0
DICTIONARY
  5
C
330
0
100
AcDbDictionary
  3
ACAD_GROUP
350
D
  3
ACAD_LAYOUT
350
1A
  3
ACAD_MLEADERSTYLE
350
177
  3
ACAD_MLINESTYLE
350
17
  3
ACAD_PLOTSETTINGS
350
19
  3
ACAD_TABLESTYLE
350
176
  3
ACAD_VISUALSTYLE
350
2A
  3
ACDBHEADERROUNDTRIPXREC
350
156
  3
ACDBVARIABLEDICTIONARY
350
178
  0
DICTIONARY
  5
D
102
{ACAD_REACTORS
330
C
102
}
330
C
100
AcDbDictionary
  0
DICTIONARY
  5
1A
102
{ACAD_REACTORS
330
C
102
}
330
C
100
AcDbDictionary
  0
DICTIONARY
  5
177
102
{ACAD_REACTORS
330
C
102
}
330
C
100
AcDbDictionary
  0
DICTIONARY
  5
17
102
{ACAD_REACTORS
330
C
102
}
330
C
100
AcDbDictionary
  3
STANDARD
350
18
  0
DICTIONARY
  5
19
102
{ACAD_REACTORS
330
C
102
}
330
C
100
AcDbDictionary
  0
DICTIONARY
  5
176
102
{ACAD_REACTORS
330
C
102
}
330
C
100
AcDbDictionary
  0
DICTIONARY
  5
2A
102
{ACAD_REACTORS
330
C
102
}
330
C
100
AcDbDictionary
  3
2DWIREFRAME
350
2F
  3
3D_HIDDEN
350
31
  3
3DWIREFRAME
350
30
  3
BASIC
350
32
  3
BRIGHTEN
350
36
  3
COLORCHANGE
350
3A
  3
CONCEPTUAL
350
34
  3
DIM
350
35
  3
FACEPATTERN
350
39
  3
FLAT
350
2B
  3
FLATWITHEDGES
350
2C
  3
GOURAUD
350
2D
  3
GOURAUDWITHEDGES
350
2E
  3
LINEPATTERN
350
38
  3
REALISTIC
350
33
  3
THICKEN
350
37
  0
DICTIONARY
  5
156
102
{ACAD_REACTORS
330
C
102
}
330
C
100
AcDbDictionary
  3
CEPSNTYPE
350
15F
  3
DIMSTYLEDATA
350
175
  3
FINGERPRINTGUID
350
160
  3
HYPERLINKBASE
350
159
  3
INSUNITS
350
15E
  3
LAYOUTDICT
350
15B
  3
LWETCUNION
350
15D
  3
PLOTSETDICT
350
15C
  3
PSVPSCALE
350
162
  3
PUCSBASE
350
165
  3
PUCSORGBACK
350
16B
  3
PUCSORGBOTTOM
350
167
  3
PUCSORGFRONT
350
16A
  3
PUCSORGLEFT
350
168
  3
PUCSORGRIGHT
350
169
  3
PUCSORGTOP
350
166
  3
PUCSORTHOREF
350
163
  3
PUCSORTHOVIEW
350
164
  3
STYLESHEET
350
15A
  3
TSTACKALIGN
350
157
  3
TSTACKSIZE
350
158
  3
UCSBASE
350
16E
  3
UCSORGBACK
350
174
  3
UCSORGBOTTOM
350
170
  3
UCSORGFRONT
350
173
  3
UCSORGLEFT
350
171
  3
UCSORGRIGHT
350
172
  3
UCSORGTOP
350
16F
  3
UCSORTHOREF
350
16C
  3
UCSORTHOVIEW
350
16D
  3
VERSIONGUID
350
161
  0
DICTIONARY
  5
178
102
{ACAD_REACTORS
330
C
102
}
330
C
100
AcDbDictionary
  3
PSOLHEIGHT
350
17A
  3
PSOLWIDTH
350
179
  0
MLINESTYLE
  5
18
102
{ACAD_REACTORS
330
17
102
}
330
17
100
AcDbMlineStyle
  2
Standard
 70
     0
  3

 62
   256
 51
90.0
 52
90.0
 71
     2
 49
0.5
 62
   256
  6
BYLAYER
 49
-0.5
 62
   256
  6
BYLAYER
  0
VISUALSTYLE
  5
2F
102
{ACAD_REACTORS
330
2A
102
}
330
2A
100
AcDbVisualStyle
  2
2dWireframe
 70
     4
 71
     0
 72
     2
 73
     0
 90
        0
 40
-0.6
 41
-30.0
 62
     5
 63
     7
 74
     1
 91
        4
 64
     7
 65
   257
 75
     1
175
     1
 42
1.0
 92
        0
 66
   257
 43
1.0
 76
     1
 77
     6
 78
     2
 67
     7
 79
     5
170
     0
171
     0
290
     0
174
     0
 93
        1
 44
0.0
173
     0
291
     0
 45
0.0
1001
ACAD
1000
AcDbSavedByObjectVersion
1070
     0
  0
VISUALSTYLE
  5
31
102
{ACAD_REACTORS
330
2A
102
}
330
2A
100
AcDbVisualStyle
  2
3D Hidden
 70
     6
 71
     1
 72
     2
 73
     2
 90
        0
 40
-0.6
 41
-30.0
 62
     5
 63
     7
 74
     2
 91
        2
 64
     7
 65
   257
 75
     2
175
     1
 42
40.0
 92
        0
 66
   257
 43
1.0
 76
     1
 77
     6
 78
     2
 67
     7
 79
     3
170
     0
171
     0
290
     0
174
     0
 93
        1
 44
0.0
173
     0
291
     0
 45
0.0
1001
ACAD
1000
AcDbSavedByObjectVersion
1070
     0
  0
VISUALSTYLE
  5
30
102
{ACAD_REACTORS
330
2A
102
}
330
2A
100
AcDbVisualStyle
  2
3dWireframe
 70
     5
 71
     0
 72
     2
 73
     0
 90
        0
 40
-0.6
 41
-30.0
 62
     5
 63
     7
 74
     1
 91
        4
 64
     7
 65
   257
 75
     1
175
     1
 42
1.0
 92
        0
 66
   257
 43
1.0
 76
     1
 77
     6
 78
     2
 67
     7
 79
     5
170
     0
171
     0
290
     0
174
     0
 93
        1
 44
0.0
173
     0
291
     0
 45
0.0
1001
ACAD
1000
AcDbSavedByObjectVersion
1070
     0
  0
VISUALSTYLE
  5
32
102
{ACAD_REACTORS
330
2A
102
}
330
2A
100
AcDbVisualStyle
  2
Basic
 70
     7
 71
     1
 72
     0
 73
     1
 90
        0
 40
-0.6
 41
-30.0
 62
     5
 63
     7
 74
     0
 91
        4
 64
     7
 65
   257
 75
     1
175
     1
 42
1.0
 92
        8
 66
     7
 43
1.0
 76
     1
 77
     6
 78
     2
 67
     7
 79
     5
170
     0
171
     0
290
     0
174
     0
 93
        1
 44
0.0
173
     0
291
     1
 45
0.0
1001
ACAD
1000
AcDbSavedByObjectVersion
1070
     0
  0
VISUALSTYLE
  5
36
102
{ACAD_REACTORS
330
2A
102
}
330
2A
100
AcDbVisualStyle
  2
Brighten
 70
    12
 71
     2
 72
     2
 73
     0
 90
        0
 40
-0.6
 41
-30.0
 62
     5
 63
     7
 74
     1
 91
        4
 64
     7
 65
   257
 75
     1
175
     1
 42
1.0
 92
        8
 66
     7
 43
1.0
 76
     1
 77
     6
 78
     2
 67
     7
 79
     5
170
     0
171
     0
290
     0
174
     0
 93
        1
 44
50.0
173
     0
291
     1
 45
0.0
1001
ACAD
1000
AcDbSavedByObjectVersion
1070
     0
  0
VISUALSTYLE
  5
3A
102
{ACAD_REACTORS
330
2A
102
}
330
2A
100
AcDbVisualStyle
  2
ColorChange
 70
    16
 71
     2
 72
     2
 73
     3
 90
        0
 40
-0.6
 41
-30.0
 62
     5
 63
     8
 74
     1
 91
        4
 64
     7
 65
   257
 75
     1
175
     1
 42
1.0
 92
        8
 66
     8
 43
1.0
 76
     1
 77
     6
 78
     2
 67
     7
 79
     5
170
     0
171
     0
290
     0
174
     0
 93
        1
 44
0.0
173
     0
291
     1
 45
0.0
1001
ACAD
1000
AcDbSavedByObjectVersion
1070
     0
  0
VISUALSTYLE
  5
34
102
{ACAD_REACTORS
330
2A
102
}
330
2A
100
AcDbVisualStyle
  2
Conceptual
 70
     9
 71
     3
 72
     2
 73
     0
 90
        0
 40
-0.6
 41
-30.0
 62
     5
 63
     7
 74
     2
 91
        2
 64
     7
 65
   257
 75
     1
175
     1
 42
40.0
 92
        8
 66
     7
 43
1.0
 76
     1
 77
     6
 78
     2
 67
     7
 79
     3
170
     0
171
     0
290
     0
174
     0
 93
        1
 44
0.0
173
     0
291
     0
 45
0.0
1001
ACAD
1000
AcDbSavedByObjectVersion
1070
     0
  0
VISUALSTYLE
  5
35
102
{ACAD_REACTORS
330
2A
102
}
330
2A
100
AcDbVisualStyle
  2
Dim
 70
    11
 71
     2
 72
     2
 73
     0
 90
        0
 40
-0.6
 41
-30.0
 62
     5
 63
     7
 74
     1
 91
        4
 64
     7
 65
   257
 75
     1
175
     1
 42
1.0
 92
        8
 66
     7
 43
1.0
 76
     1
 77
     6
 78
     2
 67
     7
 79
     5
170
     0
171
     0
290
     0
174
     0
 93
        1
 44
-50.0
173
     0
291
     1
 45
0.0
1001
ACAD
1000
AcDbSavedByObjectVersion
1070
     0
  0
VISUALSTYLE
  5
39
102
{ACAD_REACTORS
330
2A
102
}
330
2A
100
AcDbVisualStyle
  2
Facepattern
 70
    15
 71
     2
 72
     2
 73
     0
 90
        0
 40
-0.6
 41
-30.0
 62
     5
 63
     7
 74
     1
 91
        4
 64
     7
 65
   257
 75
     1
175
     1
 42
1.0
 92
        8
 66
     7
 43
1.0
 76
     1
 77
     6
 78
     2
 67
     7
 79
     5
170
     0
171
     0
290
     0
174
     0
 93
        1
 44
0.0
173
     0
291
     1
 45
0.0
1001
ACAD
1000
AcDbSavedByObjectVersion
1070
     0
  0
VISUALSTYLE
  5
2B
102
{ACAD_REACTORS
330
2A
102
}
330
2A
100
AcDbVisualStyle
  2
Flat
 70
     0
 71
     2
 72
     1
 73
     1
 90
        2
 40
-0.6
 41
30.0
 62
     5
 63
     7
 74
     0
 91
        4
 64
     7
 65
   257
 75
     1
175
     1
 42
1.0
 92
        8
 66
     7
 43
1.0
 76
     1
 77
     6
 78
     2
 67
     7
 79
     5
170
     0
171
     0
290
     0
174
     0
 93
       13
 44
0.0
173
     0
291
     1
 45
0.0
1001
ACAD
1000
AcDbSavedByObjectVersion
1070
     0
  0
VISUALSTYLE
  5
2C
102
{ACAD_REACTORS
330
2A
102
}
330
2A
100
AcDbVisualStyle
  2
FlatWithEdges
 70
     1
 71
     2
 72
     1
 73
     1
 90
        2
 40
-0.6
 41
30.0
 62
     5
 63
     7
 74
     1
 91
        4
 64
     7
 65
   257
 75
     1
175
     1
 42
1.0
 92
        0
 66
   257
 43
1.0
 76
     1
 77
     6
 78
     2
 67
     7
 79
     5
170
     0
171
     0
290
     0
174
     0
 93
       13
 44
0.0
173
     0
291
     1
 45
0.0
1001
ACAD
1000
AcDbSavedByObjectVersion
1070
     0
  0
VISUALSTYLE
  5
2D
102
{ACAD_REACTORS
330
2A
102
}
330
2A
100
AcDbVisualStyle
  2
Gouraud
 70
     2
 71
     2
 72
     2
 73
     1
 90
        2
 40
-0.6
 41
30.0
 62
     5
 63
     7
 74
     0
 91
        4
 64
     7
 65
   257
 75
     1
175
     1
 42
1.0
 92
        0
 66
     7
 43
1.0
 76
     1
 77
     6
 78
     2
 67
     7
 79
     5
170
     0
171
     0
290
     0
174
     0
 93
       13
 44
0.0
173
     0
291
     1
 45
0.0
1001
ACAD
1000
AcDbSavedByObjectVersion
1070
     0
  0
VISUALSTYLE
  5
2E
102
{ACAD_REACTORS
330
2A
102
}
330
2A
100
AcDbVisualStyle
  2
GouraudWithEdges
 70
     3
 71
     2
 72
     2
 73
     1
 90
        2
 40
-0.6
 41
30.0
 62
     5
 63
     7
 74
     1
 91
        4
 64
     7
 65
   257
 75
     1
175
     1
 42
1.0
 92
        0
 66
   257
 43
1.0
 76
     1
 77
     6
 78
     2
 67
     7
 79
     5
170
     0
171
     0
290
     0
174
     0
 93
       13
 44
0.0
173
     0
291
     1
 45
0.0
1001
ACAD
1000
AcDbSavedByObjectVersion
1070
     0
  0
VISUALSTYLE
  5
38
102
{ACAD_REACTORS
330
2A
102
}
330
2A
100
AcDbVisualStyle
  2
Linepattern
 70
    14
 71
     2
 72
     2
 73
     0
 90
        0
 40
-0.6
 41
-30.0
 62
     5
 63
     7
 74
     1
 91
        4
 64
     7
 65
   257
 75
     7
175
     7
 42
1.0
 92
        8
 66
     7
 43
1.0
 76
     1
 77
     6
 78
     2
 67
     7
 79
     5
170
     0
171
     0
290
     0
174
     0
 93
        1
 44
0.0
173
     0
291
     1
 45
0.0
1001
ACAD
1000
AcDbSavedByObjectVersion
1070
     0
  0
VISUALSTYLE
  5
33
102
{ACAD_REACTORS
330
2A
102
}
330
2A
100
AcDbVisualStyle
  2
Realistic
 70
     8
 71
     2
 72
     2
 73
     0
 90
        0
 40
-0.6
 41
-30.0
 62
     5
 63
     7
 74
     1
 91
        0
 64
     7
 65
   257
 75
     1
175
     1
 42
1.0
 92
        8
 66
     8
 43
1.0
 76
     1
 77
     6
 78
     2
 67
     7
 79
     5
170
     0
171
     0
290
     0
174
     0
 93
       13
 44
0.0
173
     0
291
     0
 45
0.0
1001
ACAD
1000
AcDbSavedByObjectVersion
1070
     0
  0
VISUALSTYLE
  5
37
102
{ACAD_REACTORS
330
2A
102
}
330
2A
100
AcDbVisualStyle
  2
Thicken
 70
    13
 71
     2
 72
     2
 73
     0
 90
        0
 40
-0.6
 41
-30.0
 62
     5
 63
     7
 74
     1
 91
        4
 64
     7
 65
   257
 75
     1
175
     1
 42
1.0
 92
       12
 66
     7
 43
1.0
 76
     1
 77
     6
 78
     2
 67
     7
 79
     5
170
     0
171
     0
290
     0
174
     0
 93
        1
 44
0.0
173
     0
291
     1
 45
0.0
1001
ACAD
1000
AcDbSavedByObjectVersion
1070
     0
  0
XRECORD
  5
15F
102
{ACAD_REACTORS
330
156
102
}
330
156
100
AcDbXrecord
 90
        0
  0
XRECORD
  5
175
102
{ACAD_REACTORS
330
156
102
}
330
156
100
AcDbXrecord
1000
DSTYLE
1002
{
1070
   179
 70
     2
1070
   143
 40
0.0393700787
1070
    41
 40
1.2
1070
    44
 40
0.2
1070
    42
 40
0.2
1070
   147
 40
0.3048
1070
    73
 70
     1
1070
    74
 70
     1
1070
   340
340
11
1070
   140
 40
0.7
1070
   284
 70
     0
1070
    78
 70
     0
1002
}
  0
XRECORD
  5
160
102
{ACAD_REACTORS
330
156
102
}
330
156
100
AcDbXrecord
  1
{226BDAB8-2D17-4B95-B7EB-B228A7530890}
  0
XRECORD
  5
159
102
{ACAD_REACTORS
330
156
102
}
330
156
100
AcDbXrecord
  1

  0
XRECORD
  5
15E
102
{ACAD_REACTORS
330
156
102
}
330
156
100
AcDbXrecord
 90
        4
  0
XRECORD
  5
15B
102
{ACAD_REACTORS
330
156
102
}
330
156
100
AcDbXrecord
340
1A
  0
XRECORD
  5
15D
102
{ACAD_REACTORS
330
156
102
}
330
156
100
AcDbXrecord
 90
    10269
  0
XRECORD
  5
15C
102
{ACAD_REACTORS
330
156
102
}
330
156
100
AcDbXrecord
340
19
  0
XRECORD
  5
162
102
{ACAD_REACTORS
330
156
102
}
330
156
100
AcDbXrecord
 40
0.0
  0
XRECORD
  5
165
102
{ACAD_REACTORS
330
156
102
}
330
156
100
AcDbXrecord
340
0
  0
XRECORD
  5
16B
102
{ACAD_REACTORS
330
156
102
}
330
156
100
AcDbXrecord
 10
0.0
 20
0.0
 30
0.0
  0
XRECORD
  5
167
102
{ACAD_REACTORS
330
156
102
}
330
156
100
AcDbXrecord
 10
0.0
 20
0.0
 30
0.0
  0
XRECORD
  5
16A
102
{ACAD_REACTORS
330
156
102
}
330
156
100
AcDbXrecord
 10
0.0
 20
0.0
 30
0.0
  0
XRECORD
  5
168
102
{ACAD_REACTORS
330
156
102
}
330
156
100
AcDbXrecord
 10
0.0
 20
0.0
 30
0.0
  0
XRECORD
  5
169
102
{ACAD_REACTORS
330
156
102
}
330
156
100
AcDbXrecord
 10
0.0
 20
0.0
 30
0.0
  0
XRECORD
  5
166
102
{ACAD_REACTORS
330
156
102
}
330
156
100
AcDbXrecord
 10
0.0
 20
0.0
 30
0.0
  0
XRECORD
  5
163
102
{ACAD_REACTORS
330
156
102
}
330
156
100
AcDbXrecord
340
0
  0
XRECORD
  5
164
102
{ACAD_REACTORS
330
156
102
}
330
156
100
AcDbXrecord
 70
     0
  0
XRECORD
  5
15A
102
{ACAD_REACTORS
330
156
102
}
330
156
100
AcDbXrecord
  1

  0
XRECORD
  5
157
102
{ACAD_REACTORS
330
156
102
}
330
156
100
AcDbXrecord
 90
        1
  0
XRECORD
  5
158
102
{ACAD_REACTORS
330
156
102
}
330
156
100
AcDbXrecord
 90
       70
  0
XRECORD
  5
16E
102
{ACAD_REACTORS
330
156
102
}
330
156
100
AcDbXrecord
340
0
  0
XRECORD
  5
174
102
{ACAD_REACTORS
330
156
102
}
330
156
100
AcDbXrecord
 10
0.0
 20
0.0
 30
0.0
  0
XRECORD
  5
170
102
{ACAD_REACTORS
330
156
102
}
330
156
100
AcDbXrecord
 10
0.0
 20
0.0
 30
0.0
  0
XRECORD
  5
173
102
{ACAD_REACTORS
330
156
102
}
330
156
100
AcDbXrecord
 10
0.0
 20
0.0
 30
0.0
  0
XRECORD
  5
171
102
{ACAD_REACTORS
330
156
102
}
330
156
100
AcDbXrecord
 10
0.0
 20
0.0
 30
0.0
  0
XRECORD
  5
172
102
{ACAD_REACTORS
330
156
102
}
330
156
100
AcDbXrecord
 10
0.0
 20
0.0
 30
0.0
  0
XRECORD
  5
16F
102
{ACAD_REACTORS
330
156
102
}
330
156
100
AcDbXrecord
 10
0.0
 20
0.0
 30
0.0
  0
XRECORD
  5
16C
102
{ACAD_REACTORS
330
156
102
}
330
156
100
AcDbXrecord
340
0
  0
XRECORD
  5
16D
102
{ACAD_REACTORS
330
156
102
}
330
156
100
AcDbXrecord
 70
     0
  0
XRECORD
  5
161
102
{ACAD_REACTORS
330
156
102
}
330
156
100
AcDbXrecord
  1
{FAEB1C32-E019-11D5-929B-00C0DF256EC4}
  0
DICTIONARYVAR
  5
17A
102
{ACAD_REACTORS
330
178
102
}
330
178
100
DictionaryVariables
280
     0
  1
80.000000
  0
DICTIONARYVAR
  5
179
102
{ACAD_REACTORS
330
178
102
}
330
178
100
DictionaryVariables
280
     0
  1
5.000000
  0
ENDSEC
  0
EOF
