  0
SECTION
  2
HEADER
  9
$ACADVER
  1
AC1014
  9
$ACADMAINTVER
 70
     9
  9
$DWGCODEPAGE
  3
ANSI_1252
  9
$INSBASE
 10
0.0
 20
0.0
 30
0.0
  9
$EXTMIN
 10
0.0
 20
0.0
 30
0.0
  9
$EXTMAX
 10
1260.0
 20
891.0
 30
0.0
  9
$LIMMIN
 10
0.0
 20
0.0
  9
$LIMMAX
 10
1260.0
 20
891.0
  9
$ORTHOMODE
 70
     0
  9
$REGENMODE
 70
     1
  9
$FILLMODE
 70
     1
  9
$QTEXTMODE
 70
     0
  9
$MIRRTEXT
 70
     1
  9
$DRAGMODE
 70
     2
  9
$LTSCALE
 40
3.0
  9
$OSMODE
 70
    37
  9
$ATTMODE
 70
     1
  9
$TEXTSIZE
 40
10.5
  9
$TRACEWID
 40
1.0
  9
$TEXTSTYLE
  7
STANDARD
  9
$CLAYER
  8
0
  9
$CELTYPE
  6
BYLAYER
  9
$CECOLOR
 62
   256
  9
$CELTSCALE
 40
1.0
  9
$DELOBJ
 70
     1
  9
$DISPSILH
 70
     0
  9
$DIMSCALE
 40
1.0
  9
$DIMASZ
 40
18.0
  9
$DIMEXO
 40
3.0
  9
$DIMDLI
 40
3.75
  9
$DIMRND
 40
0.0
  9
$DIMDLE
 40
0.0
  9
$DIMEXE
 40
3.0
  9
$DIMTP
 40
0.0
  9
$DIMTM
 40
0.0
  9
$DIMTXT
 40
10.5
  9
$DIMCEN
 40
2.5
  9
$DIMTSZ
 40
0.0
  9
$DIMTOL
 70
     0
  9
$DIMLIM
 70
     0
  9
$DIMTIH
 70
     1
  9
$DIMTOH
 70
     1
  9
$DIMSE1
 70
     0
  9
$DIMSE2
 70
     0
  9
$DIMTAD
 70
     1
  9
$DIMZIN
 70
     0
  9
$DIMBLK
  1

  9
$DIMASO
 70
     1
  9
$DIMSHO
 70
     1
  9
$DIMPOST
  1

  9
$DIMAPOST
  1

  9
$DIMALT
 70
     0
  9
$DIMALTD
 70
     3
  9
$DIMALTF
 40
0.0393700787
  9
$DIMLFAC
 40
1.0
  9
$DIMTOFL
 70
     1
  9
$DIMTVP
 40
0.0
  9
$DIMTIX
 70
     0
  9
$DIMSOXD
 70
     0
  9
$DIMSAH
 70
     0
  9
$DIMBLK1
  1

  9
$DIMBLK2
  1

  9
$DIMSTYLE
  2
ISO-25
  9
$DIMCLRD
 70
     0
  9
$DIMCLRE
 70
     0
  9
$DIMCLRT
 70
     0
  9
$DIMTFAC
 40
1.0
  9
$DIMGAP
 40
4.572
  9
$DIMJUST
 70
     0
  9
$DIMSD1
 70
     0
  9
$DIMSD2
 70
     0
  9
$DIMTOLJ
 70
     0
  9
$DIMTZIN
 70
     0
  9
$DIMALTZ
 70
     0
  9
$DIMALTTZ
 70
     0
  9
$DIMFIT
 70
     3
  9
$DIMUPT
 70
     0
  9
$DIMUNIT
 70
     2
  9
$DIMDEC
 70
     2
  9
$DIMTDEC
 70
     2
  9
$DIMALTU
 70
     2
  9
$DIMALTTD
 70
     3
  9
$DIMTXSTY
  7
STANDARD
  9
$DIMAUNIT
 70
     0
  9
$LUNITS
 70
     2
  9
$LUPREC
 70
     2
  9
$SKETCHINC
 40
1.0
  9
$FILLETRAD
 40
10.0
  9
$AUNITS
 70
     0
  9
$AUPREC
 70
     2
  9
$MENU
  1
.
  9
$ELEVATION
 40
0.0
  9
$PELEVATION
 40
0.0
  9
$THICKNESS
 40
0.0
  9
$LIMCHECK
 70
     0
  9
$CHAMFERA
 40
10.0
  9
$CHAMFERB
 40
10.0
  9
$CHAMFERC
 40
20.0
  9
$CHAMFERD
 40
0.0
  9
$SKPOLY
 70
     0
  9
$TDCREATE
 40
2456582.450436227
  9
$TDUPDATE
 40
2456582.450436875
  9
$TDINDWG
 40
0.0000000116
  9
$TDUSRTIMER
 40
0.0000000116
  9
$USRTIMER
 70
     1
  9
$ANGBASE
 50
0.0
  9
$ANGDIR
 70
     0
  9
$PDMODE
 70
     0
  9
$PDSIZE
 40
-1.0
  9
$PLINEWID
 40
0.0
  9
$COORDS
 70
     1
  9
$SPLFRAME
 70
     0
  9
$SPLINETYPE
 70
     6
  9
$SPLINESEGS
 70
     8
  9
$ATTDIA
 70
     0
  9
$ATTREQ
 70
     1
  9
$HANDLING
 70
     1
  9
$HANDSEED
  5
5C6
  9
$SURFTAB1
 70
     6
  9
$SURFTAB2
 70
     6
  9
$SURFTYPE
 70
     6
  9
$SURFU
 70
     6
  9
$SURFV
 70
     6
  9
$UCSNAME
  2

  9
$UCSORG
 10
0.0
 20
0.0
 30
0.0
  9
$UCSXDIR
 10
1.0
 20
0.0
 30
0.0
  9
$UCSYDIR
 10
0.0
 20
1.0
 30
0.0
  9
$PUCSNAME
  2

  9
$PUCSORG
 10
0.0
 20
0.0
 30
0.0
  9
$PUCSXDIR
 10
1.0
 20
0.0
 30
0.0
  9
$PUCSYDIR
 10
0.0
 20
1.0
 30
0.0
  9
$USERI1
 70
     0
  9
$USERI2
 70
     0
  9
$USERI3
 70
     0
  9
$USERI4
 70
     0
  9
$USERI5
 70
     0
  9
$USERR1
 40
0.0
  9
$USERR2
 40
0.0
  9
$USERR3
 40
0.0
  9
$USERR4
 40
0.0
  9
$USERR5
 40
0.0
  9
$WORLDVIEW
 70
     1
  9
$SHADEDGE
 70
     3
  9
$SHADEDIF
 70
    70
  9
$TILEMODE
 70
     1
  9
$MAXACTVP
 70
    64
  9
$PINSBASE
 10
0.0
 20
0.0
 30
0.0
  9
$PLIMCHECK
 70
     0
  9
$PEXTMIN
 10
1.0000000000E+20
 20
1.0000000000E+20
 30
1.0000000000E+20
  9
$PEXTMAX
 10
-1.0000000000E+20
 20
-1.0000000000E+20
 30
-1.0000000000E+20
  9
$PLIMMIN
 10
0.0
 20
0.0
  9
$PLIMMAX
 10
420.0
 20
297.0
  9
$UNITMODE
 70
     0
  9
$VISRETAIN
 70
     1
  9
$PLINEGEN
 70
     0
  9
$PSLTSCALE
 70
     1
  9
$TREEDEPTH
 70
  3020
  9
$PICKSTYLE
 70
     1
  9
$CMLSTYLE
  2
STANDARD
  9
$CMLJUST
 70
     0
  9
$CMLSCALE
 40
20.0
  9
$PROXYGRAPHICS
 70
     1
  9
$MEASUREMENT
 70
     1
  0
ENDSEC
  0
SECTION
  2
CLASSES
  0
CLASS
  1
ACDBDICTIONARYWDFLT
  2
AcDbDictionaryWithDefault
  3
ObjectDBX Classes
 90
        0
280
     0
281
     0
  0
CLASS
  1
VISUALSTYLE
  2
AcDbVisualStyle
  3
ObjectDBX Classes
 90
     4095
280
     0
281
     0
  0
CLASS
  1
MATERIAL
  2
AcDbMaterial
  3
ObjectDBX Classes
 90
     1153
280
     0
281
     0
  0
CLASS
  1
XRECORD
  2
AcDbXrecord
  3
AutoCAD 2000
 90
        0
280
     0
281
     0
  0
CLASS
  1
LWPOLYLINE
  2
AcDbPolyline
  3
AutoCAD 2000
 90
        0
280
     0
281
     1
  0
CLASS
  1
HATCH
  2
AcDbHatch
  3
AutoCAD 2000
 90
        0
280
     0
281
     1
  0
ENDSEC
  0
SECTION
  2
TABLES
  0
TABLE
  2
VPORT
  5
8
330
0
100
AcDbSymbolTable
 70
     1
  0
VPORT
  5
29
330
8
100
AcDbSymbolTableRecord
100
AcDbViewportTableRecord
  2
*ACTIVE
 70
     0
 10
0.0
 20
0.0
 11
1.0
 21
1.0
 12
630.0
 22
445.5
 13
0.0
 23
0.0
 14
10.0
 24
10.0
 15
10.0
 25
10.0
 16
0.0
 26
0.0
 36
1.0
 17
0.0
 27
0.0
 37
0.0
 40
891.0
 41
1.4141414141
 42
50.0
 43
0.0
 44
0.0
 50
0.0
 51
0.0
 71
     0
 72
  2000
 73
     1
 74
     3
 75
     0
 76
     0
 77
     0
 78
     0
  0
ENDTAB
  0
TABLE
  2
LTYPE
  5
5
330
0
100
AcDbSymbolTable
 70
     6
  0
LTYPE
  5
14
330
5
100
AcDbSymbolTableRecord
100
AcDbLinetypeTableRecord
  2
BYBLOCK
 70
     0
  3

 72
    65
 73
     0
 40
0.0
  0
LTYPE
  5
15
330
5
100
AcDbSymbolTableRecord
100
AcDbLinetypeTableRecord
  2
BYLAYER
 70
     0
  3

 72
    65
 73
     0
 40
0.0
  0
LTYPE
  5
16
330
5
100
AcDbSymbolTableRecord
100
AcDbLinetypeTableRecord
  2
CONTINUOUS
 70
     0
  3
Solid line
 72
    65
 73
     0
 40
0.0
  0
LTYPE
  5
3F
330
5
100
AcDbSymbolTableRecord
100
AcDbLinetypeTableRecord
  2
HIDDEN
 70
     0
  3
Hidden __ __ __ __ __ __ __ __ __ __ __ __ __ __
 72
    65
 73
     2
 40
1.905
 49
1.27
 74
     0
 49
-0.635
 74
     0
  0
LTYPE
  5
40
330
5
100
AcDbSymbolTableRecord
100
AcDbLinetypeTableRecord
  2
PHANTOM
 70
     0
  3
Phantom ______  __  __  ______  __  __  ______
 72
    65
 73
     6
 40
12.7
 49
6.35
 74
     0
 49
-1.27
 74
     0
 49
1.27
 74
     0
 49
-1.27
 74
     0
 49
1.27
 74
     0
 49
-1.27
 74
     0
  0
LTYPE
  5
41
330
5
100
AcDbSymbolTableRecord
100
AcDbLinetypeTableRecord
  2
CENTER
 70
     0
  3
Center ____ _ ____ _ ____ _ ____ _ ____ _ ____
 72
    65
 73
     4
 40
10.16
 49
6.35
 74
     0
 49
-1.27
 74
     0
 49
1.27
 74
     0
 49
-1.27
 74
     0
  0
LTYPE
  5
42
330
5
100
AcDbSymbolTableRecord
100
AcDbLinetypeTableRecord
  2
CENTERX2
 70
     0
  3
Center (2x) ________  __  ________  __  _____
 72
    65
 73
     4
 40
20.32
 49
12.7
 74
     0
 49
-2.54
 74
     0
 49
2.54
 74
     0
 49
-2.54
 74
     0
  0
LTYPE
  5
43
330
5
100
AcDbSymbolTableRecord
100
AcDbLinetypeTableRecord
  2
DOT2
 70
     0
  3
Dot (.5x) ........................................
 72
    65
 73
     2
 40
0.635
 49
0.0
 74
     0
 49
-0.635
 74
     0
  0
ENDTAB
  0
TABLE
  2
LAYER
  5
2
330
0
100
AcDbSymbolTable
 70
     1
  0
LAYER
  5
10
330
2
100
AcDbSymbolTableRecord
100
AcDbLayerTableRecord
  2
0
 70
     0
 62
     7
  6
CONTINUOUS
  0
ENDTAB
  0
TABLE
  2
STYLE
  5
3
330
0
100
AcDbSymbolTable
 70
     1
  0
STYLE
  5
11
330
3
100
AcDbSymbolTableRecord
100
AcDbTextStyleTableRecord
  2
STANDARD
 70
     0
 40
0.0
 41
1.0
 50
0.0
 71
     0
 42
10.5
  3
txt
  4

  0
ENDTAB
  0
TABLE
  2
VIEW
  5
6
330
0
100
AcDbSymbolTable
 70
     0
  0
ENDTAB
  0
TABLE
  2
UCS
  5
7
330
0
100
AcDbSymbolTable
 70
     0
  0
ENDTAB
  0
TABLE
  2
APPID
  5
9
330
0
100
AcDbSymbolTable
 70
     1
  0
APPID
  5
12
330
9
100
AcDbSymbolTableRecord
100
AcDbRegAppTableRecord
  2
ACAD
 70
     0
  0
ENDTAB
  0
TABLE
  2
DIMSTYLE
  5
A
330
0
100
AcDbSymbolTable
 70
     1
  0
DIMSTYLE
105
27
330
A
100
AcDbSymbolTableRecord
100
AcDbDimStyleTableRecord
  2
ISO-25
 70
     0
  3

  4

  5

  6

  7

 40
1.0
 41
2.5
 42
0.625
 43
3.75
 44
1.25
 45
0.0
 46
0.0
 47
0.0
 48
0.0
140
2.5
141
2.5
142
0.0
143
0.0393700787
144
1.0
145
0.0
146
1.0
147
0.625
 71
     0
 72
     0
 73
     0
 74
     0
 75
     0
 76
     0
 77
     1
 78
     8
170
     0
171
     3
172
     1
173
     0
174
     0
175
     0
176
     0
177
     0
178
     0
270
     2
271
     2
272
     2
273
     2
274
     3
340
11
275
     0
280
     0
281
     0
282
     0
283
     0
284
     8
285
     0
286
     0
287
     3
288
     0
  0
ENDTAB
  0
TABLE
  2
BLOCK_RECORD
  5
1
330
0
100
AcDbSymbolTable
 70
     1
  0
BLOCK_RECORD
  5
1F
330
1
100
AcDbSymbolTableRecord
100
AcDbBlockTableRecord
  2
*MODEL_SPACE
  0
BLOCK_RECORD
  5
1B
330
1
100
AcDbSymbolTableRecord
100
AcDbBlockTableRecord
  2
*PAPER_SPACE
  0
BLOCK_RECORD
  5
23
330
1
100
AcDbSymbolTableRecord
100
AcDbBlockTableRecord
  2
*PAPER_SPACE0
  0
ENDTAB
  0
ENDSEC
  0
SECTION
  2
BLOCKS
  0
BLOCK
  5
20
330
1F
100
AcDbEntity
  8
0
100
AcDbBlockBegin
  2
*MODEL_SPACE
 70
     0
 10
0.0
 20
0.0
 30
0.0
  3
*MODEL_SPACE
  1

  0
ENDBLK
  5
21
330
1F
100
AcDbEntity
  8
0
100
AcDbBlockEnd
  0
BLOCK
  5
1C
330
1B
100
AcDbEntity
 67
     1
  8
0
100
AcDbBlockBegin
  2
*PAPER_SPACE
 70
     0
 10
0.0
 20
0.0
 30
0.0
  3
*PAPER_SPACE
  1

  0
ENDBLK
  5
1D
330
1B
100
AcDbEntity
 67
     1
  8
0
100
AcDbBlockEnd
  0
BLOCK
  5
24
330
23
100
AcDbEntity
  8
0
100
AcDbBlockBegin
  2
*PAPER_SPACE0
 70
     0
 10
0.0
 20
0.0
 30
0.0
  3
*PAPER_SPACE0
  1

  0
ENDBLK
  5
25
330
23
100
AcDbEntity
  8
0
100
AcDbBlockEnd
  0
ENDSEC
  0
SECTION
  2
ENTITIES
  0
LINE
  5
44
330
1F
100
AcDbEntity
  8
0
  6
CONTINUOUS
 62
     7
100
AcDbLine
 10
506.0734048168
 20
293.1505838566
 30
0.0
 11
504.3234049956
 21
293.1505838566
 31
0.0
  0
ARC
  5
45
330
1F
100
AcDbEntity
  8
0
  6
CONTINUOUS
 62
     7
100
AcDbCircle
 10
506.0734050552
 20
298.1505823068
 30
0.0
 40
5.000000000000057
100
AcDbArc
 50
270.0
 51
0.0
  0
LINE
  5
46
330
1F
100
AcDbEntity
  8
0
  6
CONTINUOUS
 62
     7
100
AcDbLine
 10
511.073407499
 20
300.650576704
 30
0.0
 11
511.073407499
 21
298.1505790882
 31
0.0
  0
LINE
  5
47
330
1F
100
AcDbEntity
  8
0
  6
CONTINUOUS
 62
     7
100
AcDbLine
 10
515.8234059493
 20
300.650576704
 30
0.0
 11
511.073407499
 21
300.650576704
 31
0.0
  0
LINE
  5
48
330
1F
100
AcDbEntity
  8
0
  6
CONTINUOUS
 62
     7
100
AcDbLine
 10
518.8234045784
 20
303.6505827837
 30
0.0
 11
515.8234059493
 21
300.650576704
 31
0.0
  0
LINE
  5
49
330
1F
100
AcDbEntity
  8
0
  6
CONTINUOUS
 62
     7
100
AcDbLine
 10
522.823405234
 20
303.6505827837
 30
0.0
 11
518.8234045784
 21
303.6505827837
 31
0.0
  0
LINE
  5
4A
330
1F
100
AcDbEntity
  8
0
  6
CONTINUOUS
 62
     7
100
AcDbLine
 10
525.8234038631
 20
300.650576704
 30
0.0
 11
522.823405234
 21
303.6505827837
 31
0.0
  0
LINE
  5
4B
330
1F
100
AcDbEntity
  8
0
  6
CONTINUOUS
 62
     7
100
AcDbLine
 10
530.5734023134
 20
300.650576704
 30
0.0
 11
525.8234038631
 21
300.650576704
 31
0.0
  0
LINE
  5
4C
330
1F
100
AcDbEntity
  8
0
  6
CONTINUOUS
 62
     7
100
AcDbLine
 10
530.5734023134
 20
297.1505770616
 30
0.0
 11
530.5734023134
 21
300.650576704
 31
0.0
  0
ARC
  5
4D
330
1F
100
AcDbEntity
  8
0
  6
CONTINUOUS
 62
     7
100
AcDbCircle
 10
522.5734050552
 20
297.1505823068
 30
0.0
 40
7.999999999999984
100
AcDbArc
 50
315.0
 51
0.0
  0
LINE
  5
4E
330
1F
100
AcDbEntity
  8
0
  6
CONTINUOUS
 62
     7
100
AcDbLine
 10
512.7302601615
 20
275.9937295847
 30
0.0
 11
528.2302543203
 21
291.4937237434
 31
0.0
  0
ARC
  5
4F
330
1F
100
AcDbEntity
  8
0
  6
CONTINUOUS
 62
     7
100
AcDbCircle
 10
507.0734050552
 20
281.6505823068
 30
0.0
 40
8.000000000000025
100
AcDbArc
 50
270.0
 51
315.0
  0
LINE
  5
50
330
1F
100
AcDbEntity
  8
0
  6
CONTINUOUS
 62
     7
100
AcDbLine
 10
293.5734063069
 20
273.6505815916
 30
0.0
 11
507.0734068433
 21
273.6505815916
 31
0.0
  0
ARC
  5
51
330
1F
100
AcDbEntity
  8
0
  6
CONTINUOUS
 62
     7
100
AcDbCircle
 10
293.5734050552
 20
281.6505823068
 30
0.0
 40
8.000000000000025
100
AcDbArc
 50
225.0
 51
270.0
  0
LINE
  5
52
330
1F
100
AcDbEntity
  8
0
  6
CONTINUOUS
 62
     7
100
AcDbLine
 10
272.4165513793
 20
291.4937237434
 30
0.0
 11
287.9165529887
 21
275.9937295847
 31
0.0
  0
ARC
  5
53
330
1F
100
AcDbEntity
  8
0
  6
CONTINUOUS
 62
     7
100
AcDbCircle
 10
278.0734050552
 20
297.1505823068
 30
0.0
 40
8.0
100
AcDbArc
 50
180.0
 51
225.0
  0
LINE
  5
54
330
1F
100
AcDbEntity
  8
0
  6
CONTINUOUS
 62
     7
100
AcDbLine
 10
270.0734033863
 20
300.650576704
 30
0.0
 11
270.0734033863
 21
297.1505770616
 31
0.0
  0
LINE
  5
55
330
1F
100
AcDbEntity
  8
0
  6
CONTINUOUS
 62
     7
100
AcDbLine
 10
274.8234018365
 20
300.650576704
 30
0.0
 11
270.0734033863
 21
300.650576704
 31
0.0
  0
LINE
  5
56
330
1F
100
AcDbEntity
  8
0
  6
CONTINUOUS
 62
     7
100
AcDbLine
 10
277.8234079162
 20
303.6505827837
 30
0.0
 11
274.8234018365
 21
300.650576704
 31
0.0
  0
LINE
  5
57
330
1F
100
AcDbEntity
  8
0
  6
CONTINUOUS
 62
     7
100
AcDbLine
 10
281.8234085719
 20
303.6505827837
 30
0.0
 11
277.8234079162
 21
303.6505827837
 31
0.0
  0
LINE
  5
58
330
1F
100
AcDbEntity
  8
0
  6
CONTINUOUS
 62
     7
100
AcDbLine
 10
284.823407201
 20
300.650576704
 30
0.0
 11
281.8234085719
 21
303.6505827837
 31
0.0
  0
LINE
  5
59
330
1F
100
AcDbEntity
  8
0
  6
CONTINUOUS
 62
     7
100
AcDbLine
 10
289.5734056512
 20
300.650576704
 30
0.0
 11
284.823407201
 21
300.650576704
 31
0.0
  0
LINE
  5
5A
330
1F
100
AcDbEntity
  8
0
  6
CONTINUOUS
 62
     7
100
AcDbLine
 10
289.5734056512
 20
298.1505790882
 30
0.0
 11
289.5734056512
 21
300.650576704
 31
0.0
  0
ARC
  5
5B
330
1F
100
AcDbEntity
  8
0
  6
CONTINUOUS
 62
     7
100
AcDbCircle
 10
294.5734050552
 20
298.1505823068
 30
0.0
 40
5.0
100
AcDbArc
 50
180.0
 51
270.0
  0
LINE
  5
5C
330
1F
100
AcDbEntity
  8
0
  6
CONTINUOUS
 62
     7
100
AcDbLine
 10
296.3234081546
 20
293.1505838566
 30
0.0
 11
294.5734083334
 21
293.1505838566
 31
0.0
  0
LINE
  5
5D
330
1F
100
AcDbEntity
  8
0
  6
CONTINUOUS
 62
     7
100
AcDbLine
 10
296.3234081546
 20
293.1505838566
 30
0.0
 11
296.3234081546
 21
289.9005809955
 31
0.0
  0
LINE
  5
5E
330
1F
100
AcDbEntity
  8
0
  6
CONTINUOUS
 62
     7
100
AcDbLine
 10
296.3234081546
 20
289.9005809955
 30
0.0
 11
297.0734059493
 21
289.9005809955
 31
0.0
  0
LINE
  5
5F
330
1F
100
AcDbEntity
  8
0
  6
CONTINUOUS
 62
     7
100
AcDbLine
 10
297.0734059493
 20
289.9005809955
 30
0.0
 11
297.0734059493
 21
290.6505862407
 31
0.0
  0
LINE
  5
60
330
1F
100
AcDbEntity
  8
0
  6
CONTINUOUS
 62
     7
100
AcDbLine
 10
503.573407201
 20
290.6505862407
 30
0.0
 11
297.0734059493
 21
290.6505862407
 31
0.0
  0
LINE
  5
61
330
1F
100
AcDbEntity
  8
0
  6
CONTINUOUS
 62
     7
100
AcDbLine
 10
503.573407201
 20
290.6505862407
 30
0.0
 11
503.573407201
 21
289.9005809955
 31
0.0
  0
LINE
  5
62
330
1F
100
AcDbEntity
  8
0
  6
CONTINUOUS
 62
     7
100
AcDbLine
 10
503.573407201
 20
289.9005809955
 30
0.0
 11
504.3234049956
 21
289.9005809955
 31
0.0
  0
LINE
  5
63
330
1F
100
AcDbEntity
  8
0
  6
CONTINUOUS
 62
     7
100
AcDbLine
 10
504.3234049956
 20
289.9005809955
 30
0.0
 11
504.3234049956
 21
293.1505838566
 31
0.0
  0
LINE
  5
64
330
1F
100
AcDbEntity
  8
0
  6
CONTINUOUS
 62
     7
100
AcDbLine
 10
297.0734059493
 20
290.6505862407
 30
0.0
 11
297.0734059493
 21
293.1505838566
 31
0.0
  0
LINE
  5
65
330
1F
100
AcDbEntity
  8
0
  6
CONTINUOUS
 62
     7
100
AcDbLine
 10
503.573407201
 20
293.1505838566
 30
0.0
 11
297.0734059493
 21
293.1505838566
 31
0.0
  0
LINE
  5
66
330
1F
100
AcDbEntity
  8
0
  6
CONTINUOUS
 62
     7
100
AcDbLine
 10
503.573407201
 20
293.1505838566
 30
0.0
 11
503.573407201
 21
290.6505862407
 31
0.0
  0
LINE
  5
67
330
1F
100
AcDbEntity
  8
0
  6
CONTINUOUS
 62
     7
100
AcDbLine
 10
491.573405234
 20
294.1505858831
 30
0.0
 11
309.0734079162
 21
294.1505858831
 31
0.0
  0
LINE
  5
68
330
1F
100
AcDbEntity
  8
0
  6
CONTINUOUS
 62
     7
100
AcDbLine
 10
491.573405234
 20
293.1505838566
 30
0.0
 11
491.573405234
 21
294.1505858831
 31
0.0
  0
LINE
  5
69
330
1F
100
AcDbEntity
  8
0
  6
CONTINUOUS
 62
     7
100
AcDbLine
 10
309.0734079162
 20
294.1505858831
 30
0.0
 11
309.0734079162
 21
293.1505838566
 31
0.0
  0
LINE
  5
6A
330
1F
100
AcDbEntity
  8
0
  6
CONTINUOUS
 62
     7
100
AcDbLine
 10
491.573405234
 20
295.1505879097
 30
0.0
 11
491.5314435641
 21
295.6505814724
 31
0.0
  0
LINE
  5
6B
330
1F
100
AcDbEntity
  8
0
  6
CONTINUOUS
 62
     7
100
AcDbLine
 10
491.573405234
 20
295.1505879097
 30
0.0
 11
491.573405234
 21
294.1505858831
 31
0.0
  0
LINE
  5
6C
330
1F
100
AcDbEntity
  8
0
  6
CONTINUOUS
 62
     7
100
AcDbLine
 10
309.0734079162
 20
294.1505858831
 30
0.0
 11
309.0734079162
 21
295.1505879097
 31
0.0
  0
LINE
  5
6D
330
1F
100
AcDbEntity
  8
0
  6
CONTINUOUS
 62
     7
100
AcDbLine
 10
309.1153621356
 20
295.6505814724
 30
0.0
 11
309.0734079162
 21
295.1505879097
 31
0.0
  0
LINE
  5
6E
330
1F
100
AcDbEntity
  8
0
  6
CONTINUOUS
 62
     7
100
AcDbLine
 10
294.5734083334
 20
615.1505807571
 30
0.0
 11
296.3234081546
 21
615.1505807571
 31
0.0
  0
ARC
  5
6F
330
1F
100
AcDbEntity
  8
0
  6
CONTINUOUS
 62
     7
100
AcDbCircle
 10
294.5734050552
 20
610.1505823068
 30
0.0
 40
5.000000000000114
100
AcDbArc
 50
90.0
 51
180.0
  0
LINE
  5
70
330
1F
100
AcDbEntity
  8
0
  6
CONTINUOUS
 62
     7
100
AcDbLine
 10
289.5734056512
 20
607.6505879097
 30
0.0
 11
289.5734056512
 21
610.1505855255
 31
0.0
  0
LINE
  5
71
330
1F
100
AcDbEntity
  8
0
  6
CONTINUOUS
 62
     7
100
AcDbLine
 10
284.823407201
 20
607.6505879097
 30
0.0
 11
289.5734056512
 21
607.6505879097
 31
0.0
  0
LINE
  5
72
330
1F
100
AcDbEntity
  8
0
  6
CONTINUOUS
 62
     7
100
AcDbLine
 10
281.8234085719
 20
604.65058183
 30
0.0
 11
284.823407201
 21
607.6505879097
 31
0.0
  0
LINE
  5
73
330
1F
100
AcDbEntity
  8
0
  6
CONTINUOUS
 62
     7
100
AcDbLine
 10
277.8234079162
 20
604.65058183
 30
0.0
 11
281.8234085719
 21
604.65058183
 31
0.0
  0
LINE
  5
74
330
1F
100
AcDbEntity
  8
0
  6
CONTINUOUS
 62
     7
100
AcDbLine
 10
274.8234018365
 20
607.6505879097
 30
0.0
 11
277.8234079162
 21
604.65058183
 31
0.0
  0
LINE
  5
75
330
1F
100
AcDbEntity
  8
0
  6
CONTINUOUS
 62
     7
100
AcDbLine
 10
270.0734033863
 20
607.6505879097
 30
0.0
 11
274.8234018365
 21
607.6505879097
 31
0.0
  0
LINE
  5
76
330
1F
100
AcDbEntity
  8
0
  6
CONTINUOUS
 62
     7
100
AcDbLine
 10
270.0734033863
 20
611.150587552
 30
0.0
 11
270.0734033863
 21
607.6505879097
 31
0.0
  0
ARC
  5
77
330
1F
100
AcDbEntity
  8
0
  6
CONTINUOUS
 62
     7
100
AcDbCircle
 10
278.0734050552
 20
611.1505823068
 30
0.0
 40
8.000000000000064
100
AcDbArc
 50
135.0
 51
180.0
  0
LINE
  5
78
330
1F
100
AcDbEntity
  8
0
  6
CONTINUOUS
 62
     7
100
AcDbLine
 10
287.9165529887
 20
632.307435029
 30
0.0
 11
272.4165513793
 21
616.8074408703
 31
0.0
  0
ARC
  5
79
330
1F
100
AcDbEntity
  8
0
  6
CONTINUOUS
 62
     7
100
AcDbCircle
 10
293.5734050552
 20
626.6505823068
 30
0.0
 40
7.999999999999984
100
AcDbArc
 50
90.0
 51
135.0
  0
LINE
  5
7A
330
1F
100
AcDbEntity
  8
0
  6
CONTINUOUS
 62
     7
100
AcDbLine
 10
507.0734068433
 20
634.6505830221
 30
0.0
 11
293.5734063069
 21
634.6505830221
 31
0.0
  0
ARC
  5
7B
330
1F
100
AcDbEntity
  8
0
  6
CONTINUOUS
 62
     7
100
AcDbCircle
 10
507.0734050552
 20
626.6505823068
 30
0.0
 40
8.0
100
AcDbArc
 50
45.0
 51
90.0
  0
LINE
  5
7C
330
1F
100
AcDbEntity
  8
0
  6
CONTINUOUS
 62
     7
100
AcDbLine
 10
528.2302543203
 20
616.8074408703
 30
0.0
 11
512.7302601615
 21
632.307435029
 31
0.0
  0
ARC
  5
7D
330
1F
100
AcDbEntity
  8
0
  6
CONTINUOUS
 62
     7
100
AcDbCircle
 10
522.5734050552
 20
611.1505823068
 30
0.0
 40
8.000000000000064
100
AcDbArc
 50
0.0
 51
45.0
  0
LINE
  5
7E
330
1F
100
AcDbEntity
  8
0
  6
CONTINUOUS
 62
     7
100
AcDbLine
 10
530.5734023134
 20
607.6505879097
 30
0.0
 11
530.5734023134
 21
611.150587552
 31
0.0
  0
LINE
  5
7F
330
1F
100
AcDbEntity
  8
0
  6
CONTINUOUS
 62
     7
100
AcDbLine
 10
525.8234038631
 20
607.6505879097
 30
0.0
 11
530.5734023134
 21
607.6505879097
 31
0.0
  0
LINE
  5
80
330
1F
100
AcDbEntity
  8
0
  6
CONTINUOUS
 62
     7
100
AcDbLine
 10
522.823405234
 20
604.65058183
 30
0.0
 11
525.8234038631
 21
607.6505879097
 31
0.0
  0
LINE
  5
81
330
1F
100
AcDbEntity
  8
0
  6
CONTINUOUS
 62
     7
100
AcDbLine
 10
518.8234045784
 20
604.65058183
 30
0.0
 11
522.823405234
 21
604.65058183
 31
0.0
  0
LINE
  5
82
330
1F
100
AcDbEntity
  8
0
  6
CONTINUOUS
 62
     7
100
AcDbLine
 10
515.8234059493
 20
607.6505879097
 30
0.0
 11
518.8234045784
 21
604.65058183
 31
0.0
  0
LINE
  5
83
330
1F
100
AcDbEntity
  8
0
  6
CONTINUOUS
 62
     7
100
AcDbLine
 10
511.073407499
 20
607.6505879097
 30
0.0
 11
515.8234059493
 21
607.6505879097
 31
0.0
  0
LINE
  5
84
330
1F
100
AcDbEntity
  8
0
  6
CONTINUOUS
 62
     7
100
AcDbLine
 10
511.073407499
 20
610.1505855255
 30
0.0
 11
511.073407499
 21
607.6505879097
 31
0.0
  0
ARC
  5
85
330
1F
100
AcDbEntity
  8
0
  6
CONTINUOUS
 62
     7
100
AcDbCircle
 10
506.0734050552
 20
610.1505823068
 30
0.0
 40
5.000000000000114
100
AcDbArc
 50
0.0
 51
90.0
  0
LINE
  5
86
330
1F
100
AcDbEntity
  8
0
  6
CONTINUOUS
 62
     7
100
AcDbLine
 10
504.3234049956
 20
615.1505807571
 30
0.0
 11
506.0734048168
 21
615.1505807571
 31
0.0
  0
LINE
  5
87
330
1F
100
AcDbEntity
  8
0
  6
CONTINUOUS
 62
     7
100
AcDbLine
 10
504.3234049956
 20
615.1505807571
 30
0.0
 11
504.3234049956
 21
618.4005836181
 31
0.0
  0
LINE
  5
88
330
1F
100
AcDbEntity
  8
0
  6
CONTINUOUS
 62
     7
100
AcDbLine
 10
504.3234049956
 20
618.4005836181
 30
0.0
 11
503.573407201
 21
618.4005836181
 31
0.0
  0
LINE
  5
89
330
1F
100
AcDbEntity
  8
0
  6
CONTINUOUS
 62
     7
100
AcDbLine
 10
503.573407201
 20
618.4005836181
 30
0.0
 11
503.573407201
 21
617.6505783729
 31
0.0
  0
LINE
  5
8A
330
1F
100
AcDbEntity
  8
0
  6
CONTINUOUS
 62
     7
100
AcDbLine
 10
297.0734059493
 20
617.6505783729
 30
0.0
 11
503.573407201
 21
617.6505783729
 31
0.0
  0
LINE
  5
8B
330
1F
100
AcDbEntity
  8
0
  6
CONTINUOUS
 62
     7
100
AcDbLine
 10
297.0734059493
 20
617.6505783729
 30
0.0
 11
297.0734059493
 21
618.4005836181
 31
0.0
  0
LINE
  5
8C
330
1F
100
AcDbEntity
  8
0
  6
CONTINUOUS
 62
     7
100
AcDbLine
 10
297.0734059493
 20
618.4005836181
 30
0.0
 11
296.3234081546
 21
618.4005836181
 31
0.0
  0
LINE
  5
8D
330
1F
100
AcDbEntity
  8
0
  6
CONTINUOUS
 62
     7
100
AcDbLine
 10
296.3234081546
 20
618.4005836181
 30
0.0
 11
296.3234081546
 21
615.1505807571
 31
0.0
  0
LINE
  5
8E
330
1F
100
AcDbEntity
  8
0
  6
CONTINUOUS
 62
     7
100
AcDbLine
 10
503.573407201
 20
617.6505783729
 30
0.0
 11
503.573407201
 21
615.1505807571
 31
0.0
  0
LINE
  5
8F
330
1F
100
AcDbEntity
  8
0
  6
CONTINUOUS
 62
     7
100
AcDbLine
 10
297.0734059493
 20
615.1505807571
 30
0.0
 11
503.573407201
 21
615.1505807571
 31
0.0
  0
LINE
  5
90
330
1F
100
AcDbEntity
  8
0
  6
CONTINUOUS
 62
     7
100
AcDbLine
 10
297.0734059493
 20
615.1505807571
 30
0.0
 11
297.0734059493
 21
617.6505783729
 31
0.0
  0
LINE
  5
91
330
1F
100
AcDbEntity
  8
0
  6
CONTINUOUS
 62
     7
100
AcDbLine
 10
527.5734111349
 20
365.1505807571
 30
0.0
 11
527.5734111349
 21
348.1505835585
 31
0.0
  0
LINE
  5
92
330
1F
100
AcDbEntity
  8
0
  6
CONTINUOUS
 62
     7
100
AcDbLine
 10
527.5734111349
 20
348.1505835585
 30
0.0
 11
528.0734046976
 21
348.1505835585
 31
0.0
  0
LINE
  5
93
330
1F
100
AcDbEntity
  8
0
  6
CONTINUOUS
 62
     7
100
AcDbLine
 10
528.0734046976
 20
345.1505849294
 30
0.0
 11
528.0734046976
 21
348.1505835585
 31
0.0
  0
LINE
  5
94
330
1F
100
AcDbEntity
  8
0
  6
CONTINUOUS
 62
     7
100
AcDbLine
 10
528.0734046976
 20
344.6505839162
 30
0.0
 11
528.0734046976
 21
345.1505849294
 31
0.0
  0
LINE
  5
95
330
1F
100
AcDbEntity
  8
0
  6
CONTINUOUS
 62
     7
100
AcDbLine
 10
530.5734023134
 20
344.6505839162
 30
0.0
 11
528.0734046976
 21
344.6505839162
 31
0.0
  0
LINE
  5
96
330
1F
100
AcDbEntity
  8
0
  6
CONTINUOUS
 62
     7
100
AcDbLine
 10
530.5734023134
 20
300.650576704
 30
0.0
 11
530.5734023134
 21
344.6505839162
 31
0.0
  0
LINE
  5
97
330
1F
100
AcDbEntity
  8
0
  6
CONTINUOUS
 62
     7
100
AcDbLine
 10
513.5734051148
 20
300.650576704
 30
0.0
 11
515.8234059493
 21
300.650576704
 31
0.0
  0
LINE
  5
98
330
1F
100
AcDbEntity
  8
0
  6
CONTINUOUS
 62
     7
100
AcDbLine
 10
513.5734051148
 20
607.6505879097
 30
0.0
 11
513.5734051148
 21
300.650576704
 31
0.0
  0
LINE
  5
99
330
1F
100
AcDbEntity
  8
0
  6
CONTINUOUS
 62
     7
100
AcDbLine
 10
515.8234059493
 20
607.6505879097
 30
0.0
 11
513.5734051148
 21
607.6505879097
 31
0.0
  0
LINE
  5
9A
330
1F
100
AcDbEntity
  8
0
  6
CONTINUOUS
 62
     7
100
AcDbLine
 10
530.5734023134
 20
563.6505806975
 30
0.0
 11
530.5734023134
 21
607.6505879097
 31
0.0
  0
LINE
  5
9B
330
1F
100
AcDbEntity
  8
0
  6
CONTINUOUS
 62
     7
100
AcDbLine
 10
528.0734046976
 20
563.6505806975
 30
0.0
 11
530.5734023134
 21
563.6505806975
 31
0.0
  0
LINE
  5
9C
330
1F
100
AcDbEntity
  8
0
  6
CONTINUOUS
 62
     7
100
AcDbLine
 10
528.0734046976
 20
563.1505796842
 30
0.0
 11
528.0734046976
 21
563.6505806975
 31
0.0
  0
LINE
  5
9D
330
1F
100
AcDbEntity
  8
0
  6
CONTINUOUS
 62
     7
100
AcDbLine
 10
528.0734046976
 20
560.1505810551
 30
0.0
 11
528.0734046976
 21
563.1505796842
 31
0.0
  0
LINE
  5
9E
330
1F
100
AcDbEntity
  8
0
  6
CONTINUOUS
 62
     7
100
AcDbLine
 10
527.5734111349
 20
560.1505810551
 30
0.0
 11
528.0734046976
 21
560.1505810551
 31
0.0
  0
LINE
  5
9F
330
1F
100
AcDbEntity
  8
0
  6
CONTINUOUS
 62
     7
100
AcDbLine
 10
527.5734111349
 20
560.1505810551
 30
0.0
 11
527.5734111349
 21
543.1505838566
 31
0.0
  0
LINE
  5
A0
330
1F
100
AcDbEntity
  8
0
  6
CONTINUOUS
 62
     7
100
AcDbLine
 10
528.0734046976
 20
543.1505838566
 30
0.0
 11
527.5734111349
 21
543.1505838566
 31
0.0
  0
LINE
  5
A1
330
1F
100
AcDbEntity
  8
0
  6
CONTINUOUS
 62
     7
100
AcDbLine
 10
528.0734046976
 20
540.1505852275
 30
0.0
 11
528.0734046976
 21
543.1505838566
 31
0.0
  0
LINE
  5
A2
330
1F
100
AcDbEntity
  8
0
  6
CONTINUOUS
 62
     7
100
AcDbLine
 10
528.0734046976
 20
539.6505842142
 30
0.0
 11
528.0734046976
 21
540.1505852275
 31
0.0
  0
LINE
  5
A3
330
1F
100
AcDbEntity
  8
0
  6
CONTINUOUS
 62
     7
100
AcDbLine
 10
530.5734023134
 20
539.6505842142
 30
0.0
 11
528.0734046976
 21
539.6505842142
 31
0.0
  0
LINE
  5
A4
330
1F
100
AcDbEntity
  8
0
  6
CONTINUOUS
 62
     7
100
AcDbLine
 10
530.5734023134
 20
368.6505803995
 30
0.0
 11
530.5734023134
 21
539.6505842142
 31
0.0
  0
LINE
  5
A5
330
1F
100
AcDbEntity
  8
0
  6
CONTINUOUS
 62
     7
100
AcDbLine
 10
528.0734046976
 20
368.6505803995
 30
0.0
 11
530.5734023134
 21
368.6505803995
 31
0.0
  0
LINE
  5
A6
330
1F
100
AcDbEntity
  8
0
  6
CONTINUOUS
 62
     7
100
AcDbLine
 10
528.0734046976
 20
368.1505793862
 30
0.0
 11
528.0734046976
 21
368.6505803995
 31
0.0
  0
LINE
  5
A7
330
1F
100
AcDbEntity
  8
0
  6
CONTINUOUS
 62
     7
100
AcDbLine
 10
528.0734046976
 20
365.1505807571
 30
0.0
 11
528.0734046976
 21
368.1505793862
 31
0.0
  0
LINE
  5
A8
330
1F
100
AcDbEntity
  8
0
  6
CONTINUOUS
 62
     7
100
AcDbLine
 10
528.0734046976
 20
365.1505807571
 30
0.0
 11
527.5734111349
 21
365.1505807571
 31
0.0
  0
LINE
  5
A9
330
1F
100
AcDbEntity
  8
0
  6
CONTINUOUS
 62
     7
100
AcDbLine
 10
528.0734046976
 20
563.1505796842
 30
0.0
 11
530.5734023134
 21
563.1505796842
 31
0.0
  0
LINE
  5
AA
330
1F
100
AcDbEntity
  8
0
  6
CONTINUOUS
 62
     7
100
AcDbLine
 10
530.5734023134
 20
560.1505810551
 30
0.0
 11
530.5734023134
 21
563.1505796842
 31
0.0
  0
LINE
  5
AB
330
1F
100
AcDbEntity
  8
0
  6
CONTINUOUS
 62
     7
100
AcDbLine
 10
530.5734023134
 20
560.1505810551
 30
0.0
 11
528.0734046976
 21
560.1505810551
 31
0.0
  0
LINE
  5
AC
330
1F
100
AcDbEntity
  8
0
  6
CONTINUOUS
 62
     7
100
AcDbLine
 10
530.5734023134
 20
540.1505852275
 30
0.0
 11
530.5734023134
 21
543.1505838566
 31
0.0
  0
LINE
  5
AD
330
1F
100
AcDbEntity
  8
0
  6
CONTINUOUS
 62
     7
100
AcDbLine
 10
530.5734023134
 20
540.1505852275
 30
0.0
 11
528.0734046976
 21
540.1505852275
 31
0.0
  0
LINE
  5
AE
330
1F
100
AcDbEntity
  8
0
  6
CONTINUOUS
 62
     7
100
AcDbLine
 10
528.0734046976
 20
543.1505838566
 30
0.0
 11
530.5734023134
 21
543.1505838566
 31
0.0
  0
LINE
  5
AF
330
1F
100
AcDbEntity
  8
0
  6
CONTINUOUS
 62
     7
100
AcDbLine
 10
530.5734023134
 20
365.1505807571
 30
0.0
 11
530.5734023134
 21
368.1505793862
 31
0.0
  0
LINE
  5
B0
330
1F
100
AcDbEntity
  8
0
  6
CONTINUOUS
 62
     7
100
AcDbLine
 10
528.0734046976
 20
365.1505807571
 30
0.0
 11
530.5734023134
 21
365.1505807571
 31
0.0
  0
LINE
  5
B1
330
1F
100
AcDbEntity
  8
0
  6
CONTINUOUS
 62
     7
100
AcDbLine
 10
528.0734046976
 20
368.1505793862
 30
0.0
 11
530.5734023134
 21
368.1505793862
 31
0.0
  0
LINE
  5
B2
330
1F
100
AcDbEntity
  8
0
  6
CONTINUOUS
 62
     7
100
AcDbLine
 10
530.5734023134
 20
345.1505849294
 30
0.0
 11
528.0734046976
 21
345.1505849294
 31
0.0
  0
LINE
  5
B3
330
1F
100
AcDbEntity
  8
0
  6
CONTINUOUS
 62
     7
100
AcDbLine
 10
530.5734023134
 20
348.1505835585
 30
0.0
 11
528.0734046976
 21
348.1505835585
 31
0.0
  0
LINE
  5
B4
330
1F
100
AcDbEntity
  8
0
  6
CONTINUOUS
 62
     7
100
AcDbLine
 10
530.5734023134
 20
345.1505849294
 30
0.0
 11
530.5734023134
 21
348.1505835585
 31
0.0
  0
LINE
  5
B5
330
1F
100
AcDbEntity
  8
0
  6
CONTINUOUS
 62
     7
100
AcDbLine
 10
511.073407499
 20
607.6505879097
 30
0.0
 11
511.073407499
 21
300.650576704
 31
0.0
  0
LINE
  5
B6
330
1F
100
AcDbEntity
  8
0
  6
CONTINUOUS
 62
     7
100
AcDbLine
 10
532.8773900548
 20
543.6505848698
 30
0.0
 11
532.8773900548
 21
559.6505800419
 31
0.0
  0
LINE
  5
B7
330
1F
100
AcDbEntity
  8
0
  6
CONTINUOUS
 62
     7
100
AcDbLine
 10
529.1585966627
 20
543.6505848698
 30
0.0
 11
532.8773900548
 21
543.6505848698
 31
0.0
  0
LINE
  5
B8
330
1F
100
AcDbEntity
  8
0
  6
CONTINUOUS
 62
     7
100
AcDbLine
 10
529.1585966627
 20
543.6505848698
 30
0.0
 11
529.1585966627
 21
559.6505800419
 31
0.0
  0
LINE
  5
B9
330
1F
100
AcDbEntity
  8
0
  6
CONTINUOUS
 62
     7
100
AcDbLine
 10
532.8773900548
 20
559.6505800419
 30
0.0
 11
529.1585966627
 21
559.6505800419
 31
0.0
  0
LINE
  5
BA
330
1F
100
AcDbEntity
  8
0
  6
CONTINUOUS
 62
     7
100
AcDbLine
 10
532.8773900548
 20
543.6505848698
 30
0.0
 11
534.3262746612
 21
543.6505848698
 31
0.0
  0
LINE
  5
BB
330
1F
100
AcDbEntity
  8
0
  6
CONTINUOUS
 62
     7
100
AcDbLine
 10
534.3262746612
 20
543.6505848698
 30
0.0
 11
534.3262746612
 21
559.6505800419
 31
0.0
  0
LINE
  5
BC
330
1F
100
AcDbEntity
  8
0
  6
CONTINUOUS
 62
     7
100
AcDbLine
 10
532.8773900548
 20
559.6505800419
 30
0.0
 11
534.3262746612
 21
559.6505800419
 31
0.0
  0
LINE
  5
BD
330
1F
100
AcDbEntity
  8
0
  6
CONTINUOUS
 62
     7
100
AcDbLine
 10
529.1585966627
 20
364.6505797438
 30
0.0
 11
532.8773900548
 21
364.6505797438
 31
0.0
  0
LINE
  5
BE
330
1F
100
AcDbEntity
  8
0
  6
CONTINUOUS
 62
     7
100
AcDbLine
 10
532.8773900548
 20
364.6505797438
 30
0.0
 11
532.8773900548
 21
348.6505845718
 31
0.0
  0
LINE
  5
BF
330
1F
100
AcDbEntity
  8
0
  6
CONTINUOUS
 62
     7
100
AcDbLine
 10
532.8773900548
 20
348.6505845718
 30
0.0
 11
529.1585966627
 21
348.6505845718
 31
0.0
  0
LINE
  5
C0
330
1F
100
AcDbEntity
  8
0
  6
CONTINUOUS
 62
     7
100
AcDbLine
 10
529.1585966627
 20
348.6505845718
 30
0.0
 11
529.1585966627
 21
364.6505797438
 31
0.0
  0
LINE
  5
C1
330
1F
100
AcDbEntity
  8
0
  6
CONTINUOUS
 62
     7
100
AcDbLine
 10
532.8773900548
 20
348.6505845718
 30
0.0
 11
534.3262746612
 21
348.6505845718
 31
0.0
  0
LINE
  5
C2
330
1F
100
AcDbEntity
  8
0
  6
CONTINUOUS
 62
     7
100
AcDbLine
 10
532.8773900548
 20
364.6505797438
 30
0.0
 11
534.3262746612
 21
364.6505797438
 31
0.0
  0
LINE
  5
C3
330
1F
100
AcDbEntity
  8
0
  6
CONTINUOUS
 62
     7
100
AcDbLine
 10
534.3262746612
 20
364.6505797438
 30
0.0
 11
534.3262746612
 21
348.6505845718
 31
0.0
  0
LINE
  5
C4
330
1F
100
AcDbEntity
  8
0
  6
CONTINUOUS
 62
     7
100
AcDbLine
 10
510.0734054724
 20
312.6505861215
 30
0.0
 11
511.073407499
 21
312.6505861215
 31
0.0
  0
LINE
  5
C5
330
1F
100
AcDbEntity
  8
0
  6
CONTINUOUS
 62
     7
100
AcDbLine
 10
510.0734054724
 20
595.6505784921
 30
0.0
 11
510.0734054724
 21
312.6505861215
 31
0.0
  0
LINE
  5
C6
330
1F
100
AcDbEntity
  8
0
  6
CONTINUOUS
 62
     7
100
AcDbLine
 10
511.073407499
 20
595.6505784921
 30
0.0
 11
510.0734054724
 21
595.6505784921
 31
0.0
  0
ARC
  5
C7
330
1F
100
AcDbEntity
  8
0
  6
CONTINUOUS
 62
     7
100
AcDbCircle
 10
509.0734050552
 20
592.6505823068
 30
0.0
 40
3.0
100
AcDbArc
 50
90.0
 51
120.0
  0
LINE
  5
C8
330
1F
100
AcDbEntity
  8
0
  6
CONTINUOUS
 62
     7
100
AcDbLine
 10
509.0734034459
 20
595.6505784921
 30
0.0
 11
510.0734054724
 21
595.6505784921
 31
0.0
  0
LINE
  5
C9
330
1F
100
AcDbEntity
  8
0
  6
CONTINUOUS
 62
     7
100
AcDbLine
 10
510.0734054724
 20
312.6505861215
 30
0.0
 11
509.0734034459
 21
312.6505861215
 31
0.0
  0
ARC
  5
CA
330
1F
100
AcDbEntity
  8
0
  6
CONTINUOUS
 62
     7
100
AcDbCircle
 10
509.0734050552
 20
315.6505823068
 30
0.0
 40
3.0
100
AcDbArc
 50
240.0
 51
270.0
  0
LINE
  5
CB
330
1F
100
AcDbEntity
  8
0
  6
CONTINUOUS
 62
     7
100
AcDbLine
 10
529.0734067241
 20
364.6505797438
 30
0.0
 11
529.1585966627
 21
364.6505797438
 31
0.0
  0
LINE
  5
CC
330
1F
100
AcDbEntity
  8
0
  6
CONTINUOUS
 62
     7
100
AcDbLine
 10
529.1585966627
 20
348.6505845718
 30
0.0
 11
529.0734067241
 21
348.6505845718
 31
0.0
  0
LINE
  5
CD
330
1F
100
AcDbEntity
  8
0
  6
CONTINUOUS
 62
     7
100
AcDbLine
 10
529.0734067241
 20
348.6505845718
 30
0.0
 11
529.0734067241
 21
364.6505797438
 31
0.0
  0
LINE
  5
CE
330
1F
100
AcDbEntity
  8
0
  6
CONTINUOUS
 62
     7
100
AcDbLine
 10
529.1585966627
 20
543.6505848698
 30
0.0
 11
529.0734067241
 21
543.6505848698
 31
0.0
  0
LINE
  5
CF
330
1F
100
AcDbEntity
  8
0
  6
CONTINUOUS
 62
     7
100
AcDbLine
 10
529.0734067241
 20
559.6505800419
 30
0.0
 11
529.1585966627
 21
559.6505800419
 31
0.0
  0
LINE
  5
D0
330
1F
100
AcDbEntity
  8
0
  6
CONTINUOUS
 62
     7
100
AcDbLine
 10
529.0734067241
 20
543.6505848698
 30
0.0
 11
529.0734067241
 21
559.6505800419
 31
0.0
  0
LINE
  5
D1
330
1F
100
AcDbEntity
  8
0
  6
CONTINUOUS
 62
     7
100
AcDbLine
 10
529.0734067241
 20
560.1505810551
 30
0.0
 11
529.0734067241
 21
559.6505800419
 31
0.0
  0
LINE
  5
D2
330
1F
100
AcDbEntity
  8
0
  6
CONTINUOUS
 62
     7
100
AcDbLine
 10
530.5734023134
 20
559.6505800419
 30
0.0
 11
530.5734023134
 21
560.1505810551
 31
0.0
  0
LINE
  5
D3
330
1F
100
AcDbEntity
  8
0
  6
CONTINUOUS
 62
     7
100
AcDbLine
 10
529.0734067241
 20
543.6505848698
 30
0.0
 11
529.0734067241
 21
543.1505838566
 31
0.0
  0
LINE
  5
D4
330
1F
100
AcDbEntity
  8
0
  6
CONTINUOUS
 62
     7
100
AcDbLine
 10
530.5734023134
 20
543.1505838566
 30
0.0
 11
530.5734023134
 21
543.6505848698
 31
0.0
  0
LINE
  5
D5
330
1F
100
AcDbEntity
  8
0
  6
CONTINUOUS
 62
     7
100
AcDbLine
 10
529.0734067241
 20
348.1505835585
 30
0.0
 11
529.0734067241
 21
348.6505845718
 31
0.0
  0
LINE
  5
D6
330
1F
100
AcDbEntity
  8
0
  6
CONTINUOUS
 62
     7
100
AcDbLine
 10
530.5734023134
 20
348.6505845718
 30
0.0
 11
530.5734023134
 21
348.1505835585
 31
0.0
  0
LINE
  5
D7
330
1F
100
AcDbEntity
  8
0
  6
CONTINUOUS
 62
     7
100
AcDbLine
 10
529.0734067241
 20
364.6505797438
 30
0.0
 11
529.0734067241
 21
365.1505807571
 31
0.0
  0
LINE
  5
D8
330
1F
100
AcDbEntity
  8
0
  6
CONTINUOUS
 62
     7
100
AcDbLine
 10
530.5734023134
 20
365.1505807571
 30
0.0
 11
530.5734023134
 21
364.6505797438
 31
0.0
  0
LINE
  5
D9
330
1F
100
AcDbEntity
  8
0
  6
CONTINUOUS
 62
     7
100
AcDbLine
 10
273.0734094659
 20
543.1505838566
 30
0.0
 11
273.0734094659
 21
560.1505810551
 31
0.0
  0
LINE
  5
DA
330
1F
100
AcDbEntity
  8
0
  6
CONTINUOUS
 62
     7
100
AcDbLine
 10
273.0734094659
 20
560.1505810551
 30
0.0
 11
272.5734010021
 21
560.1505810551
 31
0.0
  0
LINE
  5
DB
330
1F
100
AcDbEntity
  8
0
  6
CONTINUOUS
 62
     7
100
AcDbLine
 10
272.5734010021
 20
563.1505796842
 30
0.0
 11
272.5734010021
 21
560.1505810551
 31
0.0
  0
LINE
  5
DC
330
1F
100
AcDbEntity
  8
0
  6
CONTINUOUS
 62
     7
100
AcDbLine
 10
272.5734010021
 20
563.6505806975
 30
0.0
 11
272.5734010021
 21
563.1505796842
 31
0.0
  0
LINE
  5
DD
330
1F
100
AcDbEntity
  8
0
  6
CONTINUOUS
 62
     7
100
AcDbLine
 10
270.0734033863
 20
563.6505806975
 30
0.0
 11
272.5734010021
 21
563.6505806975
 31
0.0
  0
LINE
  5
DE
330
1F
100
AcDbEntity
  8
0
  6
CONTINUOUS
 62
     7
100
AcDbLine
 10
270.0734033863
 20
607.6505879097
 30
0.0
 11
270.0734033863
 21
563.6505806975
 31
0.0
  0
LINE
  5
DF
330
1F
100
AcDbEntity
  8
0
  6
CONTINUOUS
 62
     7
100
AcDbLine
 10
287.0734080354
 20
607.6505879097
 30
0.0
 11
284.823407201
 21
607.6505879097
 31
0.0
  0
LINE
  5
E0
330
1F
100
AcDbEntity
  8
0
  6
CONTINUOUS
 62
     7
100
AcDbLine
 10
287.0734080354
 20
300.650576704
 30
0.0
 11
287.0734080354
 21
607.6505879097
 31
0.0
  0
LINE
  5
E1
330
1F
100
AcDbEntity
  8
0
  6
CONTINUOUS
 62
     7
100
AcDbLine
 10
284.823407201
 20
300.650576704
 30
0.0
 11
287.0734080354
 21
300.650576704
 31
0.0
  0
LINE
  5
E2
330
1F
100
AcDbEntity
  8
0
  6
CONTINUOUS
 62
     7
100
AcDbLine
 10
270.0734033863
 20
344.6505839162
 30
0.0
 11
270.0734033863
 21
300.650576704
 31
0.0
  0
LINE
  5
E3
330
1F
100
AcDbEntity
  8
0
  6
CONTINUOUS
 62
     7
100
AcDbLine
 10
272.5734010021
 20
344.6505839162
 30
0.0
 11
270.0734033863
 21
344.6505839162
 31
0.0
  0
LINE
  5
E4
330
1F
100
AcDbEntity
  8
0
  6
CONTINUOUS
 62
     7
100
AcDbLine
 10
272.5734010021
 20
345.1505849294
 30
0.0
 11
272.5734010021
 21
344.6505839162
 31
0.0
  0
LINE
  5
E5
330
1F
100
AcDbEntity
  8
0
  6
CONTINUOUS
 62
     7
100
AcDbLine
 10
272.5734010021
 20
348.1505835585
 30
0.0
 11
272.5734010021
 21
345.1505849294
 31
0.0
  0
LINE
  5
E6
330
1F
100
AcDbEntity
  8
0
  6
CONTINUOUS
 62
     7
100
AcDbLine
 10
273.0734094659
 20
348.1505835585
 30
0.0
 11
272.5734010021
 21
348.1505835585
 31
0.0
  0
LINE
  5
E7
330
1F
100
AcDbEntity
  8
0
  6
CONTINUOUS
 62
     7
100
AcDbLine
 10
273.0734094659
 20
348.1505835585
 30
0.0
 11
273.0734094659
 21
365.1505807571
 31
0.0
  0
LINE
  5
E8
330
1F
100
AcDbEntity
  8
0
  6
CONTINUOUS
 62
     7
100
AcDbLine
 10
272.5734010021
 20
365.1505807571
 30
0.0
 11
273.0734094659
 21
365.1505807571
 31
0.0
  0
LINE
  5
E9
330
1F
100
AcDbEntity
  8
0
  6
CONTINUOUS
 62
     7
100
AcDbLine
 10
272.5734010021
 20
368.1505793862
 30
0.0
 11
272.5734010021
 21
365.1505807571
 31
0.0
  0
LINE
  5
EA
330
1F
100
AcDbEntity
  8
0
  6
CONTINUOUS
 62
     7
100
AcDbLine
 10
272.5734010021
 20
368.6505803995
 30
0.0
 11
272.5734010021
 21
368.1505793862
 31
0.0
  0
LINE
  5
EB
330
1F
100
AcDbEntity
  8
0
  6
CONTINUOUS
 62
     7
100
AcDbLine
 10
270.0734033863
 20
368.6505803995
 30
0.0
 11
272.5734010021
 21
368.6505803995
 31
0.0
  0
LINE
  5
EC
330
1F
100
AcDbEntity
  8
0
  6
CONTINUOUS
 62
     7
100
AcDbLine
 10
270.0734033863
 20
539.6505842142
 30
0.0
 11
270.0734033863
 21
368.6505803995
 31
0.0
  0
LINE
  5
ED
330
1F
100
AcDbEntity
  8
0
  6
CONTINUOUS
 62
     7
100
AcDbLine
 10
272.5734010021
 20
539.6505842142
 30
0.0
 11
270.0734033863
 21
539.6505842142
 31
0.0
  0
LINE
  5
EE
330
1F
100
AcDbEntity
  8
0
  6
CONTINUOUS
 62
     7
100
AcDbLine
 10
272.5734010021
 20
540.1505852275
 30
0.0
 11
272.5734010021
 21
539.6505842142
 31
0.0
  0
LINE
  5
EF
330
1F
100
AcDbEntity
  8
0
  6
CONTINUOUS
 62
     7
100
AcDbLine
 10
272.5734010021
 20
543.1505838566
 30
0.0
 11
272.5734010021
 21
540.1505852275
 31
0.0
  0
LINE
  5
F0
330
1F
100
AcDbEntity
  8
0
  6
CONTINUOUS
 62
     7
100
AcDbLine
 10
272.5734010021
 20
543.1505838566
 30
0.0
 11
273.0734094659
 21
543.1505838566
 31
0.0
  0
LINE
  5
F1
330
1F
100
AcDbEntity
  8
0
  6
CONTINUOUS
 62
     7
100
AcDbLine
 10
270.0734033863
 20
560.1505810551
 30
0.0
 11
272.5734010021
 21
560.1505810551
 31
0.0
  0
LINE
  5
F2
330
1F
100
AcDbEntity
  8
0
  6
CONTINUOUS
 62
     7
100
AcDbLine
 10
270.0734033863
 20
563.1505796842
 30
0.0
 11
270.0734033863
 21
560.1505810551
 31
0.0
  0
LINE
  5
F3
330
1F
100
AcDbEntity
  8
0
  6
CONTINUOUS
 62
     7
100
AcDbLine
 10
270.0734033863
 20
563.1505796842
 30
0.0
 11
272.5734010021
 21
563.1505796842
 31
0.0
  0
LINE
  5
F4
330
1F
100
AcDbEntity
  8
0
  6
CONTINUOUS
 62
     7
100
AcDbLine
 10
272.5734010021
 20
540.1505852275
 30
0.0
 11
270.0734033863
 21
540.1505852275
 31
0.0
  0
LINE
  5
F5
330
1F
100
AcDbEntity
  8
0
  6
CONTINUOUS
 62
     7
100
AcDbLine
 10
270.0734033863
 20
543.1505838566
 30
0.0
 11
270.0734033863
 21
540.1505852275
 31
0.0
  0
LINE
  5
F6
330
1F
100
AcDbEntity
  8
0
  6
CONTINUOUS
 62
     7
100
AcDbLine
 10
272.5734010021
 20
543.1505838566
 30
0.0
 11
270.0734033863
 21
543.1505838566
 31
0.0
  0
LINE
  5
F7
330
1F
100
AcDbEntity
  8
0
  6
CONTINUOUS
 62
     7
100
AcDbLine
 10
270.0734033863
 20
368.1505793862
 30
0.0
 11
270.0734033863
 21
365.1505807571
 31
0.0
  0
LINE
  5
F8
330
1F
100
AcDbEntity
  8
0
  6
CONTINUOUS
 62
     7
100
AcDbLine
 10
270.0734033863
 20
368.1505793862
 30
0.0
 11
272.5734010021
 21
368.1505793862
 31
0.0
  0
LINE
  5
F9
330
1F
100
AcDbEntity
  8
0
  6
CONTINUOUS
 62
     7
100
AcDbLine
 10
272.5734010021
 20
365.1505807571
 30
0.0
 11
270.0734033863
 21
365.1505807571
 31
0.0
  0
LINE
  5
FA
330
1F
100
AcDbEntity
  8
0
  6
CONTINUOUS
 62
     7
100
AcDbLine
 10
272.5734010021
 20
345.1505849294
 30
0.0
 11
270.0734033863
 21
345.1505849294
 31
0.0
  0
LINE
  5
FB
330
1F
100
AcDbEntity
  8
0
  6
CONTINUOUS
 62
     7
100
AcDbLine
 10
270.0734033863
 20
348.1505835585
 30
0.0
 11
270.0734033863
 21
345.1505849294
 31
0.0
  0
LINE
  5
FC
330
1F
100
AcDbEntity
  8
0
  6
CONTINUOUS
 62
     7
100
AcDbLine
 10
270.0734033863
 20
348.1505835585
 30
0.0
 11
272.5734010021
 21
348.1505835585
 31
0.0
  0
LINE
  5
FD
330
1F
100
AcDbEntity
  8
0
  6
CONTINUOUS
 62
     7
100
AcDbLine
 10
289.5734056512
 20
300.650576704
 30
0.0
 11
289.5734056512
 21
607.6505879097
 31
0.0
  0
LINE
  5
FE
330
1F
100
AcDbEntity
  8
0
  6
CONTINUOUS
 62
     7
100
AcDbLine
 10
267.7694156448
 20
543.6505848698
 30
0.0
 11
267.7694156448
 21
559.6505800419
 31
0.0
  0
LINE
  5
FF
330
1F
100
AcDbEntity
  8
0
  6
CONTINUOUS
 62
     7
100
AcDbLine
 10
267.7694156448
 20
543.6505848698
 30
0.0
 11
266.3205310384
 21
543.6505848698
 31
0.0
  0
LINE
  5
100
330
1F
100
AcDbEntity
  8
0
  6
CONTINUOUS
 62
     7
100
AcDbLine
 10
266.3205310384
 20
543.6505848698
 30
0.0
 11
266.3205310384
 21
559.6505800419
 31
0.0
  0
LINE
  5
101
330
1F
100
AcDbEntity
  8
0
  6
CONTINUOUS
 62
     7
100
AcDbLine
 10
267.7694156448
 20
559.6505800419
 30
0.0
 11
266.3205310384
 21
559.6505800419
 31
0.0
  0
LINE
  5
102
330
1F
100
AcDbEntity
  8
0
  6
CONTINUOUS
 62
     7
100
AcDbLine
 10
271.4882239381
 20
543.6505848698
 30
0.0
 11
267.7694156448
 21
543.6505848698
 31
0.0
  0
LINE
  5
103
330
1F
100
AcDbEntity
  8
0
  6
CONTINUOUS
 62
     7
100
AcDbLine
 10
271.4882239381
 20
559.6505800419
 30
0.0
 11
271.4882239381
 21
543.6505848698
 31
0.0
  0
LINE
  5
104
330
1F
100
AcDbEntity
  8
0
  6
CONTINUOUS
 62
     7
100
AcDbLine
 10
267.7694156448
 20
559.6505800419
 30
0.0
 11
271.4882239381
 21
559.6505800419
 31
0.0
  0
LINE
  5
105
330
1F
100
AcDbEntity
  8
0
  6
CONTINUOUS
 62
     7
100
AcDbLine
 10
267.7694156448
 20
364.6505797438
 30
0.0
 11
266.3205310384
 21
364.6505797438
 31
0.0
  0
LINE
  5
106
330
1F
100
AcDbEntity
  8
0
  6
CONTINUOUS
 62
     7
100
AcDbLine
 10
267.7694156448
 20
364.6505797438
 30
0.0
 11
267.7694156448
 21
348.6505845718
 31
0.0
  0
LINE
  5
107
330
1F
100
AcDbEntity
  8
0
  6
CONTINUOUS
 62
     7
100
AcDbLine
 10
267.7694156448
 20
348.6505845718
 30
0.0
 11
266.3205310384
 21
348.6505845718
 31
0.0
  0
LINE
  5
108
330
1F
100
AcDbEntity
  8
0
  6
CONTINUOUS
 62
     7
100
AcDbLine
 10
266.3205310384
 20
364.6505797438
 30
0.0
 11
266.3205310384
 21
348.6505845718
 31
0.0
  0
LINE
  5
109
330
1F
100
AcDbEntity
  8
0
  6
CONTINUOUS
 62
     7
100
AcDbLine
 10
267.7694156448
 20
348.6505845718
 30
0.0
 11
271.4882239381
 21
348.6505845718
 31
0.0
  0
LINE
  5
10A
330
1F
100
AcDbEntity
  8
0
  6
CONTINUOUS
 62
     7
100
AcDbLine
 10
271.4882239381
 20
364.6505797438
 30
0.0
 11
267.7694156448
 21
364.6505797438
 31
0.0
  0
LINE
  5
10B
330
1F
100
AcDbEntity
  8
0
  6
CONTINUOUS
 62
     7
100
AcDbLine
 10
271.4882239381
 20
364.6505797438
 30
0.0
 11
271.4882239381
 21
348.6505845718
 31
0.0
  0
LINE
  5
10C
330
1F
100
AcDbEntity
  8
0
  6
CONTINUOUS
 62
     7
100
AcDbLine
 10
271.5733989755
 20
543.6505848698
 30
0.0
 11
271.4882239381
 21
543.6505848698
 31
0.0
  0
LINE
  5
10D
330
1F
100
AcDbEntity
  8
0
  6
CONTINUOUS
 62
     7
100
AcDbLine
 10
271.4882239381
 20
559.6505800419
 30
0.0
 11
271.5733989755
 21
559.6505800419
 31
0.0
  0
LINE
  5
10E
330
1F
100
AcDbEntity
  8
0
  6
CONTINUOUS
 62
     7
100
AcDbLine
 10
271.5733989755
 20
559.6505800419
 30
0.0
 11
271.5733989755
 21
543.6505848698
 31
0.0
  0
LINE
  5
10F
330
1F
100
AcDbEntity
  8
0
  6
CONTINUOUS
 62
     7
100
AcDbLine
 10
271.5733989755
 20
348.6505845718
 30
0.0
 11
271.4882239381
 21
348.6505845718
 31
0.0
  0
LINE
  5
110
330
1F
100
AcDbEntity
  8
0
  6
CONTINUOUS
 62
     7
100
AcDbLine
 10
271.4882239381
 20
364.6505797438
 30
0.0
 11
271.5733989755
 21
364.6505797438
 31
0.0
  0
LINE
  5
111
330
1F
100
AcDbEntity
  8
0
  6
CONTINUOUS
 62
     7
100
AcDbLine
 10
271.5733989755
 20
364.6505797438
 30
0.0
 11
271.5733989755
 21
348.6505845718
 31
0.0
  0
LINE
  5
112
330
1F
100
AcDbEntity
  8
0
  6
CONTINUOUS
 62
     7
100
AcDbLine
 10
271.5733989755
 20
560.1505810551
 30
0.0
 11
271.5733989755
 21
559.6505800419
 31
0.0
  0
LINE
  5
113
330
1F
100
AcDbEntity
  8
0
  6
CONTINUOUS
 62
     7
100
AcDbLine
 10
270.0734033863
 20
559.6505800419
 30
0.0
 11
270.0734033863
 21
560.1505810551
 31
0.0
  0
LINE
  5
114
330
1F
100
AcDbEntity
  8
0
  6
CONTINUOUS
 62
     7
100
AcDbLine
 10
271.5733989755
 20
543.6505848698
 30
0.0
 11
271.5733989755
 21
543.1505838566
 31
0.0
  0
LINE
  5
115
330
1F
100
AcDbEntity
  8
0
  6
CONTINUOUS
 62
     7
100
AcDbLine
 10
270.0734033863
 20
543.1505838566
 30
0.0
 11
270.0734033863
 21
543.6505848698
 31
0.0
  0
LINE
  5
116
330
1F
100
AcDbEntity
  8
0
  6
CONTINUOUS
 62
     7
100
AcDbLine
 10
271.5733989755
 20
348.1505835585
 30
0.0
 11
271.5733989755
 21
348.6505845718
 31
0.0
  0
LINE
  5
117
330
1F
100
AcDbEntity
  8
0
  6
CONTINUOUS
 62
     7
100
AcDbLine
 10
270.0734033863
 20
348.6505845718
 30
0.0
 11
270.0734033863
 21
348.1505835585
 31
0.0
  0
LINE
  5
118
330
1F
100
AcDbEntity
  8
0
  6
CONTINUOUS
 62
     7
100
AcDbLine
 10
271.5733989755
 20
364.6505797438
 30
0.0
 11
271.5733989755
 21
365.1505807571
 31
0.0
  0
LINE
  5
119
330
1F
100
AcDbEntity
  8
0
  6
CONTINUOUS
 62
     7
100
AcDbLine
 10
270.0734033863
 20
365.1505807571
 30
0.0
 11
270.0734033863
 21
364.6505797438
 31
0.0
  0
ARC
  5
11A
330
1F
100
AcDbEntity
  8
0
  6
CONTINUOUS
 62
     7
100
AcDbCircle
 10
286.5766275532
 20
609.0655327907
 30
0.0
 40
8.497200001036797
100
AcDbArc
 50
0.573498093
 51
24.9552080674
  0
LINE
  5
11B
330
1F
100
AcDbEntity
  8
0
  6
CONTINUOUS
 62
     7
100
AcDbLine
 10
294.280511109
 20
612.6505831413
 30
0.0
 11
504.8662990014
 21
612.6505831413
 31
0.0
  0
ARC
  5
11C
330
1F
100
AcDbEntity
  8
0
  6
CONTINUOUS
 62
     7
100
AcDbCircle
 10
514.5404566787
 20
608.6191864025
 30
0.0
 40
10.48052891941007
100
AcDbArc
 50
157.3776234507
 51
177.0936703889
  0
LINE
  5
11D
330
1F
100
AcDbEntity
  8
0
  6
CONTINUOUS
 62
     7
100
AcDbLine
 10
504.0734082142
 20
609.1505834989
 30
0.0
 11
295.0734018961
 21
609.1505834989
 31
0.0
  0
LINE
  5
11E
330
1F
100
AcDbEntity
  8
0
  6
CONTINUOUS
 62
     7
100
AcDbLine
 10
504.8662990014
 20
612.6505831413
 30
0.0
 11
504.8662990014
 21
610.6505790882
 31
0.0
  0
ARC
  5
11F
330
1F
100
AcDbEntity
  8
0
  6
CONTINUOUS
 62
     7
100
AcDbCircle
 10
507.0198784381
 20
608.5526498667
 30
0.0
 40
3.00652813199442
100
AcDbArc
 50
135.7499315268
 51
168.5286189311
  0
LWPOLYLINE
  5
120
330
1F
100
AcDbEntity
  8
0
  6
CONTINUOUS
 62
     7
100
AcDbPolyline
 90
        6
 70
   128
 43
0.0
 10
295.0734018961
 20
609.1505834989
 10
294.8936044852
 20
609.6736738615
 10
294.7137996236
 20
610.1310799055
 10
294.5340543667
 20
610.4652980499
 10
294.3543091098
 20
610.6345752411
 10
294.280511109
 20
610.6505790882
  0
LINE
  5
121
330
1F
100
AcDbEntity
  8
0
  6
CONTINUOUS
 62
     7
100
AcDbLine
 10
294.280511109
 20
612.6505831413
 30
0.0
 11
294.280511109
 21
610.6505790882
 31
0.0
  0
LINE
  5
122
330
1F
100
AcDbEntity
  8
0
  6
CONTINUOUS
 62
     7
100
AcDbLine
 10
295.0734018961
 20
609.1505834989
 30
0.0
 11
295.0734018961
 21
299.1505811147
 31
0.0
  0
LINE
  5
123
330
1F
100
AcDbEntity
  8
0
  6
CONTINUOUS
 62
     7
100
AcDbLine
 10
504.0734082142
 20
299.1505811147
 30
0.0
 11
504.0734082142
 21
609.1505834989
 31
0.0
  0
LINE
  5
124
330
1F
100
AcDbEntity
  8
0
  6
CONTINUOUS
 62
     7
100
AcDbLine
 10
295.0734018961
 20
299.1505811147
 30
0.0
 11
504.0734082142
 21
299.1505811147
 31
0.0
  0
CIRCLE
  5
125
330
1F
100
AcDbEntity
  8
0
  6
CONTINUOUS
 62
     7
100
AcDbCircle
 10
311.5734050552
 20
315.6505823068
 30
0.0
 40
3.0
  0
ARC
  5
126
330
1F
100
AcDbEntity
  8
0
  6
CONTINUOUS
 62
     7
100
AcDbCircle
 10
503.9883660912
 20
617.6473199451
 30
0.0
 40
8.497162020280914
100
AcDbArc
 50
270.5734427647
 51
294.9552633957
  0
LWPOLYLINE
  5
127
330
1F
100
AcDbEntity
  8
0
  6
CONTINUOUS
 62
     7
100
AcDbPolyline
 90
        6
 70
   128
 43
0.0
 10
504.0734082142
 20
609.1505834989
 10
504.5964911262
 20
609.3303809099
 10
505.0539046208
 20
609.510193222
 10
505.3881302158
 20
609.6899310283
 10
505.5573999564
 20
609.8696688347
 10
505.5734038035
 20
609.943474286
  0
LINE
  5
128
330
1F
100
AcDbEntity
  8
0
  6
CONTINUOUS
 62
     7
100
AcDbLine
 10
507.5734078566
 20
609.943474286
 30
0.0
 11
505.5734038035
 21
609.943474286
 31
0.0
  0
LINE
  5
129
330
1F
100
AcDbEntity
  8
0
  6
CONTINUOUS
 62
     7
100
AcDbLine
 10
507.5734078566
 20
298.3576903276
 30
0.0
 11
507.5734078566
 21
609.943474286
 31
0.0
  0
ARC
  5
12A
330
1F
100
AcDbEntity
  8
0
  6
CONTINUOUS
 62
     7
100
AcDbCircle
 10
503.5419687825
 20
288.6833457723
 30
0.0
 40
10.48071770360535
100
AcDbArc
 50
67.3778027917
 51
87.0934910479
  0
ARC
  5
12B
330
1F
100
AcDbEntity
  8
0
  6
CONTINUOUS
 62
     7
100
AcDbCircle
 10
295.1584440192
 20
290.6538446685
 30
0.0
 40
8.49716202028112
100
AcDbArc
 50
90.5734427647
 51
114.9552633957
  0
LINE
  5
12C
330
1F
100
AcDbEntity
  8
0
  6
CONTINUOUS
 62
     7
100
AcDbLine
 10
291.5734022538
 20
609.943474286
 30
0.0
 11
291.5734022538
 21
298.3576903276
 31
0.0
  0
ARC
  5
12D
330
1F
100
AcDbEntity
  8
0
  6
CONTINUOUS
 62
     7
100
AcDbCircle
 10
295.6048413279
 20
619.6178188413
 30
0.0
 40
10.48071770360615
100
AcDbArc
 50
247.3778027917
 51
267.0934910479
  0
LINE
  5
12E
330
1F
100
AcDbEntity
  8
0
  6
CONTINUOUS
 62
     7
100
AcDbLine
 10
291.5734022538
 20
609.943474286
 30
0.0
 11
293.5734063069
 21
609.943474286
 31
0.0
  0
ARC
  5
12F
330
1F
100
AcDbEntity
  8
0
  6
CONTINUOUS
 62
     7
100
AcDbCircle
 10
295.6714930584
 20
612.0973517392
 30
0.0
 40
3.006851526107192
100
AcDbArc
 50
225.7517439363
 51
258.5268065216
  0
LWPOLYLINE
  5
130
330
1F
100
AcDbEntity
  8
0
  6
CONTINUOUS
 62
     7
100
AcDbPolyline
 90
        6
 70
   128
 43
0.0
 10
295.0734018961
 20
299.1505811147
 10
294.5503189842
 20
298.9707837038
 10
294.0929054896
 20
298.7909713916
 10
293.7586798946
 20
298.6112335853
 10
293.589410154
 20
298.431495779
 10
293.5734063069
 20
298.3576903276
  0
LINE
  5
131
330
1F
100
AcDbEntity
  8
0
  6
CONTINUOUS
 62
     7
100
AcDbLine
 10
291.5734022538
 20
298.3576903276
 30
0.0
 11
293.5734063069
 21
298.3576903276
 31
0.0
  0
ARC
  5
132
330
1F
100
AcDbEntity
  8
0
  6
CONTINUOUS
 62
     7
100
AcDbCircle
 10
284.6063534317
 20
299.6819782111
 30
0.0
 40
10.48052891941226
100
AcDbArc
 50
337.3776234507
 51
357.0936703889
  0
LINE
  5
133
330
1F
100
AcDbEntity
  8
0
  6
CONTINUOUS
 62
     7
100
AcDbLine
 10
294.280511109
 20
295.6505814724
 30
0.0
 11
294.280511109
 21
297.6505855255
 31
0.0
  0
ARC
  5
134
330
1F
100
AcDbEntity
  8
0
  6
CONTINUOUS
 62
     7
100
AcDbCircle
 10
292.1269316723
 20
299.7485147469
 30
0.0
 40
3.006528131994375
100
AcDbArc
 50
315.7499315268
 51
348.5286189311
  0
ARC
  5
135
330
1F
100
AcDbEntity
  8
0
  6
CONTINUOUS
 62
     7
100
AcDbCircle
 10
512.5701825572
 20
299.235631823
 30
0.0
 40
8.497200001034917
100
AcDbArc
 50
180.573498093
 51
204.9552080674
  0
LWPOLYLINE
  5
136
330
1F
100
AcDbEntity
  8
0
  6
CONTINUOUS
 62
     7
100
AcDbPolyline
 90
        6
 70
   128
 43
0.0
 10
504.0734082142
 20
299.1505811147
 10
504.2532056252
 20
298.6274907522
 10
504.4330104867
 20
298.1700847082
 10
504.6127557436
 20
297.8358665638
 10
504.7925010005
 20
297.6665893726
 10
504.8662990014
 20
297.6505855255
  0
LINE
  5
137
330
1F
100
AcDbEntity
  8
0
  6
CONTINUOUS
 62
     7
100
AcDbLine
 10
504.8662990014
 20
295.6505814724
 30
0.0
 11
504.8662990014
 21
297.6505855255
 31
0.0
  0
LINE
  5
138
330
1F
100
AcDbEntity
  8
0
  6
CONTINUOUS
 62
     7
100
AcDbLine
 10
294.280511109
 20
295.6505814724
 30
0.0
 11
504.8662990014
 21
295.6505814724
 31
0.0
  0
LINE
  5
139
330
1F
100
AcDbEntity
  8
0
  6
CONTINUOUS
 62
     7
100
AcDbLine
 10
507.5734078566
 20
298.3576903276
 30
0.0
 11
505.5734038035
 21
298.3576903276
 31
0.0
  0
ARC
  5
13A
330
1F
100
AcDbEntity
  8
0
  6
CONTINUOUS
 62
     7
100
AcDbCircle
 10
503.4753170519
 20
296.2038128745
 30
0.0
 40
3.006851526107476
100
AcDbArc
 50
45.7517439363
 51
78.5268065216
  0
CIRCLE
  5
13B
330
1F
100
AcDbEntity
  8
0
  6
CONTINUOUS
 62
     7
100
AcDbCircle
 10
311.5734050552
 20
315.6505823068
 30
0.0
 40
3.689999999999999
  0
LINE
  5
13C
330
1F
100
AcDbEntity
  8
0
  6
CONTINUOUS
 62
     7
100
AcDbLine
 10
488.2498651425
 20
455.3060512913
 30
0.0
 11
487.9112213532
 21
455.2990138687
 31
0.0
  0
ARC
  5
13D
330
1F
100
AcDbEntity
  8
0
  6
CONTINUOUS
 62
     7
100
AcDbCircle
 10
485.4735345696
 20
454.1381163314
 30
0.0
 40
2.699999999999736
100
AcDbArc
 50
25.4651508252
 51
156.9158464361
  0
LINE
  5
13E
330
1F
100
AcDbEntity
  8
0
  6
CONTINUOUS
 62
     7
100
AcDbLine
 10
482.9897254387
 20
455.1967396324
 30
0.0
 11
481.6013022939
 21
455.167886677
 31
0.0
  0
LINE
  5
13F
330
1F
100
AcDbEntity
  8
0
  6
CONTINUOUS
 62
     7
100
AcDbLine
 10
481.6013022939
 20
455.167886677
 30
0.0
 11
481.6474288384
 21
452.9483659349
 31
0.0
  0
LINE
  5
140
330
1F
100
AcDbEntity
  8
0
  6
CONTINUOUS
 62
     7
100
AcDbLine
 10
481.6474288384
 20
452.9483659349
 30
0.0
 11
483.0358445326
 21
452.9772188904
 31
0.0
  0
ARC
  5
141
330
1F
100
AcDbEntity
  8
0
  6
CONTINUOUS
 62
     7
100
AcDbCircle
 10
485.4735345696
 20
454.1381163314
 30
0.0
 40
2.699999999999844
100
AcDbArc
 50
205.4651508252
 51
336.9158464361
  0
LINE
  5
142
330
1F
100
AcDbEntity
  8
0
  6
CONTINUOUS
 62
     7
100
AcDbLine
 10
487.9573478977
 20
453.0794930102
 30
0.0
 11
488.295991687
 21
453.0865304328
 31
0.0
  0
LINE
  5
143
330
1F
100
AcDbEntity
  8
0
  6
CONTINUOUS
 62
     7
100
AcDbLine
 10
488.295991687
 20
453.0865304328
 30
0.0
 11
488.2498651425
 21
455.3060512913
 31
0.0
  0
CIRCLE
  5
144
330
1F
100
AcDbEntity
  8
0
  6
CONTINUOUS
 62
     7
100
AcDbCircle
 10
486.0734050552
 20
454.1505823068
 30
0.0
 40
6.599999999999969
  0
CIRCLE
  5
145
330
1F
100
AcDbEntity
  8
0
  6
CONTINUOUS
 62
     7
100
AcDbCircle
 10
486.0734050552
 20
454.1505823068
 30
0.0
 40
6.850000000000008
  0
LWPOLYLINE
  5
146
330
1F
100
AcDbEntity
  8
0
  6
CONTINUOUS
 62
     7
100
AcDbPolyline
 90
        5
 70
   128
 43
0.0
 10
487.9112213532
 20
455.2990138687
 10
486.3017543832
 20
455.2655672811
 10
485.2281629721
 20
455.2432568667
 10
484.3212186972
 20
455.2244096918
 10
482.9897254387
 20
455.1967396324
  0
LWPOLYLINE
  5
147
330
1F
100
AcDbEntity
  8
0
  6
CONTINUOUS
 62
     7
100
AcDbPolyline
 90
        5
 70
   128
 43
0.0
 10
483.0358445326
 20
452.9772188904
 10
484.6453189532
 20
453.0106653616
 10
485.7189103643
 20
453.0329757759
 10
486.6258471886
 20
453.0518230673
 10
487.9573478977
 20
453.0794930102
  0
LWPOLYLINE
  5
148
330
1F
100
AcDbEntity
  8
0
  6
CONTINUOUS
 62
     7
100
AcDbPolyline
 90
        4
 70
   128
 43
0.0
 10
482.4830412547
 20
453.8259165343
 10
482.6497330944
 20
453.829380676
 10
482.7976420204
 20
453.8324542733
 10
482.838009266
 20
453.8332932785
  0
LWPOLYLINE
  5
149
330
1F
100
AcDbEntity
  8
0
  6
CONTINUOUS
 62
     7
100
AcDbPolyline
 90
        4
 70
   128
 43
0.0
 10
482.9840704481
 20
455.0365875981
 10
482.8297167698
 20
455.0333799485
 10
482.6512381116
 20
455.0296710146
 10
482.6069220582
 20
455.0287501112
  0
LWPOLYLINE
  5
14A
330
1F
100
AcDbEntity
  8
0
  6
CONTINUOUS
 62
     7
100
AcDbPolyline
 90
        3
 70
   128
 43
0.0
 10
487.5411286632
 20
460.5324544169
 10
487.5461280028
 20
460.5325582594
 10
487.5473647992
 20
460.5325838707
  0
LWPOLYLINE
  5
14B
330
1F
100
AcDbEntity
  8
0
  6
CONTINUOUS
 62
     7
100
AcDbPolyline
 90
        5
 70
   128
 43
0.0
 10
487.5427081863
 20
460.4564775869
 10
487.5425144712
 20
460.4658620588
 10
487.5418662707
 20
460.4969016433
 10
487.5413894335
 20
460.519896929
 10
487.5411286632
 20
460.5324544169
  0
LINE
  5
14C
330
1F
100
AcDbEntity
  8
0
  6
CONTINUOUS
 62
     7
100
AcDbLine
 10
481.9045036713
 20
453.8138938584
 30
0.0
 11
481.8795665781
 21
455.013634804
 31
0.0
  0
LINE
  5
14D
330
1F
100
AcDbEntity
  8
0
  6
CONTINUOUS
 62
     7
100
AcDbLine
 10
482.4830412547
 20
453.8259165343
 30
0.0
 11
481.9045036713
 21
453.8138938584
 31
0.0
  0
LINE
  5
14E
330
1F
100
AcDbEntity
  8
0
  6
CONTINUOUS
 62
     7
100
AcDbLine
 10
482.6069220582
 20
455.0287501112
 30
0.0
 11
481.8795665781
 21
455.013634804
 31
0.0
  0
ARC
  5
14F
330
1F
100
AcDbEntity
  8
0
  6
CONTINUOUS
 62
     7
100
AcDbCircle
 10
483.3270909058
 20
453.0432805814
 30
0.0
 40
0.8000035485203647
100
AcDbArc
 50
8.3714807821
 51
91.1902549267
  0
LWPOLYLINE
  5
150
330
1F
100
AcDbEntity
  8
0
  6
CONTINUOUS
 62
     7
100
AcDbPolyline
 90
        3
 70
   128
 43
0.0
 10
485.2246015946
 20
453.1827382085
 10
484.8249002973
 20
453.1744318589
 10
484.1185703556
 20
453.1597535748
  0
ARC
  5
151
330
1F
100
AcDbEntity
  8
0
  6
CONTINUOUS
 62
     7
100
AcDbCircle
 10
486.0202369639
 20
453.0992457794
 30
0.0
 40
0.8000041415805663
100
AcDbArc
 50
8.37156816
 51
174.0094174869
  0
LWPOLYLINE
  5
152
330
1F
100
AcDbEntity
  8
0
  6
CONTINUOUS
 62
     7
100
AcDbPolyline
 90
        3
 70
   128
 43
0.0
 10
487.6178100387
 20
453.2324717071
 10
487.144996194
 20
453.2226460211
 10
486.8117168228
 20
453.2157200661
  0
LWPOLYLINE
  5
153
330
1F
100
AcDbEntity
  8
0
  6
CONTINUOUS
 62
     7
100
AcDbPolyline
 90
        3
 70
   128
 43
0.0
 10
485.6562509815
 20
455.0921184633
 10
486.24576327
 20
455.1043692551
 10
487.5783368627
 20
455.1320616079
  0
ARC
  5
154
330
1F
100
AcDbEntity
  8
0
  6
CONTINUOUS
 62
     7
100
AcDbCircle
 10
484.7747859963
 20
455.2738476848
 30
0.0
 40
0.900003350068869
100
AcDbArc
 50
194.0302849533
 51
348.3507066602
  0
LWPOLYLINE
  5
155
330
1F
100
AcDbEntity
  8
0
  6
CONTINUOUS
 62
     7
100
AcDbPolyline
 90
        4
 70
   128
 43
0.0
 10
487.5783368627
 20
455.1320616079
 10
487.5971942822
 20
454.2245443732
 10
487.6153736989
 20
453.3500373287
 10
487.6178100387
 20
453.2324717071
  0
LWPOLYLINE
  5
156
330
1F
100
AcDbEntity
  8
0
  6
CONTINUOUS
 62
     7
100
AcDbPolyline
 90
        3
 70
   128
 43
0.0
 10
483.3104729334
 20
453.8431115139
 10
483.0490097085
 20
453.8376779743
 10
482.838009266
 20
453.8332932785
  0
LWPOLYLINE
  5
157
330
1F
100
AcDbEntity
  8
0
  6
CONTINUOUS
 62
     7
100
AcDbPolyline
 90
        3
 70
   128
 43
0.0
 10
482.9840704481
 20
455.0365875981
 10
483.5249527971
 20
455.047827672
 10
483.9016318003
 20
455.0556556129
  0
CIRCLE
  5
158
330
1F
100
AcDbEntity
  8
0
  6
CONTINUOUS
 62
     7
100
AcDbCircle
 10
486.0734050552
 20
454.1505823068
 30
0.0
 40
9.00000000000003
  0
CIRCLE
  5
159
330
1F
100
AcDbEntity
  8
0
  6
CONTINUOUS
 62
     7
100
AcDbCircle
 10
486.0734050552
 20
454.1505823068
 30
0.0
 40
11.00000000000001
  0
CIRCLE
  5
15A
330
1F
100
AcDbEntity
  8
0
  6
CONTINUOUS
 62
     7
100
AcDbCircle
 10
486.0734050552
 20
454.1505823068
 30
0.0
 40
7.000000000000044
  0
LINE
  5
15B
330
1F
100
AcDbEntity
  8
0
  6
CONTINUOUS
 62
     7
100
AcDbLine
 10
479.7088548223
 20
451.6178016707
 30
0.0
 11
479.5489728133
 21
451.6144791774
 31
0.0
  0
LINE
  5
15C
330
1F
100
AcDbEntity
  8
0
  6
CONTINUOUS
 62
     7
100
AcDbLine
 10
488.3362695257
 20
460.7747398473
 30
0.0
 11
488.339585034
 21
460.6148620293
 31
0.0
  0
LINE
  5
15D
330
1F
100
AcDbEntity
  8
0
  6
CONTINUOUS
 62
     8
100
AcDbLine
 10
482.4830412547
 20
453.8259165343
 30
0.0
 11
482.7103435675
 21
452.9704545781
 31
0.0
  0
LWPOLYLINE
  5
15E
330
1F
100
AcDbEntity
  8
0
  6
CONTINUOUS
 62
     8
100
AcDbPolyline
 90
        3
 70
   128
 43
0.0
 10
488.0828901807
 20
453.082101994
 10
488.2653698007
 20
453.8382084207
 10
488.2771491686
 20
453.99318495
  0
LWPOLYLINE
  5
15F
330
1F
100
AcDbEntity
  8
0
  6
CONTINUOUS
 62
     8
100
AcDbPolyline
 90
        3
 70
   128
 43
0.0
 10
488.2687076608
 20
454.3993968324
 10
488.1800308506
 20
454.8942975158
 10
488.0367636363
 20
455.3016227361
  0
LINE
  5
160
330
1F
100
AcDbEntity
  8
0
  6
CONTINUOUS
 62
     8
100
AcDbLine
 10
482.6642244736
 20
455.1899753202
 30
0.0
 11
482.6069220582
 21
455.0287961534
 31
0.0
  0
LINE
  5
161
330
1F
100
AcDbEntity
  8
0
  6
CONTINUOUS
 62
     8
100
AcDbLine
 10
482.838009266
 20
453.8332932785
 30
0.0
 11
483.1010222117
 21
452.9714664601
 31
0.0
  0
ARC
  5
162
330
1F
100
AcDbEntity
  8
0
  6
CONTINUOUS
 62
     8
100
AcDbCircle
 10
485.3735561554
 20
454.1360386688
 30
0.0
 40
2.553553390593044
100
AcDbArc
 50
334.880547345
 51
27.3366293396
  0
LINE
  5
163
330
1F
100
AcDbEntity
  8
0
  6
CONTINUOUS
 62
     8
100
AcDbLine
 10
484.4465449134
 20
454.4358368945
 30
0.0
 11
484.4729050676
 21
453.1671170767
 31
0.0
  0
LINE
  5
164
330
1F
100
AcDbEntity
  8
0
  6
CONTINUOUS
 62
     8
100
AcDbLine
 10
486.1301228086
 20
455.1019660936
 30
0.0
 11
486.1553579251
 21
453.8877575174
 31
0.0
  0
LINE
  5
165
330
1F
100
AcDbEntity
  8
0
  6
CONTINUOUS
 62
     7
100
AcDbLine
 10
67.7296393316
 20
448.0005825095
 30
0.0
 11
68.4296400051
 21
448.0005825095
 31
0.0
  0
LINE
  5
166
330
1F
100
AcDbEntity
  8
0
  6
CONTINUOUS
 62
     7
100
AcDbLine
 10
65.629640105
 20
447.6505821727
 30
0.0
 11
67.6296395015
 21
447.6505821727
 31
0.0
  0
LINE
  5
167
330
1F
100
AcDbEntity
  8
0
  6
CONTINUOUS
 62
     7
100
AcDbLine
 10
49.1296397287
 20
461.000582312
 30
0.0
 11
49.0796398137
 21
461.000582312
 31
0.0
  0
LINE
  5
168
330
1F
100
AcDbEntity
  8
0
  6
CONTINUOUS
 62
     7
100
AcDbLine
 10
49.0796398137
 20
447.3005823016
 30
0.0
 11
49.1296397287
 21
447.3005823016
 31
0.0
  0
ARC
  5
169
330
1F
100
AcDbEntity
  8
0
  6
CONTINUOUS
 62
     7
100
AcDbCircle
 10
49.0796397548
 20
460.7505823068
 30
0.0
 40
0.25
100
AcDbArc
 50
90.0
 51
180.0
  0
ARC
  5
16A
330
1F
100
AcDbEntity
  8
0
  6
CONTINUOUS
 62
     7
100
AcDbCircle
 10
49.0796397548
 20
447.5505823068
 30
0.0
 40
0.25
100
AcDbArc
 50
180.0
 51
270.0
  0
LINE
  5
16B
330
1F
100
AcDbEntity
  8
0
  6
CONTINUOUS
 62
     7
100
AcDbLine
 10
68.6296396654
 20
450.6505821988
 30
0.0
 11
69.6296398293
 21
450.6505821988
 31
0.0
  0
LINE
  5
16C
330
1F
100
AcDbEntity
  8
0
  6
CONTINUOUS
 62
     7
100
AcDbLine
 10
69.6296398293
 20
457.6505824149
 30
0.0
 11
68.6296396654
 21
457.6505824149
 31
0.0
  0
LINE
  5
16D
330
1F
100
AcDbEntity
  8
0
  6
CONTINUOUS
 62
     7
100
AcDbLine
 10
67.6296395015
 20
451.1505822808
 30
0.0
 11
67.7296393316
 21
451.1505822808
 31
0.0
  0
LINE
  5
16E
330
1F
100
AcDbEntity
  8
0
  6
CONTINUOUS
 62
     7
100
AcDbLine
 10
68.4296400051
 20
451.1505822808
 30
0.0
 11
68.6296396654
 21
451.1505822808
 31
0.0
  0
LINE
  5
16F
330
1F
100
AcDbEntity
  8
0
  6
CONTINUOUS
 62
     7
100
AcDbLine
 10
68.6296396654
 20
457.1505823329
 30
0.0
 11
68.4296400051
 21
457.1505823329
 31
0.0
  0
LINE
  5
170
330
1F
100
AcDbEntity
  8
0
  6
CONTINUOUS
 62
     7
100
AcDbLine
 10
67.7296393316
 20
457.1505823329
 30
0.0
 11
67.6296395015
 21
457.1505823329
 31
0.0
  0
LINE
  5
171
330
1F
100
AcDbEntity
  8
0
  6
CONTINUOUS
 62
     7
100
AcDbLine
 10
51.1296397073
 20
443.1505823664
 30
0.0
 11
52.1296397548
 21
443.1505823664
 31
0.0
  0
LINE
  5
172
330
1F
100
AcDbEntity
  8
0
  6
CONTINUOUS
 62
     7
100
AcDbLine
 10
52.1296397548
 20
465.1505822472
 30
0.0
 11
51.1296397073
 21
465.1505822472
 31
0.0
  0
LINE
  5
173
330
1F
100
AcDbEntity
  8
0
  6
CONTINUOUS
 62
     7
100
AcDbLine
 10
51.1296397073
 20
465.1505822472
 30
0.0
 11
49.1296397287
 21
463.1505819194
 31
0.0
  0
LINE
  5
174
330
1F
100
AcDbEntity
  8
0
  6
CONTINUOUS
 62
     7
100
AcDbLine
 10
49.1296397287
 20
445.1505826943
 30
0.0
 11
51.1296397073
 21
443.1505823664
 31
0.0
  0
LINE
  5
175
330
1F
100
AcDbEntity
  8
0
  6
CONTINUOUS
 62
     7
100
AcDbLine
 10
53.6296397678
 20
300.650576704
 30
0.0
 11
52.1296397548
 21
300.650576704
 31
0.0
  0
LINE
  5
176
330
1F
100
AcDbEntity
  8
0
  6
CONTINUOUS
 62
     7
100
AcDbLine
 10
53.6296397678
 20
297.1505770616
 30
0.0
 11
53.6296397678
 21
300.650576704
 31
0.0
  0
LINE
  5
177
330
1F
100
AcDbEntity
  8
0
  6
CONTINUOUS
 62
     7
100
AcDbLine
 10
53.6296397678
 20
297.1505770616
 30
0.0
 11
52.1296397548
 21
297.1505770616
 31
0.0
  0
LINE
  5
178
330
1F
100
AcDbEntity
  8
0
  6
CONTINUOUS
 62
     7
100
AcDbLine
 10
52.1296397548
 20
297.1505770616
 30
0.0
 11
52.1296397548
 21
300.650576704
 31
0.0
  0
LINE
  5
179
330
1F
100
AcDbEntity
  8
0
  6
CONTINUOUS
 62
     7
100
AcDbLine
 10
53.6296397678
 20
291.4937237434
 30
0.0
 11
52.1296397548
 21
291.4937237434
 31
0.0
  0
LINE
  5
17A
330
1F
100
AcDbEntity
  8
0
  6
CONTINUOUS
 62
     7
100
AcDbLine
 10
52.1296397548
 20
291.4937237434
 30
0.0
 11
52.1296397548
 21
297.1505770616
 31
0.0
  0
LINE
  5
17B
330
1F
100
AcDbEntity
  8
0
  6
CONTINUOUS
 62
     7
100
AcDbLine
 10
53.6296397678
 20
291.4937237434
 30
0.0
 11
53.6296397678
 21
297.1505770616
 31
0.0
  0
LINE
  5
17C
330
1F
100
AcDbEntity
  8
0
  6
CONTINUOUS
 62
     7
100
AcDbLine
 10
53.6296397678
 20
275.9937295847
 30
0.0
 11
52.1296397548
 21
275.9937295847
 31
0.0
  0
LINE
  5
17D
330
1F
100
AcDbEntity
  8
0
  6
CONTINUOUS
 62
     7
100
AcDbLine
 10
52.1296397548
 20
275.9937295847
 30
0.0
 11
52.1296397548
 21
291.4937237434
 31
0.0
  0
LINE
  5
17E
330
1F
100
AcDbEntity
  8
0
  6
CONTINUOUS
 62
     7
100
AcDbLine
 10
53.6296397678
 20
275.9937295847
 30
0.0
 11
53.6296397678
 21
291.4937237434
 31
0.0
  0
LINE
  5
17F
330
1F
100
AcDbEntity
  8
0
  6
CONTINUOUS
 62
     7
100
AcDbLine
 10
53.6296397678
 20
273.6505815916
 30
0.0
 11
52.1296397548
 21
273.6505815916
 31
0.0
  0
LINE
  5
180
330
1F
100
AcDbEntity
  8
0
  6
CONTINUOUS
 62
     7
100
AcDbLine
 10
52.1296397548
 20
273.6505815916
 30
0.0
 11
52.1296397548
 21
275.9937295847
 31
0.0
  0
LINE
  5
181
330
1F
100
AcDbEntity
  8
0
  6
CONTINUOUS
 62
     7
100
AcDbLine
 10
53.6296397678
 20
273.6505815916
 30
0.0
 11
53.6296397678
 21
275.9937295847
 31
0.0
  0
LINE
  5
182
330
1F
100
AcDbEntity
  8
0
  6
CONTINUOUS
 62
     7
100
AcDbLine
 10
63.1296396952
 20
293.1505838566
 30
0.0
 11
63.1296396952
 21
291.6505882673
 31
0.0
  0
LINE
  5
183
330
1F
100
AcDbEntity
  8
0
  6
CONTINUOUS
 62
     7
100
AcDbLine
 10
63.1296396952
 20
291.6505882673
 30
0.0
 11
61.1296393674
 21
291.6505882673
 31
0.0
  0
LINE
  5
184
330
1F
100
AcDbEntity
  8
0
  6
CONTINUOUS
 62
     7
100
AcDbLine
 10
61.1296393674
 20
291.6505882673
 30
0.0
 11
61.1296393674
 21
293.1505838566
 31
0.0
  0
LINE
  5
185
330
1F
100
AcDbEntity
  8
0
  6
CONTINUOUS
 62
     7
100
AcDbLine
 10
61.1296393674
 20
293.1505838566
 30
0.0
 11
63.1296396952
 21
293.1505838566
 31
0.0
  0
ARC
  5
186
330
1F
100
AcDbEntity
  8
0
  6
CONTINUOUS
 62
     7
100
AcDbCircle
 10
54.6296397548
 20
290.6505823068
 30
0.0
 40
2.499999999999968
100
AcDbArc
 50
90.0
 51
113.5781784782
  0
LINE
  5
187
330
1F
100
AcDbEntity
  8
0
  6
CONTINUOUS
 62
     7
100
AcDbLine
 10
54.6296396989
 20
291.6505882673
 30
0.0
 11
54.6296396989
 21
293.1505838566
 31
0.0
  0
ARC
  5
188
330
1F
100
AcDbEntity
  8
0
  6
CONTINUOUS
 62
     7
100
AcDbCircle
 10
54.6296397548
 20
290.6505823068
 30
0.0
 40
1.000000000000057
100
AcDbArc
 50
90.0
 51
180.0
  0
LINE
  5
189
330
1F
100
AcDbEntity
  8
0
  6
CONTINUOUS
 62
     7
100
AcDbLine
 10
54.6296396989
 20
291.6505882673
 30
0.0
 11
61.1296393674
 21
291.6505882673
 31
0.0
  0
LINE
  5
18A
330
1F
100
AcDbEntity
  8
0
  6
CONTINUOUS
 62
     7
100
AcDbLine
 10
54.6296396989
 20
293.1505838566
 30
0.0
 11
61.1296393674
 21
293.1505838566
 31
0.0
  0
ARC
  5
18B
330
1F
100
AcDbEntity
  8
0
  6
CONTINUOUS
 62
     7
100
AcDbCircle
 10
63.1296397548
 20
294.1505823068
 30
0.0
 40
1.000000000000007
100
AcDbArc
 50
270.0
 51
0.0
  0
LINE
  5
18C
330
1F
100
AcDbEntity
  8
0
  6
CONTINUOUS
 62
     7
100
AcDbLine
 10
64.1296398591
 20
294.1505858831
 30
0.0
 11
65.629640105
 21
294.1505858831
 31
0.0
  0
ARC
  5
18D
330
1F
100
AcDbEntity
  8
0
  6
CONTINUOUS
 62
     7
100
AcDbCircle
 10
63.1296397548
 20
294.1505823068
 30
0.0
 40
2.499999999999993
100
AcDbArc
 50
270.0
 51
0.0
  0
LINE
  5
18E
330
1F
100
AcDbEntity
  8
0
  6
CONTINUOUS
 62
     7
100
AcDbLine
 10
65.629640105
 20
295.1505879097
 30
0.0
 11
64.1296398591
 21
295.1505879097
 31
0.0
  0
LINE
  5
18F
330
1F
100
AcDbEntity
  8
0
  6
CONTINUOUS
 62
     7
100
AcDbLine
 10
65.629640105
 20
295.1505879097
 30
0.0
 11
65.629640105
 21
294.1505858831
 31
0.0
  0
LINE
  5
190
330
1F
100
AcDbEntity
  8
0
  6
CONTINUOUS
 62
     7
100
AcDbLine
 10
64.1296398591
 20
295.1505879097
 30
0.0
 11
64.1296398591
 21
294.1505858831
 31
0.0
  0
LINE
  5
191
330
1F
100
AcDbEntity
  8
0
  6
CONTINUOUS
 62
     7
100
AcDbLine
 10
64.1296398591
 20
298.1505790882
 30
0.0
 11
65.629640105
 21
298.1505790882
 31
0.0
  0
LINE
  5
192
330
1F
100
AcDbEntity
  8
0
  6
CONTINUOUS
 62
     7
100
AcDbLine
 10
65.629640105
 20
298.1505790882
 30
0.0
 11
65.629640105
 21
295.1505879097
 31
0.0
  0
LINE
  5
193
330
1F
100
AcDbEntity
  8
0
  6
CONTINUOUS
 62
     7
100
AcDbLine
 10
64.1296398591
 20
295.1505879097
 30
0.0
 11
64.1296398591
 21
295.6505814724
 31
0.0
  0
LINE
  5
194
330
1F
100
AcDbEntity
  8
0
  6
CONTINUOUS
 62
     7
100
AcDbLine
 10
64.1296398591
 20
297.6505855255
 30
0.0
 11
64.1296398591
 21
298.1505790882
 31
0.0
  0
LINE
  5
195
330
1F
100
AcDbEntity
  8
0
  6
CONTINUOUS
 62
     7
100
AcDbLine
 10
53.6296397678
 20
616.8074408703
 30
0.0
 11
52.1296397548
 21
616.8074408703
 31
0.0
  0
LINE
  5
196
330
1F
100
AcDbEntity
  8
0
  6
CONTINUOUS
 62
     7
100
AcDbLine
 10
53.6296397678
 20
611.150587552
 30
0.0
 11
53.6296397678
 21
616.8074408703
 31
0.0
  0
LINE
  5
197
330
1F
100
AcDbEntity
  8
0
  6
CONTINUOUS
 62
     7
100
AcDbLine
 10
53.6296397678
 20
611.150587552
 30
0.0
 11
52.1296397548
 21
611.150587552
 31
0.0
  0
LINE
  5
198
330
1F
100
AcDbEntity
  8
0
  6
CONTINUOUS
 62
     7
100
AcDbLine
 10
52.1296397548
 20
611.150587552
 30
0.0
 11
52.1296397548
 21
616.8074408703
 31
0.0
  0
LINE
  5
199
330
1F
100
AcDbEntity
  8
0
  6
CONTINUOUS
 62
     7
100
AcDbLine
 10
53.6296397678
 20
607.6505879097
 30
0.0
 11
52.1296397548
 21
607.6505879097
 31
0.0
  0
LINE
  5
19A
330
1F
100
AcDbEntity
  8
0
  6
CONTINUOUS
 62
     7
100
AcDbLine
 10
53.6296397678
 20
607.6505879097
 30
0.0
 11
53.6296397678
 21
611.150587552
 31
0.0
  0
LINE
  5
19B
330
1F
100
AcDbEntity
  8
0
  6
CONTINUOUS
 62
     7
100
AcDbLine
 10
52.1296397548
 20
607.6505879097
 30
0.0
 11
52.1296397548
 21
611.150587552
 31
0.0
  0
LINE
  5
19C
330
1F
100
AcDbEntity
  8
0
  6
CONTINUOUS
 62
     7
100
AcDbLine
 10
53.6296397678
 20
632.307435029
 30
0.0
 11
52.1296397548
 21
632.307435029
 31
0.0
  0
LINE
  5
19D
330
1F
100
AcDbEntity
  8
0
  6
CONTINUOUS
 62
     7
100
AcDbLine
 10
53.6296397678
 20
616.8074408703
 30
0.0
 11
53.6296397678
 21
632.307435029
 31
0.0
  0
LINE
  5
19E
330
1F
100
AcDbEntity
  8
0
  6
CONTINUOUS
 62
     7
100
AcDbLine
 10
52.1296397548
 20
616.8074408703
 30
0.0
 11
52.1296397548
 21
632.307435029
 31
0.0
  0
LINE
  5
19F
330
1F
100
AcDbEntity
  8
0
  6
CONTINUOUS
 62
     7
100
AcDbLine
 10
53.6296397678
 20
634.6505830221
 30
0.0
 11
52.1296397548
 21
634.6505830221
 31
0.0
  0
LINE
  5
1A0
330
1F
100
AcDbEntity
  8
0
  6
CONTINUOUS
 62
     7
100
AcDbLine
 10
53.6296397678
 20
632.307435029
 30
0.0
 11
53.6296397678
 21
634.6505830221
 31
0.0
  0
LINE
  5
1A1
330
1F
100
AcDbEntity
  8
0
  6
CONTINUOUS
 62
     7
100
AcDbLine
 10
52.1296397548
 20
632.307435029
 30
0.0
 11
52.1296397548
 21
634.6505830221
 31
0.0
  0
LINE
  5
1A2
330
1F
100
AcDbEntity
  8
0
  6
CONTINUOUS
 62
     7
100
AcDbLine
 10
61.1296393674
 20
615.1505807571
 30
0.0
 11
61.1296393674
 21
616.6505763464
 31
0.0
  0
LINE
  5
1A3
330
1F
100
AcDbEntity
  8
0
  6
CONTINUOUS
 62
     7
100
AcDbLine
 10
61.1296393674
 20
616.6505763464
 30
0.0
 11
63.1296396952
 21
616.6505763464
 31
0.0
  0
LINE
  5
1A4
330
1F
100
AcDbEntity
  8
0
  6
CONTINUOUS
 62
     7
100
AcDbLine
 10
63.1296396952
 20
616.6505763464
 30
0.0
 11
63.1296396952
 21
615.1505807571
 31
0.0
  0
LINE
  5
1A5
330
1F
100
AcDbEntity
  8
0
  6
CONTINUOUS
 62
     7
100
AcDbLine
 10
63.1296396952
 20
615.1505807571
 30
0.0
 11
61.1296393674
 21
615.1505807571
 31
0.0
  0
LINE
  5
1A6
330
1F
100
AcDbEntity
  8
0
  6
CONTINUOUS
 62
     7
100
AcDbLine
 10
54.6296396989
 20
616.6505763464
 30
0.0
 11
54.6296396989
 21
615.1505807571
 31
0.0
  0
LINE
  5
1A7
330
1F
100
AcDbEntity
  8
0
  6
CONTINUOUS
 62
     7
100
AcDbLine
 10
61.1296393674
 20
615.1505807571
 30
0.0
 11
54.6296396989
 21
615.1505807571
 31
0.0
  0
LINE
  5
1A8
330
1F
100
AcDbEntity
  8
0
  6
CONTINUOUS
 62
     7
100
AcDbLine
 10
61.1296393674
 20
616.6505763464
 30
0.0
 11
54.6296396989
 21
616.6505763464
 31
0.0
  0
ARC
  5
1A9
330
1F
100
AcDbEntity
  8
0
  6
CONTINUOUS
 62
     7
100
AcDbCircle
 10
54.6296397548
 20
617.6505823068
 30
0.0
 40
2.49999999999998
100
AcDbArc
 50
246.4218215218
 51
270.0
  0
ARC
  5
1AA
330
1F
100
AcDbEntity
  8
0
  6
CONTINUOUS
 62
     7
100
AcDbCircle
 10
54.6296397548
 20
617.6505823068
 30
0.0
 40
0.9999999999999929
100
AcDbArc
 50
180.0
 51
270.0
  0
LINE
  5
1AB
330
1F
100
AcDbEntity
  8
0
  6
CONTINUOUS
 62
     7
100
AcDbLine
 10
53.4920628181
 20
364.6505797438
 30
0.0
 11
53.4920628181
 21
348.6505845718
 31
0.0
  0
LINE
  5
1AC
330
1F
100
AcDbEntity
  8
0
  6
CONTINUOUS
 62
     7
100
AcDbLine
 10
67.3708203014
 20
364.6505797438
 30
0.0
 11
53.4920628181
 21
364.6505797438
 31
0.0
  0
LINE
  5
1AD
330
1F
100
AcDbEntity
  8
0
  6
CONTINUOUS
 62
     7
100
AcDbLine
 10
67.3708203014
 20
364.6505797438
 30
0.0
 11
67.3708203014
 21
348.6505845718
 31
0.0
  0
LINE
  5
1AE
330
1F
100
AcDbEntity
  8
0
  6
CONTINUOUS
 62
     7
100
AcDbLine
 10
53.4920628181
 20
348.6505845718
 30
0.0
 11
67.3708203014
 21
348.6505845718
 31
0.0
  0
LINE
  5
1AF
330
1F
100
AcDbEntity
  8
0
  6
CONTINUOUS
 62
     7
100
AcDbLine
 10
53.1038341925
 20
364.6505797438
 30
0.0
 11
53.1038341925
 21
348.6505845718
 31
0.0
  0
LINE
  5
1B0
330
1F
100
AcDbEntity
  8
0
  6
CONTINUOUS
 62
     7
100
AcDbLine
 10
53.1038341925
 20
364.6505797438
 30
0.0
 11
53.4920628181
 21
364.6505797438
 31
0.0
  0
LINE
  5
1B1
330
1F
100
AcDbEntity
  8
0
  6
CONTINUOUS
 62
     7
100
AcDbLine
 10
53.1038341925
 20
348.6505845718
 30
0.0
 11
53.4920628181
 21
348.6505845718
 31
0.0
  0
LINE
  5
1B2
330
1F
100
AcDbEntity
  8
0
  6
CONTINUOUS
 62
     7
100
AcDbLine
 10
53.4920628181
 20
543.6505848698
 30
0.0
 11
53.4920628181
 21
559.6505800419
 31
0.0
  0
LINE
  5
1B3
330
1F
100
AcDbEntity
  8
0
  6
CONTINUOUS
 62
     7
100
AcDbLine
 10
53.4920628181
 20
559.6505800419
 30
0.0
 11
67.3708203014
 21
559.6505800419
 31
0.0
  0
LINE
  5
1B4
330
1F
100
AcDbEntity
  8
0
  6
CONTINUOUS
 62
     7
100
AcDbLine
 10
67.3708203014
 20
559.6505800419
 30
0.0
 11
67.3708203014
 21
543.6505848698
 31
0.0
  0
LINE
  5
1B5
330
1F
100
AcDbEntity
  8
0
  6
CONTINUOUS
 62
     7
100
AcDbLine
 10
67.3708203014
 20
543.6505848698
 30
0.0
 11
53.4920628181
 21
543.6505848698
 31
0.0
  0
LINE
  5
1B6
330
1F
100
AcDbEntity
  8
0
  6
CONTINUOUS
 62
     7
100
AcDbLine
 10
53.1038341925
 20
543.6505848698
 30
0.0
 11
53.4920628181
 21
543.6505848698
 31
0.0
  0
LINE
  5
1B7
330
1F
100
AcDbEntity
  8
0
  6
CONTINUOUS
 62
     7
100
AcDbLine
 10
53.1038341925
 20
543.6505848698
 30
0.0
 11
53.1038341925
 21
559.6505800419
 31
0.0
  0
LINE
  5
1B8
330
1F
100
AcDbEntity
  8
0
  6
CONTINUOUS
 62
     7
100
AcDbLine
 10
53.1038341925
 20
559.6505800419
 30
0.0
 11
53.4920628181
 21
559.6505800419
 31
0.0
  0
LINE
  5
1B9
330
1F
100
AcDbEntity
  8
0
  6
CONTINUOUS
 62
     7
100
AcDbLine
 10
67.6296395015
 20
364.6505797438
 30
0.0
 11
67.3708203014
 21
364.6505797438
 31
0.0
  0
LINE
  5
1BA
330
1F
100
AcDbEntity
  8
0
  6
CONTINUOUS
 62
     7
100
AcDbLine
 10
67.6296395015
 20
348.6505845718
 30
0.0
 11
67.6296395015
 21
364.6505797438
 31
0.0
  0
LINE
  5
1BB
330
1F
100
AcDbEntity
  8
0
  6
CONTINUOUS
 62
     7
100
AcDbLine
 10
67.3708203014
 20
348.6505845718
 30
0.0
 11
67.6296395015
 21
348.6505845718
 31
0.0
  0
LINE
  5
1BC
330
1F
100
AcDbEntity
  8
0
  6
CONTINUOUS
 62
     7
100
AcDbLine
 10
67.3708203014
 20
543.6505848698
 30
0.0
 11
67.6296395015
 21
543.6505848698
 31
0.0
  0
LINE
  5
1BD
330
1F
100
AcDbEntity
  8
0
  6
CONTINUOUS
 62
     7
100
AcDbLine
 10
67.6296395015
 20
559.6505800419
 30
0.0
 11
67.3708203014
 21
559.6505800419
 31
0.0
  0
LINE
  5
1BE
330
1F
100
AcDbEntity
  8
0
  6
CONTINUOUS
 62
     7
100
AcDbLine
 10
67.6296395015
 20
543.6505848698
 30
0.0
 11
67.6296395015
 21
559.6505800419
 31
0.0
  0
LINE
  5
1BF
330
1F
100
AcDbEntity
  8
0
  6
CONTINUOUS
 62
     7
100
AcDbLine
 10
54.6296396989
 20
365.1505807571
 30
0.0
 11
54.6296396989
 21
368.1505793862
 31
0.0
  0
LINE
  5
1C0
330
1F
100
AcDbEntity
  8
0
  6
CONTINUOUS
 62
     7
100
AcDbLine
 10
54.6296396989
 20
368.1505793862
 30
0.0
 11
68.6296396654
 21
368.1505793862
 31
0.0
  0
ARC
  5
1C1
330
1F
100
AcDbEntity
  8
0
  6
CONTINUOUS
 62
     7
100
AcDbCircle
 10
68.6296397548
 20
366.1505823068
 30
0.0
 40
2.0
100
AcDbArc
 50
0.0
 51
90.0
  0
LINE
  5
1C2
330
1F
100
AcDbEntity
  8
0
  6
CONTINUOUS
 62
     7
100
AcDbLine
 10
70.6296399932
 20
366.1505827837
 30
0.0
 11
70.6296399932
 21
347.150581532
 31
0.0
  0
ARC
  5
1C3
330
1F
100
AcDbEntity
  8
0
  6
CONTINUOUS
 62
     7
100
AcDbCircle
 10
68.6296397548
 20
347.1505823068
 30
0.0
 40
2.0
100
AcDbArc
 50
270.0
 51
0.0
  0
LINE
  5
1C4
330
1F
100
AcDbEntity
  8
0
  6
CONTINUOUS
 62
     7
100
AcDbLine
 10
68.6296396654
 20
345.1505849294
 30
0.0
 11
54.6296396989
 21
345.1505849294
 31
0.0
  0
LINE
  5
1C5
330
1F
100
AcDbEntity
  8
0
  6
CONTINUOUS
 62
     7
100
AcDbLine
 10
54.6296396989
 20
345.1505849294
 30
0.0
 11
54.6296396989
 21
348.1505835585
 31
0.0
  0
LINE
  5
1C6
330
1F
100
AcDbEntity
  8
0
  6
CONTINUOUS
 62
     7
100
AcDbLine
 10
67.6296395015
 20
348.1505835585
 30
0.0
 11
54.6296396989
 21
348.1505835585
 31
0.0
  0
LINE
  5
1C7
330
1F
100
AcDbEntity
  8
0
  6
CONTINUOUS
 62
     7
100
AcDbLine
 10
67.6296395015
 20
365.1505807571
 30
0.0
 11
67.6296395015
 21
364.6505797438
 31
0.0
  0
LINE
  5
1C8
330
1F
100
AcDbEntity
  8
0
  6
CONTINUOUS
 62
     7
100
AcDbLine
 10
54.6296396989
 20
365.1505807571
 30
0.0
 11
67.6296395015
 21
365.1505807571
 31
0.0
  0
LINE
  5
1C9
330
1F
100
AcDbEntity
  8
0
  6
CONTINUOUS
 62
     7
100
AcDbLine
 10
67.6296395015
 20
348.6505845718
 30
0.0
 11
67.6296395015
 21
348.1505835585
 31
0.0
  0
LINE
  5
1CA
330
1F
100
AcDbEntity
  8
0
  6
CONTINUOUS
 62
     7
100
AcDbLine
 10
67.6296395015
 20
559.6505800419
 30
0.0
 11
67.6296395015
 21
560.1505810551
 31
0.0
  0
LINE
  5
1CB
330
1F
100
AcDbEntity
  8
0
  6
CONTINUOUS
 62
     7
100
AcDbLine
 10
67.6296395015
 20
560.1505810551
 30
0.0
 11
54.6296396989
 21
560.1505810551
 31
0.0
  0
LINE
  5
1CC
330
1F
100
AcDbEntity
  8
0
  6
CONTINUOUS
 62
     7
100
AcDbLine
 10
54.6296396989
 20
560.1505810551
 30
0.0
 11
54.6296396989
 21
563.1505796842
 31
0.0
  0
LINE
  5
1CD
330
1F
100
AcDbEntity
  8
0
  6
CONTINUOUS
 62
     7
100
AcDbLine
 10
68.6296396654
 20
563.1505796842
 30
0.0
 11
54.6296396989
 21
563.1505796842
 31
0.0
  0
ARC
  5
1CE
330
1F
100
AcDbEntity
  8
0
  6
CONTINUOUS
 62
     7
100
AcDbCircle
 10
68.6296397548
 20
561.1505823068
 30
0.0
 40
2.0
100
AcDbArc
 50
0.0
 51
90.0
  0
LINE
  5
1CF
330
1F
100
AcDbEntity
  8
0
  6
CONTINUOUS
 62
     7
100
AcDbLine
 10
70.6296399932
 20
542.15058183
 30
0.0
 11
70.6296399932
 21
561.1505830817
 31
0.0
  0
ARC
  5
1D0
330
1F
100
AcDbEntity
  8
0
  6
CONTINUOUS
 62
     7
100
AcDbCircle
 10
68.6296397548
 20
542.1505823068
 30
0.0
 40
2.0
100
AcDbArc
 50
270.0
 51
0.0
  0
LINE
  5
1D1
330
1F
100
AcDbEntity
  8
0
  6
CONTINUOUS
 62
     7
100
AcDbLine
 10
54.6296396989
 20
540.1505852275
 30
0.0
 11
68.6296396654
 21
540.1505852275
 31
0.0
  0
LINE
  5
1D2
330
1F
100
AcDbEntity
  8
0
  6
CONTINUOUS
 62
     7
100
AcDbLine
 10
54.6296396989
 20
540.1505852275
 30
0.0
 11
54.6296396989
 21
543.1505838566
 31
0.0
  0
LINE
  5
1D3
330
1F
100
AcDbEntity
  8
0
  6
CONTINUOUS
 62
     7
100
AcDbLine
 10
54.6296396989
 20
543.1505838566
 30
0.0
 11
67.6296395015
 21
543.1505838566
 31
0.0
  0
LINE
  5
1D4
330
1F
100
AcDbEntity
  8
0
  6
CONTINUOUS
 62
     7
100
AcDbLine
 10
67.6296395015
 20
543.1505838566
 30
0.0
 11
67.6296395015
 21
543.6505848698
 31
0.0
  0
LINE
  5
1D5
330
1F
100
AcDbEntity
  8
0
  6
CONTINUOUS
 62
     7
100
AcDbLine
 10
54.6296396989
 20
345.1505849294
 30
0.0
 11
52.1296397548
 21
345.1505849294
 31
0.0
  0
LINE
  5
1D6
330
1F
100
AcDbEntity
  8
0
  6
CONTINUOUS
 62
     7
100
AcDbLine
 10
52.1296397548
 20
345.1505849294
 30
0.0
 11
52.1296397548
 21
348.1505835585
 31
0.0
  0
LINE
  5
1D7
330
1F
100
AcDbEntity
  8
0
  6
CONTINUOUS
 62
     7
100
AcDbLine
 10
54.6296396989
 20
348.1505835585
 30
0.0
 11
52.1296397548
 21
348.1505835585
 31
0.0
  0
LINE
  5
1D8
330
1F
100
AcDbEntity
  8
0
  6
CONTINUOUS
 62
     7
100
AcDbLine
 10
52.1296397548
 20
368.1505793862
 30
0.0
 11
54.6296396989
 21
368.1505793862
 31
0.0
  0
LINE
  5
1D9
330
1F
100
AcDbEntity
  8
0
  6
CONTINUOUS
 62
     7
100
AcDbLine
 10
52.1296397548
 20
365.1505807571
 30
0.0
 11
54.6296396989
 21
365.1505807571
 31
0.0
  0
LINE
  5
1DA
330
1F
100
AcDbEntity
  8
0
  6
CONTINUOUS
 62
     7
100
AcDbLine
 10
52.1296397548
 20
365.1505807571
 30
0.0
 11
52.1296397548
 21
368.1505793862
 31
0.0
  0
LINE
  5
1DB
330
1F
100
AcDbEntity
  8
0
  6
CONTINUOUS
 62
     7
100
AcDbLine
 10
54.6296396989
 20
540.1505852275
 30
0.0
 11
52.1296397548
 21
540.1505852275
 31
0.0
  0
LINE
  5
1DC
330
1F
100
AcDbEntity
  8
0
  6
CONTINUOUS
 62
     7
100
AcDbLine
 10
52.1296397548
 20
540.1505852275
 30
0.0
 11
52.1296397548
 21
543.1505838566
 31
0.0
  0
LINE
  5
1DD
330
1F
100
AcDbEntity
  8
0
  6
CONTINUOUS
 62
     7
100
AcDbLine
 10
52.1296397548
 20
543.1505838566
 30
0.0
 11
54.6296396989
 21
543.1505838566
 31
0.0
  0
LINE
  5
1DE
330
1F
100
AcDbEntity
  8
0
  6
CONTINUOUS
 62
     7
100
AcDbLine
 10
52.1296397548
 20
560.1505810551
 30
0.0
 11
52.1296397548
 21
563.1505796842
 31
0.0
  0
LINE
  5
1DF
330
1F
100
AcDbEntity
  8
0
  6
CONTINUOUS
 62
     7
100
AcDbLine
 10
52.1296397548
 20
563.1505796842
 30
0.0
 11
54.6296396989
 21
563.1505796842
 31
0.0
  0
LINE
  5
1E0
330
1F
100
AcDbEntity
  8
0
  6
CONTINUOUS
 62
     7
100
AcDbLine
 10
54.6296396989
 20
560.1505810551
 30
0.0
 11
52.1296397548
 21
560.1505810551
 31
0.0
  0
LINE
  5
1E1
330
1F
100
AcDbEntity
  8
0
  6
CONTINUOUS
 62
     7
100
AcDbLine
 10
53.6296397678
 20
344.6505839162
 30
0.0
 11
52.1296397548
 21
344.6505839162
 31
0.0
  0
LINE
  5
1E2
330
1F
100
AcDbEntity
  8
0
  6
CONTINUOUS
 62
     7
100
AcDbLine
 10
52.1296397548
 20
300.650576704
 30
0.0
 11
52.1296397548
 21
344.6505839162
 31
0.0
  0
LINE
  5
1E3
330
1F
100
AcDbEntity
  8
0
  6
CONTINUOUS
 62
     7
100
AcDbLine
 10
53.6296397678
 20
300.650576704
 30
0.0
 11
53.6296397678
 21
344.6505839162
 31
0.0
  0
LINE
  5
1E4
330
1F
100
AcDbEntity
  8
0
  6
CONTINUOUS
 62
     7
100
AcDbLine
 10
53.6296397678
 20
539.6505842142
 30
0.0
 11
52.1296397548
 21
539.6505842142
 31
0.0
  0
LINE
  5
1E5
330
1F
100
AcDbEntity
  8
0
  6
CONTINUOUS
 62
     7
100
AcDbLine
 10
53.6296397678
 20
368.6505803995
 30
0.0
 11
52.1296397548
 21
368.6505803995
 31
0.0
  0
LINE
  5
1E6
330
1F
100
AcDbEntity
  8
0
  6
CONTINUOUS
 62
     7
100
AcDbLine
 10
52.1296397548
 20
368.6505803995
 30
0.0
 11
52.1296397548
 21
539.6505842142
 31
0.0
  0
LINE
  5
1E7
330
1F
100
AcDbEntity
  8
0
  6
CONTINUOUS
 62
     7
100
AcDbLine
 10
53.6296397678
 20
368.6505803995
 30
0.0
 11
53.6296397678
 21
539.6505842142
 31
0.0
  0
LINE
  5
1E8
330
1F
100
AcDbEntity
  8
0
  6
CONTINUOUS
 62
     7
100
AcDbLine
 10
53.6296397678
 20
563.6505806975
 30
0.0
 11
52.1296397548
 21
563.6505806975
 31
0.0
  0
LINE
  5
1E9
330
1F
100
AcDbEntity
  8
0
  6
CONTINUOUS
 62
     7
100
AcDbLine
 10
52.1296397548
 20
563.6505806975
 30
0.0
 11
52.1296397548
 21
607.6505879097
 31
0.0
  0
LINE
  5
1EA
330
1F
100
AcDbEntity
  8
0
  6
CONTINUOUS
 62
     7
100
AcDbLine
 10
53.6296397678
 20
563.6505806975
 30
0.0
 11
53.6296397678
 21
607.6505879097
 31
0.0
  0
LINE
  5
1EB
330
1F
100
AcDbEntity
  8
0
  6
CONTINUOUS
 62
     7
100
AcDbLine
 10
52.1296397548
 20
344.6505839162
 30
0.0
 11
52.1296397548
 21
345.1505849294
 31
0.0
  0
LINE
  5
1EC
330
1F
100
AcDbEntity
  8
0
  6
CONTINUOUS
 62
     7
100
AcDbLine
 10
53.6296397678
 20
344.6505839162
 30
0.0
 11
53.6296397678
 21
345.1505849294
 31
0.0
  0
LINE
  5
1ED
330
1F
100
AcDbEntity
  8
0
  6
CONTINUOUS
 62
     7
100
AcDbLine
 10
52.1296397548
 20
368.1505793862
 30
0.0
 11
52.1296397548
 21
368.6505803995
 31
0.0
  0
LINE
  5
1EE
330
1F
100
AcDbEntity
  8
0
  6
CONTINUOUS
 62
     7
100
AcDbLine
 10
53.6296397678
 20
368.1505793862
 30
0.0
 11
53.6296397678
 21
368.6505803995
 31
0.0
  0
LINE
  5
1EF
330
1F
100
AcDbEntity
  8
0
  6
CONTINUOUS
 62
     7
100
AcDbLine
 10
52.1296397548
 20
539.6505842142
 30
0.0
 11
52.1296397548
 21
540.1505852275
 31
0.0
  0
LINE
  5
1F0
330
1F
100
AcDbEntity
  8
0
  6
CONTINUOUS
 62
     7
100
AcDbLine
 10
53.6296397678
 20
539.6505842142
 30
0.0
 11
53.6296397678
 21
540.1505852275
 31
0.0
  0
LINE
  5
1F1
330
1F
100
AcDbEntity
  8
0
  6
CONTINUOUS
 62
     7
100
AcDbLine
 10
52.1296397548
 20
563.1505796842
 30
0.0
 11
52.1296397548
 21
563.6505806975
 31
0.0
  0
LINE
  5
1F2
330
1F
100
AcDbEntity
  8
0
  6
CONTINUOUS
 62
     7
100
AcDbLine
 10
53.6296397678
 20
563.1505796842
 30
0.0
 11
53.6296397678
 21
563.6505806975
 31
0.0
  0
LINE
  5
1F3
330
1F
100
AcDbEntity
  8
0
  6
CONTINUOUS
 62
     7
100
AcDbLine
 10
52.1296397548
 20
365.1505807571
 30
0.0
 11
52.1296397548
 21
348.1505835585
 31
0.0
  0
LINE
  5
1F4
330
1F
100
AcDbEntity
  8
0
  6
CONTINUOUS
 62
     7
100
AcDbLine
 10
53.6296397678
 20
365.1505807571
 30
0.0
 11
53.6296397678
 21
364.6505797438
 31
0.0
  0
LINE
  5
1F5
330
1F
100
AcDbEntity
  8
0
  6
CONTINUOUS
 62
     7
100
AcDbLine
 10
53.6296397678
 20
348.6505845718
 30
0.0
 11
53.6296397678
 21
348.1505835585
 31
0.0
  0
LINE
  5
1F6
330
1F
100
AcDbEntity
  8
0
  6
CONTINUOUS
 62
     7
100
AcDbLine
 10
52.1296397548
 20
560.1505810551
 30
0.0
 11
52.1296397548
 21
543.1505838566
 31
0.0
  0
LINE
  5
1F7
330
1F
100
AcDbEntity
  8
0
  6
CONTINUOUS
 62
     7
100
AcDbLine
 10
53.6296397678
 20
560.1505810551
 30
0.0
 11
53.6296397678
 21
559.6505800419
 31
0.0
  0
LINE
  5
1F8
330
1F
100
AcDbEntity
  8
0
  6
CONTINUOUS
 62
     7
100
AcDbLine
 10
53.6296397678
 20
543.6505848698
 30
0.0
 11
53.6296397678
 21
543.1505838566
 31
0.0
  0
LINE
  5
1F9
330
1F
100
AcDbEntity
  8
0
  6
CONTINUOUS
 62
     7
100
AcDbLine
 10
54.6296396989
 20
607.6505879097
 30
0.0
 11
53.6296397678
 21
607.6505879097
 31
0.0
  0
LINE
  5
1FA
330
1F
100
AcDbEntity
  8
0
  6
CONTINUOUS
 62
     7
100
AcDbLine
 10
53.6296397678
 20
300.650576704
 30
0.0
 11
54.6296396989
 21
300.650576704
 31
0.0
  0
LINE
  5
1FB
330
1F
100
AcDbEntity
  8
0
  6
CONTINUOUS
 62
     7
100
AcDbLine
 10
61.1296393674
 20
300.650576704
 30
0.0
 11
63.1296396952
 21
302.6505807571
 31
0.0
  0
LINE
  5
1FC
330
1F
100
AcDbEntity
  8
0
  6
CONTINUOUS
 62
     7
100
AcDbLine
 10
61.1296393674
 20
300.650576704
 30
0.0
 11
54.6296396989
 21
300.650576704
 31
0.0
  0
LINE
  5
1FD
330
1F
100
AcDbEntity
  8
0
  6
CONTINUOUS
 62
     7
100
AcDbLine
 10
54.6296396989
 20
607.6505879097
 30
0.0
 11
61.1296393674
 21
607.6505879097
 31
0.0
  0
LINE
  5
1FE
330
1F
100
AcDbEntity
  8
0
  6
CONTINUOUS
 62
     7
100
AcDbLine
 10
63.1296396952
 20
605.6505838566
 30
0.0
 11
61.1296393674
 21
607.6505879097
 31
0.0
  0
LINE
  5
1FF
330
1F
100
AcDbEntity
  8
0
  6
CONTINUOUS
 62
     7
100
AcDbLine
 10
63.1296396952
 20
605.6505838566
 30
0.0
 11
63.1296396952
 21
595.6505784921
 31
0.0
  0
LINE
  5
200
330
1F
100
AcDbEntity
  8
0
  6
CONTINUOUS
 62
     7
100
AcDbLine
 10
63.1296396952
 20
312.6505861215
 30
0.0
 11
63.1296396952
 21
302.6505807571
 31
0.0
  0
LINE
  5
201
330
1F
100
AcDbEntity
  8
0
  6
CONTINUOUS
 62
     7
100
AcDbLine
 10
63.1296396952
 20
595.6505784921
 30
0.0
 11
65.629640105
 21
595.6505784921
 31
0.0
  0
LINE
  5
202
330
1F
100
AcDbEntity
  8
0
  6
CONTINUOUS
 62
     7
100
AcDbLine
 10
65.629640105
 20
312.6505861215
 30
0.0
 11
65.629640105
 21
345.1505849294
 31
0.0
  0
LINE
  5
203
330
1F
100
AcDbEntity
  8
0
  6
CONTINUOUS
 62
     7
100
AcDbLine
 10
65.629640105
 20
348.1505835585
 30
0.0
 11
65.629640105
 21
348.6505845718
 31
0.0
  0
LINE
  5
204
330
1F
100
AcDbEntity
  8
0
  6
CONTINUOUS
 62
     7
100
AcDbLine
 10
65.629640105
 20
364.6505797438
 30
0.0
 11
65.629640105
 21
365.1505807571
 31
0.0
  0
LINE
  5
205
330
1F
100
AcDbEntity
  8
0
  6
CONTINUOUS
 62
     7
100
AcDbLine
 10
65.629640105
 20
368.1505793862
 30
0.0
 11
65.629640105
 21
540.1505852275
 31
0.0
  0
LINE
  5
206
330
1F
100
AcDbEntity
  8
0
  6
CONTINUOUS
 62
     7
100
AcDbLine
 10
65.629640105
 20
543.1505838566
 30
0.0
 11
65.629640105
 21
543.6505848698
 31
0.0
  0
LINE
  5
207
330
1F
100
AcDbEntity
  8
0
  6
CONTINUOUS
 62
     7
100
AcDbLine
 10
65.629640105
 20
559.6505800419
 30
0.0
 11
65.629640105
 21
560.1505810551
 31
0.0
  0
LINE
  5
208
330
1F
100
AcDbEntity
  8
0
  6
CONTINUOUS
 62
     7
100
AcDbLine
 10
65.629640105
 20
563.1505796842
 30
0.0
 11
65.629640105
 21
595.6505784921
 31
0.0
  0
LINE
  5
209
330
1F
100
AcDbEntity
  8
0
  6
CONTINUOUS
 62
     7
100
AcDbLine
 10
65.629640105
 20
312.6505861215
 30
0.0
 11
63.1296396952
 21
312.6505861215
 31
0.0
  0
LINE
  5
20A
330
1F
100
AcDbEntity
  8
0
  6
CONTINUOUS
 62
     7
100
AcDbLine
 10
55.6296398628
 20
609.943474286
 30
0.0
 11
64.1296398591
 21
609.943474286
 31
0.0
  0
LINE
  5
20B
330
1F
100
AcDbEntity
  8
0
  6
CONTINUOUS
 62
     7
100
AcDbLine
 10
64.1296398591
 20
609.943474286
 30
0.0
 11
64.1296398591
 21
595.6505784921
 31
0.0
  0
LINE
  5
20C
330
1F
100
AcDbEntity
  8
0
  6
CONTINUOUS
 62
     7
100
AcDbLine
 10
64.1296398591
 20
312.6505861215
 30
0.0
 11
64.1296398591
 21
298.3576903276
 31
0.0
  0
LINE
  5
20D
330
1F
100
AcDbEntity
  8
0
  6
CONTINUOUS
 62
     7
100
AcDbLine
 10
55.6296398628
 20
298.3576903276
 30
0.0
 11
64.1296398591
 21
298.3576903276
 31
0.0
  0
LWPOLYLINE
  5
20E
330
1F
100
AcDbEntity
  8
0
  6
CONTINUOUS
 62
     7
100
AcDbPolyline
 90
        3
 70
   128
 43
0.0
 10
55.6296398628
 20
298.3576903276
 10
54.6317191094
 20
298.5036323003
 10
53.6296397678
 20
298.6656675272
  0
ARC
  5
20F
330
1F
100
AcDbEntity
  8
0
  6
CONTINUOUS
 62
     7
100
AcDbCircle
 10
61.7028096025
 20
563.8098473266
 30
0.0
 40
46.53165510830654
100
AcDbArc
 50
97.4994659361
 51
99.9912887589
  0
ARC
  5
210
330
1F
100
AcDbEntity
  8
0
  6
CONTINUOUS
 62
     7
100
AcDbCircle
 10
55.4382721076
 20
298.5168992881
 30
0.0
 40
2.872698981555031
100
AcDbArc
 50
230.9798687731
 51
273.819645072
  0
ARC
  5
211
330
1F
100
AcDbEntity
  8
0
  6
CONTINUOUS
 62
     7
100
AcDbCircle
 10
55.6175045554
 20
299.1137800251
 30
0.0
 40
1.463244822072009
100
AcDbArc
 50
202.092027878
 51
270.4751835492
  0
LINE
  5
212
330
1F
100
AcDbEntity
  8
0
  6
CONTINUOUS
 62
     7
100
AcDbLine
 10
55.6296398628
 20
295.6505814724
 30
0.0
 11
55.6296398628
 21
297.6505855255
 31
0.0
  0
LINE
  5
213
330
1F
100
AcDbEntity
  8
0
  6
CONTINUOUS
 62
     7
100
AcDbLine
 10
55.6296398628
 20
612.6505831413
 30
0.0
 11
55.6296398628
 21
610.6505790882
 31
0.0
  0
ARC
  5
214
330
1F
100
AcDbEntity
  8
0
  6
CONTINUOUS
 62
     7
100
AcDbCircle
 10
55.5680870723
 20
609.2725856296
 30
0.0
 40
1.379367506494309
100
AcDbArc
 50
87.4423881937
 51
160.2412050414
  0
LWPOLYLINE
  5
215
330
1F
100
AcDbEntity
  8
0
  6
CONTINUOUS
 62
     7
100
AcDbPolyline
 90
        3
 70
   128
 43
0.0
 10
55.6296398628
 20
612.6505831413
 10
54.6317191094
 20
612.5052968197
 10
53.6296397678
 20
612.0093563728
  0
LINE
  5
216
330
1F
100
AcDbEntity
  8
0
  6
CONTINUOUS
 62
     7
100
AcDbLine
 10
64.1296398591
 20
612.6505831413
 30
0.0
 11
55.6296398628
 21
612.6505831413
 31
0.0
  0
LINE
  5
217
330
1F
100
AcDbEntity
  8
0
  6
CONTINUOUS
 62
     7
100
AcDbLine
 10
64.1296398591
 20
610.6505790882
 30
0.0
 11
64.1296398591
 21
612.6505831413
 31
0.0
  0
LINE
  5
218
330
1F
100
AcDbEntity
  8
0
  6
CONTINUOUS
 62
     7
100
AcDbLine
 10
55.6296398628
 20
610.6505790882
 30
0.0
 11
64.1296398591
 21
610.6505790882
 31
0.0
  0
LINE
  5
219
330
1F
100
AcDbEntity
  8
0
  6
CONTINUOUS
 62
     7
100
AcDbLine
 10
55.6296398628
 20
297.6505855255
 30
0.0
 11
64.1296398591
 21
297.6505855255
 31
0.0
  0
LINE
  5
21A
330
1F
100
AcDbEntity
  8
0
  6
CONTINUOUS
 62
     7
100
AcDbLine
 10
64.1296398591
 20
297.6505855255
 30
0.0
 11
64.1296398591
 21
295.6505814724
 31
0.0
  0
LINE
  5
21B
330
1F
100
AcDbEntity
  8
0
  6
CONTINUOUS
 62
     7
100
AcDbLine
 10
55.6296398628
 20
295.6505814724
 30
0.0
 11
64.1296398591
 21
295.6505814724
 31
0.0
  0
LINE
  5
21C
330
1F
100
AcDbEntity
  8
0
  6
CONTINUOUS
 62
     7
100
AcDbLine
 10
68.4296400051
 20
448.0005825095
 30
0.0
 11
68.4296400051
 21
457.2207153466
 31
0.0
  0
LINE
  5
21D
330
1F
100
AcDbEntity
  8
0
  6
CONTINUOUS
 62
     7
100
AcDbLine
 10
67.7296393316
 20
448.0005825095
 30
0.0
 11
67.7296393316
 21
457.2207153466
 31
0.0
  0
LINE
  5
21E
330
1F
100
AcDbEntity
  8
0
  6
CONTINUOUS
 62
     7
100
AcDbLine
 10
68.4296400051
 20
457.2207153466
 30
0.0
 11
67.7296393316
 21
457.2207153466
 31
0.0
  0
LINE
  5
21F
330
1F
100
AcDbEntity
  8
0
  6
CONTINUOUS
 62
     7
100
AcDbLine
 10
67.6296395015
 20
448.1319883995
 30
0.0
 11
65.629640105
 21
448.1319883995
 31
0.0
  0
LINE
  5
220
330
1F
100
AcDbEntity
  8
0
  6
CONTINUOUS
 62
     7
100
AcDbLine
 10
67.6296395015
 20
461.1291821271
 30
0.0
 11
65.629640105
 21
461.1291821271
 31
0.0
  0
LINE
  5
221
330
1F
100
AcDbEntity
  8
0
  6
CONTINUOUS
 62
     7
100
AcDbLine
 10
67.6296395015
 20
448.1319883995
 30
0.0
 11
67.6296395015
 21
461.1291821271
 31
0.0
  0
LINE
  5
222
330
1F
100
AcDbEntity
  8
0
  6
CONTINUOUS
 62
     7
100
AcDbLine
 10
67.6296395015
 20
447.6519852102
 30
0.0
 11
65.629640105
 21
447.6519852102
 31
0.0
  0
LINE
  5
223
330
1F
100
AcDbEntity
  8
0
  6
CONTINUOUS
 62
     7
100
AcDbLine
 10
67.6296395015
 20
447.6519852102
 30
0.0
 11
67.6296395015
 21
448.1319883995
 31
0.0
  0
LINE
  5
224
330
1F
100
AcDbEntity
  8
0
  6
CONTINUOUS
 62
     7
100
AcDbLine
 10
67.6296395015
 20
447.6505821727
 30
0.0
 11
67.6296395015
 21
447.6519852102
 31
0.0
  0
LINE
  5
225
330
1F
100
AcDbEntity
  8
0
  6
CONTINUOUS
 62
     7
100
AcDbLine
 10
48.8296397727
 20
454.2877080308
 30
0.0
 11
48.8296397727
 21
447.5505823426
 31
0.0
  0
LINE
  5
226
330
1F
100
AcDbEntity
  8
0
  6
CONTINUOUS
 62
     7
100
AcDbLine
 10
48.8296397727
 20
460.7505822711
 30
0.0
 11
48.8296397727
 21
454.2877080308
 31
0.0
  0
LINE
  5
227
330
1F
100
AcDbEntity
  8
0
  6
CONTINUOUS
 62
     7
100
AcDbLine
 10
69.6296398293
 20
454.2233004973
 30
0.0
 11
69.6296398293
 21
457.6505824149
 31
0.0
  0
LINE
  5
228
330
1F
100
AcDbEntity
  8
0
  6
CONTINUOUS
 62
     7
100
AcDbLine
 10
69.6296398293
 20
450.6505821988
 30
0.0
 11
69.6296398293
 21
454.2233004973
 31
0.0
  0
LINE
  5
229
330
1F
100
AcDbEntity
  8
0
  6
CONTINUOUS
 62
     7
100
AcDbLine
 10
68.6296396654
 20
450.6505821988
 30
0.0
 11
68.6296396654
 21
457.6505824149
 31
0.0
  0
LINE
  5
22A
330
1F
100
AcDbEntity
  8
0
  6
CONTINUOUS
 62
     7
100
AcDbLine
 10
51.1296397073
 20
443.1505823664
 30
0.0
 11
51.1296397073
 21
465.1505822472
 31
0.0
  0
LINE
  5
22B
330
1F
100
AcDbEntity
  8
0
  6
CONTINUOUS
 62
     7
100
AcDbLine
 10
49.1296397287
 20
460.6453912489
 30
0.0
 11
49.1296397287
 21
463.1505819194
 31
0.0
  0
LINE
  5
22C
330
1F
100
AcDbEntity
  8
0
  6
CONTINUOUS
 62
     7
100
AcDbLine
 10
49.1296397287
 20
445.1505826943
 30
0.0
 11
49.1296397287
 21
460.6453912489
 31
0.0
  0
LINE
  5
22D
330
1F
100
AcDbEntity
  8
0
  6
CONTINUOUS
 62
     8
100
AcDbLine
 10
54.6296396989
 20
300.650576704
 30
0.0
 11
54.6296396989
 21
345.1505849294
 31
0.0
  0
LINE
  5
22E
330
1F
100
AcDbEntity
  8
0
  6
CONTINUOUS
 62
     8
100
AcDbLine
 10
54.6296396989
 20
348.1505835585
 30
0.0
 11
54.6296396989
 21
348.6505845718
 31
0.0
  0
LINE
  5
22F
330
1F
100
AcDbEntity
  8
0
  6
CONTINUOUS
 62
     8
100
AcDbLine
 10
54.6296396989
 20
364.6505797438
 30
0.0
 11
54.6296396989
 21
365.1505807571
 31
0.0
  0
LINE
  5
230
330
1F
100
AcDbEntity
  8
0
  6
CONTINUOUS
 62
     8
100
AcDbLine
 10
54.6296396989
 20
368.1505793862
 30
0.0
 11
54.6296396989
 21
540.1505852275
 31
0.0
  0
LINE
  5
231
330
1F
100
AcDbEntity
  8
0
  6
CONTINUOUS
 62
     8
100
AcDbLine
 10
54.6296396989
 20
543.1505838566
 30
0.0
 11
54.6296396989
 21
543.6505848698
 31
0.0
  0
LINE
  5
232
330
1F
100
AcDbEntity
  8
0
  6
CONTINUOUS
 62
     8
100
AcDbLine
 10
54.6296396989
 20
559.6505800419
 30
0.0
 11
54.6296396989
 21
560.1505810551
 31
0.0
  0
LINE
  5
233
330
1F
100
AcDbEntity
  8
0
  6
CONTINUOUS
 62
     8
100
AcDbLine
 10
54.6296396989
 20
563.1505796842
 30
0.0
 11
54.6296396989
 21
607.6505879097
 31
0.0
  0
LINE
  5
234
330
1F
100
AcDbEntity
  8
0
  6
CONTINUOUS
 62
     8
100
AcDbLine
 10
63.1296396952
 20
312.6505861215
 30
0.0
 11
63.1296396952
 21
345.1505849294
 31
0.0
  0
LINE
  5
235
330
1F
100
AcDbEntity
  8
0
  6
CONTINUOUS
 62
     8
100
AcDbLine
 10
63.1296396952
 20
348.1505835585
 30
0.0
 11
63.1296396952
 21
348.6505845718
 31
0.0
  0
LINE
  5
236
330
1F
100
AcDbEntity
  8
0
  6
CONTINUOUS
 62
     8
100
AcDbLine
 10
63.1296396952
 20
364.6505797438
 30
0.0
 11
63.1296396952
 21
365.1505807571
 31
0.0
  0
LINE
  5
237
330
1F
100
AcDbEntity
  8
0
  6
CONTINUOUS
 62
     8
100
AcDbLine
 10
63.1296396952
 20
368.1505793862
 30
0.0
 11
63.1296396952
 21
540.1505852275
 31
0.0
  0
LINE
  5
238
330
1F
100
AcDbEntity
  8
0
  6
CONTINUOUS
 62
     8
100
AcDbLine
 10
63.1296396952
 20
543.1505838566
 30
0.0
 11
63.1296396952
 21
543.6505848698
 31
0.0
  0
LINE
  5
239
330
1F
100
AcDbEntity
  8
0
  6
CONTINUOUS
 62
     8
100
AcDbLine
 10
63.1296396952
 20
559.6505800419
 30
0.0
 11
63.1296396952
 21
560.1505810551
 31
0.0
  0
LINE
  5
23A
330
1F
100
AcDbEntity
  8
0
  6
CONTINUOUS
 62
     8
100
AcDbLine
 10
63.1296396952
 20
563.1505796842
 30
0.0
 11
63.1296396952
 21
595.6505784921
 31
0.0
  0
LINE
  5
23B
330
1F
100
AcDbEntity
  8
0
  6
CONTINUOUS
 62
     8
100
AcDbLine
 10
55.6296398628
 20
298.3576903276
 30
0.0
 11
55.6296398628
 21
300.650576704
 31
0.0
  0
LINE
  5
23C
330
1F
100
AcDbEntity
  8
0
  6
CONTINUOUS
 62
     8
100
AcDbLine
 10
55.6296398628
 20
607.6505879097
 30
0.0
 11
55.6296398628
 21
609.943474286
 31
0.0
  0
LINE
  5
23D
330
1F
100
AcDbEntity
  8
0
  6
CONTINUOUS
 62
     8
100
AcDbLine
 10
49.0796398137
 20
454.2929021914
 30
0.0
 11
49.0796398137
 21
461.000582312
 31
0.0
  0
LINE
  5
23E
330
1F
100
AcDbEntity
  8
0
  6
CONTINUOUS
 62
     8
100
AcDbLine
 10
49.0796398137
 20
447.3005823016
 30
0.0
 11
49.0796398137
 21
454.2929021914
 31
0.0
  0
LINE
  5
23F
330
1F
100
AcDbEntity
  8
0
  6
CONTINUOUS
 62
     7
100
AcDbLine
 10
479.9234017412
 20
811.1695216026
 30
0.0
 11
479.9234017412
 21
810.4695209291
 31
0.0
  0
LINE
  5
240
330
1F
100
AcDbEntity
  8
0
  6
CONTINUOUS
 62
     7
100
AcDbLine
 10
492.2234013359
 20
810.4695209291
 30
0.0
 11
492.2234013359
 21
811.1695216026
 31
0.0
  0
LINE
  5
241
330
1F
100
AcDbEntity
  8
0
  6
CONTINUOUS
 62
     7
100
AcDbLine
 10
479.5734032671
 20
813.2695208293
 30
0.0
 11
479.5734032671
 21
811.2695214328
 31
0.0
  0
LINE
  5
242
330
1F
100
AcDbEntity
  8
0
  6
CONTINUOUS
 62
     7
100
AcDbLine
 10
510.0734054724
 20
811.2695214328
 30
0.0
 11
510.0734054724
 21
813.2695208293
 31
0.0
  0
ARC
  5
243
330
1F
100
AcDbEntity
  8
0
  6
CONTINUOUS
 62
     7
100
AcDbCircle
 10
492.6734050552
 20
829.8195211794
 30
0.0
 40
0.25
100
AcDbArc
 50
0.0
 51
90.0
  0
ARC
  5
244
330
1F
100
AcDbEntity
  8
0
  6
CONTINUOUS
 62
     7
100
AcDbCircle
 10
479.4734050552
 20
829.8195211794
 30
0.0
 40
0.25
100
AcDbArc
 50
90.0
 51
180.0
  0
LINE
  5
245
330
1F
100
AcDbEntity
  8
0
  6
CONTINUOUS
 62
     7
100
AcDbLine
 10
492.9234057347
 20
829.7695212055
 30
0.0
 11
492.9234057347
 21
829.8195211206
 31
0.0
  0
LINE
  5
246
330
1F
100
AcDbEntity
  8
0
  6
CONTINUOUS
 62
     7
100
AcDbLine
 10
479.2234047929
 20
829.8195211206
 30
0.0
 11
479.2234047929
 21
829.7695212055
 31
0.0
  0
LINE
  5
247
330
1F
100
AcDbEntity
  8
0
  6
CONTINUOUS
 62
     7
100
AcDbLine
 10
482.5734018961
 20
810.2695212689
 30
0.0
 11
482.5734018961
 21
809.2695211049
 31
0.0
  0
LINE
  5
248
330
1F
100
AcDbEntity
  8
0
  6
CONTINUOUS
 62
     7
100
AcDbLine
 10
489.5734086315
 20
809.2695211049
 30
0.0
 11
489.5734086315
 21
810.2695212689
 31
0.0
  0
LINE
  5
249
330
1F
100
AcDbEntity
  8
0
  6
CONTINUOUS
 62
     7
100
AcDbLine
 10
483.0734029094
 20
811.2695214328
 30
0.0
 11
483.0734029094
 21
811.1695216026
 31
0.0
  0
LINE
  5
24A
330
1F
100
AcDbEntity
  8
0
  6
CONTINUOUS
 62
     7
100
AcDbLine
 10
483.0734029094
 20
810.4695209291
 30
0.0
 11
483.0734029094
 21
810.2695212689
 31
0.0
  0
LINE
  5
24B
330
1F
100
AcDbEntity
  8
0
  6
CONTINUOUS
 62
     7
100
AcDbLine
 10
489.0734076182
 20
810.2695212689
 30
0.0
 11
489.0734076182
 21
810.4695209291
 31
0.0
  0
LINE
  5
24C
330
1F
100
AcDbEntity
  8
0
  6
CONTINUOUS
 62
     7
100
AcDbLine
 10
489.0734076182
 20
811.1695216026
 30
0.0
 11
489.0734076182
 21
811.2695214328
 31
0.0
  0
LINE
  5
24D
330
1F
100
AcDbEntity
  8
0
  6
CONTINUOUS
 62
     7
100
AcDbLine
 10
497.0734014789
 20
827.7695212269
 30
0.0
 11
495.0734048764
 21
829.7695212055
 31
0.0
  0
LINE
  5
24E
330
1F
100
AcDbEntity
  8
0
  6
CONTINUOUS
 62
     7
100
AcDbLine
 10
477.0734056512
 20
829.7695212055
 30
0.0
 11
475.0734015981
 21
827.7695212269
 31
0.0
  0
LINE
  5
24F
330
1F
100
AcDbEntity
  8
0
  6
CONTINUOUS
 62
     7
100
AcDbLine
 10
475.0734015981
 20
827.7695212269
 30
0.0
 11
475.0734015981
 21
826.7695211794
 31
0.0
  0
LINE
  5
250
330
1F
100
AcDbEntity
  8
0
  6
CONTINUOUS
 62
     7
100
AcDbLine
 10
497.0734014789
 20
826.7695211794
 30
0.0
 11
497.0734014789
 21
827.7695212269
 31
0.0
  0
ARC
  5
251
330
1F
100
AcDbEntity
  8
0
  6
CONTINUOUS
 62
     7
100
AcDbCircle
 10
492.5734050552
 20
813.7695211794
 30
0.0
 40
0.5000000000001249
100
AcDbArc
 50
269.9999878213
 51
0.0
  0
LINE
  5
252
330
1F
100
AcDbEntity
  8
0
  6
CONTINUOUS
 62
     7
100
AcDbLine
 10
493.0734082738
 20
813.7695209112
 30
0.0
 11
493.0734082738
 21
814.7695210751
 31
0.0
  0
LINE
  5
253
330
1F
100
AcDbEntity
  8
0
  6
CONTINUOUS
 62
     7
100
AcDbLine
 10
512.7302601615
 20
825.2695211664
 30
0.0
 11
512.7302601615
 21
826.7695211794
 31
0.0
  0
LINE
  5
254
330
1F
100
AcDbEntity
  8
0
  6
CONTINUOUS
 62
     7
100
AcDbLine
 10
507.0734068433
 20
825.2695211664
 30
0.0
 11
507.0734068433
 21
826.7695211794
 31
0.0
  0
LINE
  5
255
330
1F
100
AcDbEntity
  8
0
  6
CONTINUOUS
 62
     7
100
AcDbLine
 10
507.0734068433
 20
825.2695211664
 30
0.0
 11
512.7302601615
 21
825.2695211664
 31
0.0
  0
LINE
  5
256
330
1F
100
AcDbEntity
  8
0
  6
CONTINUOUS
 62
     7
100
AcDbLine
 10
507.0734068433
 20
826.7695211794
 30
0.0
 11
512.7302601615
 21
826.7695211794
 31
0.0
  0
LINE
  5
257
330
1F
100
AcDbEntity
  8
0
  6
CONTINUOUS
 62
     7
100
AcDbLine
 10
293.5734063069
 20
825.2695211664
 30
0.0
 11
293.5734063069
 21
826.7695211794
 31
0.0
  0
LINE
  5
258
330
1F
100
AcDbEntity
  8
0
  6
CONTINUOUS
 62
     7
100
AcDbLine
 10
293.5734063069
 20
825.2695211664
 30
0.0
 11
507.0734068433
 21
825.2695211664
 31
0.0
  0
LINE
  5
259
330
1F
100
AcDbEntity
  8
0
  6
CONTINUOUS
 62
     7
100
AcDbLine
 10
293.5734063069
 20
826.7695211794
 30
0.0
 11
507.0734068433
 21
826.7695211794
 31
0.0
  0
LINE
  5
25A
330
1F
100
AcDbEntity
  8
0
  6
CONTINUOUS
 62
     7
100
AcDbLine
 10
287.9165529887
 20
825.2695211664
 30
0.0
 11
287.9165529887
 21
826.7695211794
 31
0.0
  0
LINE
  5
25B
330
1F
100
AcDbEntity
  8
0
  6
CONTINUOUS
 62
     7
100
AcDbLine
 10
287.9165529887
 20
825.2695211664
 30
0.0
 11
293.5734063069
 21
825.2695211664
 31
0.0
  0
LINE
  5
25C
330
1F
100
AcDbEntity
  8
0
  6
CONTINUOUS
 62
     7
100
AcDbLine
 10
287.9165529887
 20
826.7695211794
 30
0.0
 11
293.5734063069
 21
826.7695211794
 31
0.0
  0
LINE
  5
25D
330
1F
100
AcDbEntity
  8
0
  6
CONTINUOUS
 62
     7
100
AcDbLine
 10
528.2302543203
 20
825.2695211664
 30
0.0
 11
528.2302543203
 21
826.7695211794
 31
0.0
  0
LINE
  5
25E
330
1F
100
AcDbEntity
  8
0
  6
CONTINUOUS
 62
     7
100
AcDbLine
 10
512.7302601615
 20
825.2695211664
 30
0.0
 11
528.2302543203
 21
825.2695211664
 31
0.0
  0
LINE
  5
25F
330
1F
100
AcDbEntity
  8
0
  6
CONTINUOUS
 62
     7
100
AcDbLine
 10
512.7302601615
 20
826.7695211794
 30
0.0
 11
528.2302543203
 21
826.7695211794
 31
0.0
  0
LINE
  5
260
330
1F
100
AcDbEntity
  8
0
  6
CONTINUOUS
 62
     7
100
AcDbLine
 10
272.4165513793
 20
825.2695211664
 30
0.0
 11
272.4165513793
 21
826.7695211794
 31
0.0
  0
LINE
  5
261
330
1F
100
AcDbEntity
  8
0
  6
CONTINUOUS
 62
     7
100
AcDbLine
 10
272.4165513793
 20
825.2695211664
 30
0.0
 11
287.9165529887
 21
825.2695211664
 31
0.0
  0
LINE
  5
262
330
1F
100
AcDbEntity
  8
0
  6
CONTINUOUS
 62
     7
100
AcDbLine
 10
272.4165513793
 20
826.7695211794
 30
0.0
 11
287.9165529887
 21
826.7695211794
 31
0.0
  0
LINE
  5
263
330
1F
100
AcDbEntity
  8
0
  6
CONTINUOUS
 62
     7
100
AcDbLine
 10
297.0734059493
 20
824.2695212353
 30
0.0
 11
503.573407201
 21
824.2695212353
 31
0.0
  0
LINE
  5
264
330
1F
100
AcDbEntity
  8
0
  6
CONTINUOUS
 62
     7
100
AcDbLine
 10
297.0734059493
 20
825.2695211664
 30
0.0
 11
297.0734059493
 21
824.2695212353
 31
0.0
  0
LINE
  5
265
330
1F
100
AcDbEntity
  8
0
  6
CONTINUOUS
 62
     7
100
AcDbLine
 10
503.573407201
 20
824.2695212353
 30
0.0
 11
503.573407201
 21
825.2695211664
 31
0.0
  0
LINE
  5
266
330
1F
100
AcDbEntity
  8
0
  6
CONTINUOUS
 62
     7
100
AcDbLine
 10
530.5734023134
 20
825.2695211664
 30
0.0
 11
530.5734023134
 21
826.7695211794
 31
0.0
  0
LINE
  5
267
330
1F
100
AcDbEntity
  8
0
  6
CONTINUOUS
 62
     7
100
AcDbLine
 10
528.2302543203
 20
825.2695211664
 30
0.0
 11
530.5734023134
 21
825.2695211664
 31
0.0
  0
LINE
  5
268
330
1F
100
AcDbEntity
  8
0
  6
CONTINUOUS
 62
     7
100
AcDbLine
 10
528.2302543203
 20
826.7695211794
 30
0.0
 11
530.5734023134
 21
826.7695211794
 31
0.0
  0
LINE
  5
269
330
1F
100
AcDbEntity
  8
0
  6
CONTINUOUS
 62
     7
100
AcDbLine
 10
270.0734033863
 20
825.2695211664
 30
0.0
 11
270.0734033863
 21
826.7695211794
 31
0.0
  0
LINE
  5
26A
330
1F
100
AcDbEntity
  8
0
  6
CONTINUOUS
 62
     7
100
AcDbLine
 10
270.0734033863
 20
825.2695211664
 30
0.0
 11
272.4165513793
 21
825.2695211664
 31
0.0
  0
LINE
  5
26B
330
1F
100
AcDbEntity
  8
0
  6
CONTINUOUS
 62
     7
100
AcDbLine
 10
270.0734033863
 20
826.7695211794
 30
0.0
 11
272.4165513793
 21
826.7695211794
 31
0.0
  0
LINE
  5
26C
330
1F
100
AcDbEntity
  8
0
  6
CONTINUOUS
 62
     7
100
AcDbLine
 10
503.573407201
 20
824.2695212353
 30
0.0
 11
503.573407201
 21
817.7695215669
 31
0.0
  0
LINE
  5
26D
330
1F
100
AcDbEntity
  8
0
  6
CONTINUOUS
 62
     7
100
AcDbLine
 10
501.5734031478
 20
815.769521239
 30
0.0
 11
503.573407201
 21
817.7695215669
 31
0.0
  0
LINE
  5
26E
330
1F
100
AcDbEntity
  8
0
  6
CONTINUOUS
 62
     7
100
AcDbLine
 10
501.5734031478
 20
815.769521239
 30
0.0
 11
491.573405234
 21
815.769521239
 31
0.0
  0
LINE
  5
26F
330
1F
100
AcDbEntity
  8
0
  6
CONTINUOUS
 62
     7
100
AcDbLine
 10
309.0734079162
 20
815.769521239
 30
0.0
 11
491.573405234
 21
815.769521239
 31
0.0
  0
LINE
  5
270
330
1F
100
AcDbEntity
  8
0
  6
CONTINUOUS
 62
     7
100
AcDbLine
 10
309.0734079162
 20
815.769521239
 30
0.0
 11
299.0734025518
 21
815.769521239
 31
0.0
  0
LINE
  5
271
330
1F
100
AcDbEntity
  8
0
  6
CONTINUOUS
 62
     7
100
AcDbLine
 10
297.0734059493
 20
817.7695215669
 30
0.0
 11
299.0734025518
 21
815.769521239
 31
0.0
  0
LINE
  5
272
330
1F
100
AcDbEntity
  8
0
  6
CONTINUOUS
 62
     7
100
AcDbLine
 10
297.0734059493
 20
817.7695215669
 30
0.0
 11
297.0734059493
 21
824.2695212353
 31
0.0
  0
CIRCLE
  5
273
330
1F
100
AcDbEntity
  8
0
  6
CONTINUOUS
 62
     7
100
AcDbCircle
 10
300.5734050552
 20
819.2695211794
 30
0.0
 40
2.699999999999932
  0
LINE
  5
274
330
1F
100
AcDbEntity
  8
0
  6
CONTINUOUS
 62
     7
100
AcDbLine
 10
309.0734079162
 20
813.2695208293
 30
0.0
 11
491.573405234
 21
813.2695208293
 31
0.0
  0
LINE
  5
275
330
1F
100
AcDbEntity
  8
0
  6
CONTINUOUS
 62
     7
100
AcDbLine
 10
309.0734079162
 20
813.2695208293
 30
0.0
 11
309.0734079162
 21
815.769521239
 31
0.0
  0
LINE
  5
276
330
1F
100
AcDbEntity
  8
0
  6
CONTINUOUS
 62
     7
100
AcDbLine
 10
491.573405234
 20
815.769521239
 30
0.0
 11
491.573405234
 21
813.2695208293
 31
0.0
  0
LINE
  5
277
330
1F
100
AcDbEntity
  8
0
  6
CONTINUOUS
 62
     7
100
AcDbLine
 10
512.5734030882
 20
824.2695212353
 30
0.0
 11
511.073407499
 21
824.2695212353
 31
0.0
  0
LINE
  5
278
330
1F
100
AcDbEntity
  8
0
  6
CONTINUOUS
 62
     7
100
AcDbLine
 10
512.5734030882
 20
817.7695215669
 30
0.0
 11
512.5734030882
 21
824.2695212353
 31
0.0
  0
LINE
  5
279
330
1F
100
AcDbEntity
  8
0
  6
CONTINUOUS
 62
     7
100
AcDbLine
 10
511.073407499
 20
817.7695215669
 30
0.0
 11
512.5734030882
 21
817.7695215669
 31
0.0
  0
LINE
  5
27A
330
1F
100
AcDbEntity
  8
0
  6
CONTINUOUS
 62
     7
100
AcDbLine
 10
511.073407499
 20
817.7695215669
 30
0.0
 11
511.073407499
 21
824.2695212353
 31
0.0
  0
LINE
  5
27B
330
1F
100
AcDbEntity
  8
0
  6
CONTINUOUS
 62
     7
100
AcDbLine
 10
512.5734030882
 20
817.7695215669
 30
0.0
 11
512.5734030882
 21
815.769521239
 31
0.0
  0
LINE
  5
27C
330
1F
100
AcDbEntity
  8
0
  6
CONTINUOUS
 62
     7
100
AcDbLine
 10
512.5734030882
 20
815.769521239
 30
0.0
 11
511.073407499
 21
815.769521239
 31
0.0
  0
LINE
  5
27D
330
1F
100
AcDbEntity
  8
0
  6
CONTINUOUS
 62
     7
100
AcDbLine
 10
511.073407499
 20
815.769521239
 30
0.0
 11
511.073407499
 21
817.7695215669
 31
0.0
  0
ARC
  5
27E
330
1F
100
AcDbEntity
  8
0
  6
CONTINUOUS
 62
     7
100
AcDbCircle
 10
513.5734050552
 20
824.2695211794
 30
0.0
 40
2.499999999999985
100
AcDbArc
 50
156.4218215218
 51
180.0
  0
ARC
  5
27F
330
1F
100
AcDbEntity
  8
0
  6
CONTINUOUS
 62
     7
100
AcDbCircle
 10
513.5734050552
 20
824.2695211794
 30
0.0
 40
1.0
100
AcDbArc
 50
90.0
 51
180.0
  0
LINE
  5
280
330
1F
100
AcDbEntity
  8
0
  6
CONTINUOUS
 62
     7
100
AcDbLine
 10
510.0734054724
 20
814.7695210751
 30
0.0
 11
510.0734054724
 21
813.2695208293
 31
0.0
  0
ARC
  5
281
330
1F
100
AcDbEntity
  8
0
  6
CONTINUOUS
 62
     7
100
AcDbCircle
 10
510.0734050552
 20
815.7695211794
 30
0.0
 40
0.9999999999999432
100
AcDbArc
 50
270.0
 51
0.0
  0
ARC
  5
282
330
1F
100
AcDbEntity
  8
0
  6
CONTINUOUS
 62
     7
100
AcDbCircle
 10
510.0734050552
 20
815.7695211794
 30
0.0
 40
2.5
100
AcDbArc
 50
270.0
 51
0.0
  0
LINE
  5
283
330
1F
100
AcDbEntity
  8
0
  6
CONTINUOUS
 62
     7
100
AcDbLine
 10
506.0734048168
 20
813.2695208293
 30
0.0
 11
506.0734048168
 21
814.7695210751
 31
0.0
  0
LINE
  5
284
330
1F
100
AcDbEntity
  8
0
  6
CONTINUOUS
 62
     7
100
AcDbLine
 10
507.5734078566
 20
814.7695210751
 30
0.0
 11
509.0734034459
 21
814.7695210751
 31
0.0
  0
LINE
  5
285
330
1F
100
AcDbEntity
  8
0
  6
CONTINUOUS
 62
     7
100
AcDbLine
 10
509.0734034459
 20
814.7695210751
 30
0.0
 11
509.0734034459
 21
813.2695208293
 31
0.0
  0
LINE
  5
286
330
1F
100
AcDbEntity
  8
0
  6
CONTINUOUS
 62
     7
100
AcDbLine
 10
509.0734034459
 20
813.2695208293
 30
0.0
 11
506.0734048168
 21
813.2695208293
 31
0.0
  0
LINE
  5
287
330
1F
100
AcDbEntity
  8
0
  6
CONTINUOUS
 62
     7
100
AcDbLine
 10
510.0734054724
 20
813.2695208293
 30
0.0
 11
509.0734034459
 21
813.2695208293
 31
0.0
  0
LINE
  5
288
330
1F
100
AcDbEntity
  8
0
  6
CONTINUOUS
 62
     7
100
AcDbLine
 10
510.0734054724
 20
814.7695210751
 30
0.0
 11
509.0734034459
 21
814.7695210751
 31
0.0
  0
ARC
  5
289
330
1F
100
AcDbEntity
  8
0
  6
CONTINUOUS
 62
     7
100
AcDbCircle
 10
528.0734050552
 20
824.2695211794
 30
0.0
 40
2.500000000000037
100
AcDbArc
 50
0.0
 51
23.5781784782
  0
LINE
  5
28A
330
1F
100
AcDbEntity
  8
0
  6
CONTINUOUS
 62
     7
100
AcDbLine
 10
529.0734067241
 20
824.2695212353
 30
0.0
 11
530.5734023134
 21
824.2695212353
 31
0.0
  0
ARC
  5
28B
330
1F
100
AcDbEntity
  8
0
  6
CONTINUOUS
 62
     7
100
AcDbCircle
 10
528.0734050552
 20
824.2695211794
 30
0.0
 40
1.0
100
AcDbArc
 50
0.0
 51
90.0
  0
LINE
  5
28C
330
1F
100
AcDbEntity
  8
0
  6
CONTINUOUS
 62
     7
100
AcDbLine
 10
529.0734067241
 20
810.2695212689
 30
0.0
 11
530.5734023134
 21
810.2695212689
 31
0.0
  0
LINE
  5
28D
330
1F
100
AcDbEntity
  8
0
  6
CONTINUOUS
 62
     7
100
AcDbLine
 10
529.0734067241
 20
810.2695212689
 30
0.0
 11
529.0734067241
 21
824.2695212353
 31
0.0
  0
LINE
  5
28E
330
1F
100
AcDbEntity
  8
0
  6
CONTINUOUS
 62
     7
100
AcDbLine
 10
530.5734023134
 20
810.2695212689
 30
0.0
 11
530.5734023134
 21
824.2695212353
 31
0.0
  0
LINE
  5
28F
330
1F
100
AcDbEntity
  8
0
  6
CONTINUOUS
 62
     7
100
AcDbLine
 10
530.5734023134
 20
808.269520941
 30
0.0
 11
529.0734067241
 21
808.269520941
 31
0.0
  0
LINE
  5
290
330
1F
100
AcDbEntity
  8
0
  6
CONTINUOUS
 62
     7
100
AcDbLine
 10
529.0734067241
 20
808.269520941
 30
0.0
 11
529.0734067241
 21
810.2695212689
 31
0.0
  0
LINE
  5
291
330
1F
100
AcDbEntity
  8
0
  6
CONTINUOUS
 62
     7
100
AcDbLine
 10
530.5734023134
 20
810.2695212689
 30
0.0
 11
530.5734023134
 21
808.269520941
 31
0.0
  0
ARC
  5
292
330
1F
100
AcDbEntity
  8
0
  6
CONTINUOUS
 62
     7
100
AcDbCircle
 10
531.5734050552
 20
811.2695211794
 30
0.0
 40
1.00000000000006
100
AcDbArc
 50
165.0
 51
180.0
  0
LINE
  5
293
330
1F
100
AcDbEntity
  8
0
  6
CONTINUOUS
 62
     7
100
AcDbLine
 10
532.8773900548
 20
825.7953267417
 30
0.0
 11
534.3262746612
 21
825.4070981162
 31
0.0
  0
LINE
  5
294
330
1F
100
AcDbEntity
  8
0
  6
CONTINUOUS
 62
     7
100
AcDbLine
 10
534.3262746612
 20
825.4070981162
 30
0.0
 11
530.607481269
 21
811.5283406329
 31
0.0
  0
LINE
  5
295
330
1F
100
AcDbEntity
  8
0
  6
CONTINUOUS
 62
     7
100
AcDbLine
 10
532.8773900548
 20
825.7953267417
 30
0.0
 11
530.5734023134
 21
817.1967283812
 31
0.0
  0
ARC
  5
296
330
1F
100
AcDbEntity
  8
0
  6
CONTINUOUS
 62
     7
100
AcDbCircle
 10
287.0734050552
 20
824.2695211794
 30
0.0
 40
2.500000000000037
100
AcDbArc
 50
0.0
 51
23.5781784782
  0
LINE
  5
297
330
1F
100
AcDbEntity
  8
0
  6
CONTINUOUS
 62
     7
100
AcDbLine
 10
288.0734026114
 20
824.2695212353
 30
0.0
 11
289.5734056512
 21
824.2695212353
 31
0.0
  0
ARC
  5
298
330
1F
100
AcDbEntity
  8
0
  6
CONTINUOUS
 62
     7
100
AcDbCircle
 10
287.0734050552
 20
824.2695211794
 30
0.0
 40
1.0
100
AcDbArc
 50
0.0
 51
90.0
  0
LINE
  5
299
330
1F
100
AcDbEntity
  8
0
  6
CONTINUOUS
 62
     7
100
AcDbLine
 10
289.5734056512
 20
815.769521239
 30
0.0
 11
288.0734026114
 21
815.769521239
 31
0.0
  0
LINE
  5
29A
330
1F
100
AcDbEntity
  8
0
  6
CONTINUOUS
 62
     7
100
AcDbLine
 10
288.0734026114
 20
817.7695215669
 30
0.0
 11
289.5734056512
 21
817.7695215669
 31
0.0
  0
LINE
  5
29B
330
1F
100
AcDbEntity
  8
0
  6
CONTINUOUS
 62
     7
100
AcDbLine
 10
289.5734056512
 20
817.7695215669
 30
0.0
 11
289.5734056512
 21
815.769521239
 31
0.0
  0
LINE
  5
29C
330
1F
100
AcDbEntity
  8
0
  6
CONTINUOUS
 62
     7
100
AcDbLine
 10
288.0734026114
 20
815.769521239
 30
0.0
 11
288.0734026114
 21
817.7695215669
 31
0.0
  0
LINE
  5
29D
330
1F
100
AcDbEntity
  8
0
  6
CONTINUOUS
 62
     7
100
AcDbLine
 10
289.5734056512
 20
824.2695212353
 30
0.0
 11
289.5734056512
 21
817.7695215669
 31
0.0
  0
LINE
  5
29E
330
1F
100
AcDbEntity
  8
0
  6
CONTINUOUS
 62
     7
100
AcDbLine
 10
288.0734026114
 20
824.2695212353
 30
0.0
 11
288.0734026114
 21
817.7695215669
 31
0.0
  0
LINE
  5
29F
330
1F
100
AcDbEntity
  8
0
  6
CONTINUOUS
 62
     7
100
AcDbLine
 10
271.5733989755
 20
824.2695212353
 30
0.0
 11
270.0734033863
 21
824.2695212353
 31
0.0
  0
ARC
  5
2A0
330
1F
100
AcDbEntity
  8
0
  6
CONTINUOUS
 62
     7
100
AcDbCircle
 10
272.5734050552
 20
824.2695211794
 30
0.0
 40
2.499999999999943
100
AcDbArc
 50
156.4218215218
 51
180.0
  0
ARC
  5
2A1
330
1F
100
AcDbEntity
  8
0
  6
CONTINUOUS
 62
     7
100
AcDbCircle
 10
272.5734050552
 20
824.2695211794
 30
0.0
 40
0.9999999999999432
100
AcDbArc
 50
90.0
 51
180.0
  0
LINE
  5
2A2
330
1F
100
AcDbEntity
  8
0
  6
CONTINUOUS
 62
     7
100
AcDbLine
 10
270.0734033863
 20
810.2695212689
 30
0.0
 11
271.5733989755
 21
810.2695212689
 31
0.0
  0
LINE
  5
2A3
330
1F
100
AcDbEntity
  8
0
  6
CONTINUOUS
 62
     7
100
AcDbLine
 10
270.0734033863
 20
810.2695212689
 30
0.0
 11
270.0734033863
 21
824.2695212353
 31
0.0
  0
LINE
  5
2A4
330
1F
100
AcDbEntity
  8
0
  6
CONTINUOUS
 62
     7
100
AcDbLine
 10
271.5733989755
 20
810.2695212689
 30
0.0
 11
271.5733989755
 21
824.2695212353
 31
0.0
  0
LINE
  5
2A5
330
1F
100
AcDbEntity
  8
0
  6
CONTINUOUS
 62
     7
100
AcDbLine
 10
271.5733989755
 20
808.269520941
 30
0.0
 11
270.0734033863
 21
808.269520941
 31
0.0
  0
LINE
  5
2A6
330
1F
100
AcDbEntity
  8
0
  6
CONTINUOUS
 62
     7
100
AcDbLine
 10
270.0734033863
 20
808.269520941
 30
0.0
 11
270.0734033863
 21
810.2695212689
 31
0.0
  0
LINE
  5
2A7
330
1F
100
AcDbEntity
  8
0
  6
CONTINUOUS
 62
     7
100
AcDbLine
 10
271.5733989755
 20
810.2695212689
 30
0.0
 11
271.5733989755
 21
808.269520941
 31
0.0
  0
ARC
  5
2A8
330
1F
100
AcDbEntity
  8
0
  6
CONTINUOUS
 62
     7
100
AcDbCircle
 10
269.0734050552
 20
811.2695211794
 30
0.0
 40
1.0
100
AcDbArc
 50
0.0
 51
15.0
  0
LINE
  5
2A9
330
1F
100
AcDbEntity
  8
0
  6
CONTINUOUS
 62
     7
100
AcDbLine
 10
266.3205310384
 20
825.4070981162
 30
0.0
 11
270.0393244306
 21
811.5283406329
 31
0.0
  0
LINE
  5
2AA
330
1F
100
AcDbEntity
  8
0
  6
CONTINUOUS
 62
     7
100
AcDbLine
 10
267.7694156448
 20
825.7953267417
 30
0.0
 11
266.3205310384
 21
825.4070981162
 31
0.0
  0
LINE
  5
2AB
330
1F
100
AcDbEntity
  8
0
  6
CONTINUOUS
 62
     7
100
AcDbLine
 10
267.7694156448
 20
825.7953267417
 30
0.0
 11
270.0734033863
 21
817.1967283812
 31
0.0
  0
LINE
  5
2AC
330
1F
100
AcDbEntity
  8
0
  6
CONTINUOUS
 62
     7
100
AcDbLine
 10
504.8662990014
 20
823.2695210714
 30
0.0
 11
504.8662990014
 21
814.7695210751
 31
0.0
  0
LINE
  5
2AD
330
1F
100
AcDbEntity
  8
0
  6
CONTINUOUS
 62
     7
100
AcDbLine
 10
504.8662990014
 20
814.7695210751
 30
0.0
 11
491.573405234
 21
814.7695210751
 31
0.0
  0
LINE
  5
2AE
330
1F
100
AcDbEntity
  8
0
  6
CONTINUOUS
 62
     7
100
AcDbLine
 10
309.0734079162
 20
814.7695210751
 30
0.0
 11
294.280511109
 21
814.7695210751
 31
0.0
  0
LINE
  5
2AF
330
1F
100
AcDbEntity
  8
0
  6
CONTINUOUS
 62
     7
100
AcDbLine
 10
300.5734055916
 20
815.719521324
 30
0.0
 11
301.1671200077
 21
815.769521239
 31
0.0
  0
LWPOLYLINE
  5
2B0
330
1F
100
AcDbEntity
  8
0
  6
CONTINUOUS
 62
     7
100
AcDbPolyline
 90
        3
 70
   128
 43
0.0
 10
297.0734059493
 20
819.8632380914
 10
297.0355271975
 20
819.5626779448
 10
297.0734059493
 20
818.6758036714
  0
LINE
  5
2B1
330
1F
100
AcDbEntity
  8
0
  6
CONTINUOUS
 62
     7
100
AcDbLine
 10
297.8470220844
 20
816.9959054318
 30
0.0
 11
298.2997864167
 21
816.5431364428
 31
0.0
  0
LINE
  5
2B2
330
1F
100
AcDbEntity
  8
0
  6
CONTINUOUS
 62
     7
100
AcDbLine
 10
299.9796911756
 20
815.769521239
 30
0.0
 11
300.5734055916
 21
815.719521324
 31
0.0
  0
LINE
  5
2B3
330
1F
100
AcDbEntity
  8
0
  6
CONTINUOUS
 62
     7
100
AcDbLine
 10
294.280511109
 20
823.2695210714
 30
0.0
 11
294.280511109
 21
814.7695210751
 31
0.0
  0
LWPOLYLINE
  5
2B4
330
1F
100
AcDbEntity
  8
0
  6
CONTINUOUS
 62
     7
100
AcDbPolyline
 90
        3
 70
   128
 43
0.0
 10
504.5636340658
 20
825.2445345966
 10
504.7355487625
 20
824.1660054296
 10
504.8662990014
 20
823.2695210714
  0
LWPOLYLINE
  5
2B5
330
1F
100
AcDbEntity
  8
0
  6
CONTINUOUS
 62
     7
100
AcDbPolyline
 90
        3
 70
   128
 43
0.0
 10
294.280511109
 20
823.2695210714
 10
294.4264530818
 20
824.2674418248
 10
294.5794433037
 20
825.2135486797
  0
LINE
  5
2B6
330
1F
100
AcDbEntity
  8
0
  6
CONTINUOUS
 62
     7
100
AcDbLine
 10
507.5734078566
 20
823.2695210714
 30
0.0
 11
505.5734038035
 21
823.2695210714
 31
0.0
  0
ARC
  5
2B7
330
1F
100
AcDbEntity
  8
0
  6
CONTINUOUS
 62
     7
100
AcDbCircle
 10
504.1954120986
 20
823.3310724827
 30
0.0
 40
1.379365692977819
100
AcDbArc
 50
357.442442178
 51
70.2415842258
  0
LWPOLYLINE
  5
2B8
330
1F
100
AcDbEntity
  8
0
  6
CONTINUOUS
 62
     7
100
AcDbPolyline
 90
        3
 70
   128
 43
0.0
 10
507.5734078566
 20
823.2695210714
 10
507.4281289855
 20
824.2674418248
 10
506.9321810881
 20
825.2695211664
  0
ARC
  5
2B9
330
1F
100
AcDbEntity
  8
0
  6
CONTINUOUS
 62
     7
100
AcDbCircle
 10
295.0365812912
 20
823.2816664048
 30
0.0
 40
1.463225390626044
100
AcDbArc
 50
112.0911971443
 51
180.4755824613
  0
LINE
  5
2BA
330
1F
100
AcDbEntity
  8
0
  6
CONTINUOUS
 62
     7
100
AcDbLine
 10
291.5734022538
 20
823.2695210714
 30
0.0
 11
293.5734063069
 21
823.2695210714
 31
0.0
  0
ARC
  5
2BB
330
1F
100
AcDbEntity
  8
0
  6
CONTINUOUS
 62
     7
100
AcDbCircle
 10
294.4393051338
 20
823.4610121411
 30
0.0
 40
2.872293186214173
100
AcDbArc
 50
140.9764751517
 51
183.8226508372
  0
LINE
  5
2BC
330
1F
100
AcDbEntity
  8
0
  6
CONTINUOUS
 62
     7
100
AcDbLine
 10
291.5734022538
 20
823.2695210714
 30
0.0
 11
291.5734022538
 21
814.7695210751
 31
0.0
  0
LINE
  5
2BD
330
1F
100
AcDbEntity
  8
0
  6
CONTINUOUS
 62
     7
100
AcDbLine
 10
293.5734063069
 20
823.2695210714
 30
0.0
 11
293.5734063069
 21
814.7695210751
 31
0.0
  0
LINE
  5
2BE
330
1F
100
AcDbEntity
  8
0
  6
CONTINUOUS
 62
     7
100
AcDbLine
 10
293.5734063069
 20
814.7695210751
 30
0.0
 11
291.5734022538
 21
814.7695210751
 31
0.0
  0
LINE
  5
2BF
330
1F
100
AcDbEntity
  8
0
  6
CONTINUOUS
 62
     7
100
AcDbLine
 10
505.5734038035
 20
814.7695210751
 30
0.0
 11
507.5734078566
 21
814.7695210751
 31
0.0
  0
LINE
  5
2C0
330
1F
100
AcDbEntity
  8
0
  6
CONTINUOUS
 62
     7
100
AcDbLine
 10
505.5734038035
 20
823.2695210714
 30
0.0
 11
505.5734038035
 21
814.7695210751
 31
0.0
  0
LINE
  5
2C1
330
1F
100
AcDbEntity
  8
0
  6
CONTINUOUS
 62
     7
100
AcDbLine
 10
507.5734078566
 20
823.2695210714
 30
0.0
 11
507.5734078566
 21
814.7695210751
 31
0.0
  0
LINE
  5
2C2
330
1F
100
AcDbEntity
  8
0
  6
CONTINUOUS
 62
     7
100
AcDbLine
 10
479.9234017412
 20
810.4695209291
 30
0.0
 11
492.2234013359
 21
810.4695209291
 31
0.0
  0
LINE
  5
2C3
330
1F
100
AcDbEntity
  8
0
  6
CONTINUOUS
 62
     7
100
AcDbLine
 10
479.9234017412
 20
811.1695216026
 30
0.0
 11
492.2234013359
 21
811.1695216026
 31
0.0
  0
LINE
  5
2C4
330
1F
100
AcDbEntity
  8
0
  6
CONTINUOUS
 62
     7
100
AcDbLine
 10
486.2084507624
 20
811.2695214328
 30
0.0
 11
486.2084507624
 21
813.2695208293
 31
0.0
  0
LINE
  5
2C5
330
1F
100
AcDbEntity
  8
0
  6
CONTINUOUS
 62
     7
100
AcDbLine
 10
479.5734032671
 20
811.2695214328
 30
0.0
 11
486.2084507624
 21
811.2695214328
 31
0.0
  0
LINE
  5
2C6
330
1F
100
AcDbEntity
  8
0
  6
CONTINUOUS
 62
     7
100
AcDbLine
 10
509.3064948598
 20
811.2695214328
 30
0.0
 11
509.3064948598
 21
813.2695208293
 31
0.0
  0
LINE
  5
2C7
330
1F
100
AcDbEntity
  8
0
  6
CONTINUOUS
 62
     7
100
AcDbLine
 10
491.573405234
 20
813.2695208293
 30
0.0
 11
506.0734048168
 21
813.2695208293
 31
0.0
  0
LINE
  5
2C8
330
1F
100
AcDbEntity
  8
0
  6
CONTINUOUS
 62
     7
100
AcDbLine
 10
486.2084507624
 20
811.2695214328
 30
0.0
 11
509.3064948598
 21
811.2695214328
 31
0.0
  0
LINE
  5
2C9
330
1F
100
AcDbEntity
  8
0
  6
CONTINUOUS
 62
     7
100
AcDbLine
 10
509.3064948598
 20
811.2695214328
 30
0.0
 11
510.0734054724
 21
811.2695214328
 31
0.0
  0
LINE
  5
2CA
330
1F
100
AcDbEntity
  8
0
  6
CONTINUOUS
 62
     7
100
AcDbLine
 10
492.6734015028
 20
830.0695211616
 30
0.0
 11
479.4734015743
 21
830.0695211616
 31
0.0
  0
LINE
  5
2CB
330
1F
100
AcDbEntity
  8
0
  6
CONTINUOUS
 62
     7
100
AcDbLine
 10
482.5734018961
 20
810.2695212689
 30
0.0
 11
489.5734086315
 21
810.2695212689
 31
0.0
  0
LINE
  5
2CC
330
1F
100
AcDbEntity
  8
0
  6
CONTINUOUS
 62
     7
100
AcDbLine
 10
482.5734018961
 20
809.2695211049
 30
0.0
 11
489.5734086315
 21
809.2695211049
 31
0.0
  0
LINE
  5
2CD
330
1F
100
AcDbEntity
  8
0
  6
CONTINUOUS
 62
     7
100
AcDbLine
 10
477.0734056512
 20
829.7695212055
 30
0.0
 11
495.0734048764
 21
829.7695212055
 31
0.0
  0
LINE
  5
2CE
330
1F
100
AcDbEntity
  8
0
  6
CONTINUOUS
 62
     7
100
AcDbLine
 10
478.4585132877
 20
827.7695212269
 30
0.0
 11
497.0734014789
 21
827.7695212269
 31
0.0
  0
LINE
  5
2CF
330
1F
100
AcDbEntity
  8
0
  6
CONTINUOUS
 62
     7
100
AcDbLine
 10
475.0734015981
 20
827.7695212269
 30
0.0
 11
478.4585132877
 21
827.7695212269
 31
0.0
  0
LINE
  5
2D0
330
1F
100
AcDbEntity
  8
0
  6
CONTINUOUS
 62
     8
100
AcDbLine
 10
530.607481269
 20
811.5283406329
 30
0.0
 11
530.5734023134
 21
811.5374703881
 31
0.0
  0
LINE
  5
2D1
330
1F
100
AcDbEntity
  8
0
  6
CONTINUOUS
 62
     8
100
AcDbLine
 10
270.0393244306
 20
811.5283406329
 30
0.0
 11
270.0734033863
 21
811.5374703881
 31
0.0
  0
LINE
  5
2D2
330
1F
100
AcDbEntity
  8
0
  6
CONTINUOUS
 62
     8
100
AcDbLine
 10
294.280511109
 20
823.2695210714
 30
0.0
 11
297.0734059493
 21
823.2695210714
 31
0.0
  0
LINE
  5
2D3
330
1F
100
AcDbEntity
  8
0
  6
CONTINUOUS
 62
     8
100
AcDbLine
 10
503.573407201
 20
823.2695210714
 30
0.0
 11
504.8662990014
 21
823.2695210714
 31
0.0
  0
LINE
  5
2D4
330
1F
100
AcDbEntity
  8
0
  6
CONTINUOUS
 62
     8
100
AcDbLine
 10
479.2234047929
 20
829.8195211206
 30
0.0
 11
492.9234057347
 21
829.8195211206
 31
0.0
  0
LINE
  5
2D5
330
1F
100
AcDbEntity
  8
0
  6
CONTINUOUS
 62
     8
100
AcDbLine
 10
493.0734082738
 20
813.7695209112
 30
0.0
 11
491.573405234
 21
813.7695209112
 31
0.0
  0
LINE
  5
2D6
330
1F
100
AcDbEntity
  8
0
  6
CONTINUOUS
 62
     7
100
AcDbLine
 10
492.2234013359
 20
86.9544873559
 30
0.0
 11
492.2234013359
 21
87.6544880295
 31
0.0
  0
LINE
  5
2D7
330
1F
100
AcDbEntity
  8
0
  6
CONTINUOUS
 62
     7
100
AcDbLine
 10
479.9234017412
 20
87.6544880295
 30
0.0
 11
479.9234017412
 21
86.9544873559
 31
0.0
  0
LINE
  5
2D8
330
1F
100
AcDbEntity
  8
0
  6
CONTINUOUS
 62
     7
100
AcDbLine
 10
510.0734054724
 20
84.8544881293
 30
0.0
 11
510.0734054724
 21
86.8544875258
 31
0.0
  0
LINE
  5
2D9
330
1F
100
AcDbEntity
  8
0
  6
CONTINUOUS
 62
     7
100
AcDbLine
 10
479.5734032671
 20
86.8544875258
 30
0.0
 11
479.5734032671
 21
84.8544881293
 31
0.0
  0
LINE
  5
2DA
330
1F
100
AcDbEntity
  8
0
  6
CONTINUOUS
 62
     7
100
AcDbLine
 10
479.2234047929
 20
68.354487753
 30
0.0
 11
479.2234047929
 21
68.304487838
 31
0.0
  0
LINE
  5
2DB
330
1F
100
AcDbEntity
  8
0
  6
CONTINUOUS
 62
     7
100
AcDbLine
 10
492.9234057347
 20
68.304487838
 30
0.0
 11
492.9234057347
 21
68.354487753
 31
0.0
  0
ARC
  5
2DC
330
1F
100
AcDbEntity
  8
0
  6
CONTINUOUS
 62
     7
100
AcDbCircle
 10
479.4734050552
 20
68.3044877791
 30
0.0
 40
0.25
100
AcDbArc
 50
180.0
 51
270.0
  0
ARC
  5
2DD
330
1F
100
AcDbEntity
  8
0
  6
CONTINUOUS
 62
     7
100
AcDbCircle
 10
492.6734050552
 20
68.3044877791
 30
0.0
 40
0.25
100
AcDbArc
 50
270.0
 51
0.0
  0
LINE
  5
2DE
330
1F
100
AcDbEntity
  8
0
  6
CONTINUOUS
 62
     7
100
AcDbLine
 10
489.5734086315
 20
87.8544876897
 30
0.0
 11
489.5734086315
 21
88.8544878536
 31
0.0
  0
LINE
  5
2DF
330
1F
100
AcDbEntity
  8
0
  6
CONTINUOUS
 62
     7
100
AcDbLine
 10
482.5734018961
 20
88.8544878536
 30
0.0
 11
482.5734018961
 21
87.8544876897
 31
0.0
  0
LINE
  5
2E0
330
1F
100
AcDbEntity
  8
0
  6
CONTINUOUS
 62
     7
100
AcDbLine
 10
489.0734076182
 20
86.8544875258
 30
0.0
 11
489.0734076182
 21
86.9544873559
 31
0.0
  0
LINE
  5
2E1
330
1F
100
AcDbEntity
  8
0
  6
CONTINUOUS
 62
     7
100
AcDbLine
 10
489.0734076182
 20
87.6544880295
 30
0.0
 11
489.0734076182
 21
87.8544876897
 31
0.0
  0
LINE
  5
2E2
330
1F
100
AcDbEntity
  8
0
  6
CONTINUOUS
 62
     7
100
AcDbLine
 10
483.0734029094
 20
87.8544876897
 30
0.0
 11
483.0734029094
 21
87.6544880295
 31
0.0
  0
LINE
  5
2E3
330
1F
100
AcDbEntity
  8
0
  6
CONTINUOUS
 62
     7
100
AcDbLine
 10
483.0734029094
 20
86.9544873559
 30
0.0
 11
483.0734029094
 21
86.8544875258
 31
0.0
  0
LINE
  5
2E4
330
1F
100
AcDbEntity
  8
0
  6
CONTINUOUS
 62
     7
100
AcDbLine
 10
497.0734014789
 20
70.3544877316
 30
0.0
 11
497.0734014789
 21
71.3544877791
 31
0.0
  0
LINE
  5
2E5
330
1F
100
AcDbEntity
  8
0
  6
CONTINUOUS
 62
     7
100
AcDbLine
 10
475.0734015981
 20
71.3544877791
 30
0.0
 11
475.0734015981
 21
70.3544877316
 31
0.0
  0
LINE
  5
2E6
330
1F
100
AcDbEntity
  8
0
  6
CONTINUOUS
 62
     7
100
AcDbLine
 10
475.0734015981
 20
70.3544877316
 30
0.0
 11
477.0734056512
 21
68.354487753
 31
0.0
  0
LINE
  5
2E7
330
1F
100
AcDbEntity
  8
0
  6
CONTINUOUS
 62
     7
100
AcDbLine
 10
495.0734048764
 20
68.354487753
 30
0.0
 11
497.0734014789
 21
70.3544877316
 31
0.0
  0
ARC
  5
2E8
330
1F
100
AcDbEntity
  8
0
  6
CONTINUOUS
 62
     7
100
AcDbCircle
 10
492.5734050552
 20
84.3544877791
 30
0.0
 40
0.5000000000000112
100
AcDbArc
 50
0.0
 51
90.0000121787
  0
ARC
  5
2E9
330
1F
100
AcDbEntity
  8
0
  6
CONTINUOUS
 62
     7
100
AcDbCircle
 10
479.5734050552
 20
84.3544877791
 30
0.0
 40
0.5000000000000112
100
AcDbArc
 50
89.9999878213
 51
180.0
  0
LINE
  5
2EA
330
1F
100
AcDbEntity
  8
0
  6
CONTINUOUS
 62
     7
100
AcDbLine
 10
493.0734082738
 20
83.3544878834
 30
0.0
 11
493.0734082738
 21
84.3544880473
 31
0.0
  0
LINE
  5
2EB
330
1F
100
AcDbEntity
  8
0
  6
CONTINUOUS
 62
     7
100
AcDbLine
 10
479.0734022538
 20
84.3544880473
 30
0.0
 11
479.0734022538
 21
83.3544878834
 31
0.0
  0
LINE
  5
2EC
330
1F
100
AcDbEntity
  8
0
  6
CONTINUOUS
 62
     7
100
AcDbLine
 10
312.0734065453
 20
84.8544881293
 30
0.0
 11
312.0734065453
 21
83.3544878834
 31
0.0
  0
LINE
  5
2ED
330
1F
100
AcDbEntity
  8
0
  6
CONTINUOUS
 62
     7
100
AcDbLine
 10
312.0734065453
 20
84.8544881293
 30
0.0
 11
479.5734032671
 21
84.8544881293
 31
0.0
  0
LINE
  5
2EE
330
1F
100
AcDbEntity
  8
0
  6
CONTINUOUS
 62
     7
100
AcDbLine
 10
309.0734079162
 20
83.3544878834
 30
0.0
 11
309.0734079162
 21
84.8544881293
 31
0.0
  0
LINE
  5
2EF
330
1F
100
AcDbEntity
  8
0
  6
CONTINUOUS
 62
     7
100
AcDbLine
 10
309.0734079162
 20
84.8544881293
 30
0.0
 11
312.0734065453
 21
84.8544881293
 31
0.0
  0
LINE
  5
2F0
330
1F
100
AcDbEntity
  8
0
  6
CONTINUOUS
 62
     7
100
AcDbLine
 10
293.5734063069
 20
72.8544877922
 30
0.0
 11
293.5734063069
 21
71.3544877791
 31
0.0
  0
LINE
  5
2F1
330
1F
100
AcDbEntity
  8
0
  6
CONTINUOUS
 62
     7
100
AcDbLine
 10
507.0734068433
 20
72.8544877922
 30
0.0
 11
293.5734063069
 21
72.8544877922
 31
0.0
  0
LINE
  5
2F2
330
1F
100
AcDbEntity
  8
0
  6
CONTINUOUS
 62
     7
100
AcDbLine
 10
507.0734068433
 20
72.8544877922
 30
0.0
 11
507.0734068433
 21
71.3544877791
 31
0.0
  0
LINE
  5
2F3
330
1F
100
AcDbEntity
  8
0
  6
CONTINUOUS
 62
     7
100
AcDbLine
 10
507.0734068433
 20
71.3544877791
 30
0.0
 11
293.5734063069
 21
71.3544877791
 31
0.0
  0
LINE
  5
2F4
330
1F
100
AcDbEntity
  8
0
  6
CONTINUOUS
 62
     7
100
AcDbLine
 10
512.7302601615
 20
72.8544877922
 30
0.0
 11
512.7302601615
 21
71.3544877791
 31
0.0
  0
LINE
  5
2F5
330
1F
100
AcDbEntity
  8
0
  6
CONTINUOUS
 62
     7
100
AcDbLine
 10
512.7302601615
 20
72.8544877922
 30
0.0
 11
507.0734068433
 21
72.8544877922
 31
0.0
  0
LINE
  5
2F6
330
1F
100
AcDbEntity
  8
0
  6
CONTINUOUS
 62
     7
100
AcDbLine
 10
512.7302601615
 20
71.3544877791
 30
0.0
 11
507.0734068433
 21
71.3544877791
 31
0.0
  0
LINE
  5
2F7
330
1F
100
AcDbEntity
  8
0
  6
CONTINUOUS
 62
     7
100
AcDbLine
 10
287.9165529887
 20
72.8544877922
 30
0.0
 11
287.9165529887
 21
71.3544877791
 31
0.0
  0
LINE
  5
2F8
330
1F
100
AcDbEntity
  8
0
  6
CONTINUOUS
 62
     7
100
AcDbLine
 10
293.5734063069
 20
72.8544877922
 30
0.0
 11
287.9165529887
 21
72.8544877922
 31
0.0
  0
LINE
  5
2F9
330
1F
100
AcDbEntity
  8
0
  6
CONTINUOUS
 62
     7
100
AcDbLine
 10
293.5734063069
 20
71.3544877791
 30
0.0
 11
287.9165529887
 21
71.3544877791
 31
0.0
  0
LINE
  5
2FA
330
1F
100
AcDbEntity
  8
0
  6
CONTINUOUS
 62
     7
100
AcDbLine
 10
528.2302543203
 20
72.8544877922
 30
0.0
 11
528.2302543203
 21
71.3544877791
 31
0.0
  0
LINE
  5
2FB
330
1F
100
AcDbEntity
  8
0
  6
CONTINUOUS
 62
     7
100
AcDbLine
 10
528.2302543203
 20
72.8544877922
 30
0.0
 11
512.7302601615
 21
72.8544877922
 31
0.0
  0
LINE
  5
2FC
330
1F
100
AcDbEntity
  8
0
  6
CONTINUOUS
 62
     7
100
AcDbLine
 10
528.2302543203
 20
71.3544877791
 30
0.0
 11
512.7302601615
 21
71.3544877791
 31
0.0
  0
LINE
  5
2FD
330
1F
100
AcDbEntity
  8
0
  6
CONTINUOUS
 62
     7
100
AcDbLine
 10
272.4165513793
 20
72.8544877922
 30
0.0
 11
272.4165513793
 21
71.3544877791
 31
0.0
  0
LINE
  5
2FE
330
1F
100
AcDbEntity
  8
0
  6
CONTINUOUS
 62
     7
100
AcDbLine
 10
287.9165529887
 20
72.8544877922
 30
0.0
 11
272.4165513793
 21
72.8544877922
 31
0.0
  0
LINE
  5
2FF
330
1F
100
AcDbEntity
  8
0
  6
CONTINUOUS
 62
     7
100
AcDbLine
 10
287.9165529887
 20
71.3544877791
 30
0.0
 11
272.4165513793
 21
71.3544877791
 31
0.0
  0
LINE
  5
300
330
1F
100
AcDbEntity
  8
0
  6
CONTINUOUS
 62
     7
100
AcDbLine
 10
297.0734059493
 20
73.8544877232
 30
0.0
 11
297.0734059493
 21
72.8544877922
 31
0.0
  0
LINE
  5
301
330
1F
100
AcDbEntity
  8
0
  6
CONTINUOUS
 62
     7
100
AcDbLine
 10
503.573407201
 20
73.8544877232
 30
0.0
 11
297.0734059493
 21
73.8544877232
 31
0.0
  0
LINE
  5
302
330
1F
100
AcDbEntity
  8
0
  6
CONTINUOUS
 62
     7
100
AcDbLine
 10
503.573407201
 20
72.8544877922
 30
0.0
 11
503.573407201
 21
73.8544877232
 31
0.0
  0
LINE
  5
303
330
1F
100
AcDbEntity
  8
0
  6
CONTINUOUS
 62
     7
100
AcDbLine
 10
530.5734023134
 20
72.8544877922
 30
0.0
 11
530.5734023134
 21
71.3544877791
 31
0.0
  0
LINE
  5
304
330
1F
100
AcDbEntity
  8
0
  6
CONTINUOUS
 62
     7
100
AcDbLine
 10
530.5734023134
 20
72.8544877922
 30
0.0
 11
528.2302543203
 21
72.8544877922
 31
0.0
  0
LINE
  5
305
330
1F
100
AcDbEntity
  8
0
  6
CONTINUOUS
 62
     7
100
AcDbLine
 10
530.5734023134
 20
71.3544877791
 30
0.0
 11
528.2302543203
 21
71.3544877791
 31
0.0
  0
LINE
  5
306
330
1F
100
AcDbEntity
  8
0
  6
CONTINUOUS
 62
     7
100
AcDbLine
 10
270.0734033863
 20
72.8544877922
 30
0.0
 11
270.0734033863
 21
71.3544877791
 31
0.0
  0
LINE
  5
307
330
1F
100
AcDbEntity
  8
0
  6
CONTINUOUS
 62
     7
100
AcDbLine
 10
272.4165513793
 20
72.8544877922
 30
0.0
 11
270.0734033863
 21
72.8544877922
 31
0.0
  0
LINE
  5
308
330
1F
100
AcDbEntity
  8
0
  6
CONTINUOUS
 62
     7
100
AcDbLine
 10
272.4165513793
 20
71.3544877791
 30
0.0
 11
270.0734033863
 21
71.3544877791
 31
0.0
  0
LINE
  5
309
330
1F
100
AcDbEntity
  8
0
  6
CONTINUOUS
 62
     7
100
AcDbLine
 10
297.0734059493
 20
73.8544877232
 30
0.0
 11
297.0734059493
 21
80.3544873917
 31
0.0
  0
LINE
  5
30A
330
1F
100
AcDbEntity
  8
0
  6
CONTINUOUS
 62
     7
100
AcDbLine
 10
299.0734025518
 20
82.3544877195
 30
0.0
 11
297.0734059493
 21
80.3544873917
 31
0.0
  0
LINE
  5
30B
330
1F
100
AcDbEntity
  8
0
  6
CONTINUOUS
 62
     7
100
AcDbLine
 10
299.0734025518
 20
82.3544877195
 30
0.0
 11
501.5734031478
 21
82.3544877195
 31
0.0
  0
LINE
  5
30C
330
1F
100
AcDbEntity
  8
0
  6
CONTINUOUS
 62
     7
100
AcDbLine
 10
503.573407201
 20
80.3544873917
 30
0.0
 11
501.5734031478
 21
82.3544877195
 31
0.0
  0
LINE
  5
30D
330
1F
100
AcDbEntity
  8
0
  6
CONTINUOUS
 62
     7
100
AcDbLine
 10
503.573407201
 20
80.3544873917
 30
0.0
 11
503.573407201
 21
73.8544877232
 31
0.0
  0
CIRCLE
  5
30E
330
1F
100
AcDbEntity
  8
0
  6
CONTINUOUS
 62
     7
100
AcDbCircle
 10
300.5734050552
 20
78.8544877791
 30
0.0
 40
2.699999999999989
  0
LINE
  5
30F
330
1F
100
AcDbEntity
  8
0
  6
CONTINUOUS
 62
     7
100
AcDbLine
 10
511.073407499
 20
82.3544877195
 30
0.0
 11
512.5734030882
 21
82.3544877195
 31
0.0
  0
LINE
  5
310
330
1F
100
AcDbEntity
  8
0
  6
CONTINUOUS
 62
     7
100
AcDbLine
 10
512.5734030882
 20
80.3544873917
 30
0.0
 11
511.073407499
 21
80.3544873917
 31
0.0
  0
LINE
  5
311
330
1F
100
AcDbEntity
  8
0
  6
CONTINUOUS
 62
     7
100
AcDbLine
 10
511.073407499
 20
80.3544873917
 30
0.0
 11
511.073407499
 21
82.3544877195
 31
0.0
  0
LINE
  5
312
330
1F
100
AcDbEntity
  8
0
  6
CONTINUOUS
 62
     7
100
AcDbLine
 10
512.5734030882
 20
82.3544877195
 30
0.0
 11
512.5734030882
 21
80.3544873917
 31
0.0
  0
LINE
  5
313
330
1F
100
AcDbEntity
  8
0
  6
CONTINUOUS
 62
     7
100
AcDbLine
 10
512.5734030882
 20
73.8544877232
 30
0.0
 11
511.073407499
 21
73.8544877232
 31
0.0
  0
LINE
  5
314
330
1F
100
AcDbEntity
  8
0
  6
CONTINUOUS
 62
     7
100
AcDbLine
 10
511.073407499
 20
73.8544877232
 30
0.0
 11
511.073407499
 21
80.3544873917
 31
0.0
  0
LINE
  5
315
330
1F
100
AcDbEntity
  8
0
  6
CONTINUOUS
 62
     7
100
AcDbLine
 10
512.5734030882
 20
73.8544877232
 30
0.0
 11
512.5734030882
 21
80.3544873917
 31
0.0
  0
ARC
  5
316
330
1F
100
AcDbEntity
  8
0
  6
CONTINUOUS
 62
     7
100
AcDbCircle
 10
513.5734050552
 20
73.8544877791
 30
0.0
 40
1.0
100
AcDbArc
 50
180.0
 51
270.0
  0
ARC
  5
317
330
1F
100
AcDbEntity
  8
0
  6
CONTINUOUS
 62
     7
100
AcDbCircle
 10
513.5734050552
 20
73.8544877791
 30
0.0
 40
2.5
100
AcDbArc
 50
180.0
 51
203.5781784782
  0
LINE
  5
318
330
1F
100
AcDbEntity
  8
0
  6
CONTINUOUS
 62
     7
100
AcDbLine
 10
510.0734054724
 20
83.3544878834
 30
0.0
 11
510.0734054724
 21
84.8544881293
 31
0.0
  0
ARC
  5
319
330
1F
100
AcDbEntity
  8
0
  6
CONTINUOUS
 62
     7
100
AcDbCircle
 10
510.0734050552
 20
82.3544877791
 30
0.0
 40
2.500000000000057
100
AcDbArc
 50
0.0
 51
90.0
  0
ARC
  5
31A
330
1F
100
AcDbEntity
  8
0
  6
CONTINUOUS
 62
     7
100
AcDbCircle
 10
510.0734050552
 20
82.3544877791
 30
0.0
 40
1.000000000000057
100
AcDbArc
 50
0.0
 51
90.0
  0
LINE
  5
31B
330
1F
100
AcDbEntity
  8
0
  6
CONTINUOUS
 62
     7
100
AcDbLine
 10
509.0734034459
 20
84.8544881293
 30
0.0
 11
509.0734034459
 21
83.3544878834
 31
0.0
  0
LINE
  5
31C
330
1F
100
AcDbEntity
  8
0
  6
CONTINUOUS
 62
     7
100
AcDbLine
 10
509.0734034459
 20
83.3544878834
 30
0.0
 11
510.0734054724
 21
83.3544878834
 31
0.0
  0
LINE
  5
31D
330
1F
100
AcDbEntity
  8
0
  6
CONTINUOUS
 62
     7
100
AcDbLine
 10
509.0734034459
 20
84.8544881293
 30
0.0
 11
510.0734054724
 21
84.8544881293
 31
0.0
  0
LINE
  5
31E
330
1F
100
AcDbEntity
  8
0
  6
CONTINUOUS
 62
     7
100
AcDbLine
 10
506.0734048168
 20
83.3544878834
 30
0.0
 11
506.0734048168
 21
84.8544881293
 31
0.0
  0
LINE
  5
31F
330
1F
100
AcDbEntity
  8
0
  6
CONTINUOUS
 62
     7
100
AcDbLine
 10
509.0734034459
 20
83.3544878834
 30
0.0
 11
507.5734078566
 21
83.3544878834
 31
0.0
  0
LINE
  5
320
330
1F
100
AcDbEntity
  8
0
  6
CONTINUOUS
 62
     7
100
AcDbLine
 10
506.0734048168
 20
84.8544881293
 30
0.0
 11
509.0734034459
 21
84.8544881293
 31
0.0
  0
ARC
  5
321
330
1F
100
AcDbEntity
  8
0
  6
CONTINUOUS
 62
     7
100
AcDbCircle
 10
528.0734050552
 20
73.8544877791
 30
0.0
 40
0.9999999999999858
100
AcDbArc
 50
270.0
 51
0.0
  0
LINE
  5
322
330
1F
100
AcDbEntity
  8
0
  6
CONTINUOUS
 62
     7
100
AcDbLine
 10
529.0734067241
 20
73.8544877232
 30
0.0
 11
530.5734023134
 21
73.8544877232
 31
0.0
  0
ARC
  5
323
330
1F
100
AcDbEntity
  8
0
  6
CONTINUOUS
 62
     7
100
AcDbCircle
 10
528.0734050552
 20
73.8544877791
 30
0.0
 40
2.499999999999999
100
AcDbArc
 50
336.4218215218
 51
0.0
  0
LINE
  5
324
330
1F
100
AcDbEntity
  8
0
  6
CONTINUOUS
 62
     7
100
AcDbLine
 10
530.5734023134
 20
87.8544876897
 30
0.0
 11
529.0734067241
 21
87.8544876897
 31
0.0
  0
LINE
  5
325
330
1F
100
AcDbEntity
  8
0
  6
CONTINUOUS
 62
     7
100
AcDbLine
 10
529.0734067241
 20
87.8544876897
 30
0.0
 11
529.0734067241
 21
73.8544877232
 31
0.0
  0
LINE
  5
326
330
1F
100
AcDbEntity
  8
0
  6
CONTINUOUS
 62
     7
100
AcDbLine
 10
530.5734023134
 20
87.8544876897
 30
0.0
 11
530.5734023134
 21
73.8544877232
 31
0.0
  0
LINE
  5
327
330
1F
100
AcDbEntity
  8
0
  6
CONTINUOUS
 62
     7
100
AcDbLine
 10
529.0734067241
 20
89.8544880175
 30
0.0
 11
530.5734023134
 21
89.8544880175
 31
0.0
  0
LINE
  5
328
330
1F
100
AcDbEntity
  8
0
  6
CONTINUOUS
 62
     7
100
AcDbLine
 10
529.0734067241
 20
87.8544876897
 30
0.0
 11
529.0734067241
 21
89.8544880175
 31
0.0
  0
LINE
  5
329
330
1F
100
AcDbEntity
  8
0
  6
CONTINUOUS
 62
     7
100
AcDbLine
 10
530.5734023134
 20
89.8544880175
 30
0.0
 11
530.5734023134
 21
87.8544876897
 31
0.0
  0
ARC
  5
32A
330
1F
100
AcDbEntity
  8
0
  6
CONTINUOUS
 62
     7
100
AcDbCircle
 10
531.5734050552
 20
86.8544877791
 30
0.0
 40
1.000000000000023
100
AcDbArc
 50
180.0
 51
195.0
  0
LINE
  5
32B
330
1F
100
AcDbEntity
  8
0
  6
CONTINUOUS
 62
     7
100
AcDbLine
 10
534.3262746612
 20
72.7169108424
 30
0.0
 11
530.607481269
 21
86.5956683257
 31
0.0
  0
LINE
  5
32C
330
1F
100
AcDbEntity
  8
0
  6
CONTINUOUS
 62
     7
100
AcDbLine
 10
532.8773900548
 20
72.3286822169
 30
0.0
 11
534.3262746612
 21
72.7169108424
 31
0.0
  0
LINE
  5
32D
330
1F
100
AcDbEntity
  8
0
  6
CONTINUOUS
 62
     7
100
AcDbLine
 10
532.8773900548
 20
72.3286822169
 30
0.0
 11
530.5734023134
 21
80.9272805774
 31
0.0
  0
LINE
  5
32E
330
1F
100
AcDbEntity
  8
0
  6
CONTINUOUS
 62
     7
100
AcDbLine
 10
289.5734056512
 20
80.3544873917
 30
0.0
 11
288.0734026114
 21
80.3544873917
 31
0.0
  0
LINE
  5
32F
330
1F
100
AcDbEntity
  8
0
  6
CONTINUOUS
 62
     7
100
AcDbLine
 10
288.0734026114
 20
82.3544877195
 30
0.0
 11
289.5734056512
 21
82.3544877195
 31
0.0
  0
LINE
  5
330
330
1F
100
AcDbEntity
  8
0
  6
CONTINUOUS
 62
     7
100
AcDbLine
 10
289.5734056512
 20
82.3544877195
 30
0.0
 11
289.5734056512
 21
80.3544873917
 31
0.0
  0
LINE
  5
331
330
1F
100
AcDbEntity
  8
0
  6
CONTINUOUS
 62
     7
100
AcDbLine
 10
288.0734026114
 20
80.3544873917
 30
0.0
 11
288.0734026114
 21
82.3544877195
 31
0.0
  0
LINE
  5
332
330
1F
100
AcDbEntity
  8
0
  6
CONTINUOUS
 62
     7
100
AcDbLine
 10
288.0734026114
 20
73.8544877232
 30
0.0
 11
289.5734056512
 21
73.8544877232
 31
0.0
  0
LINE
  5
333
330
1F
100
AcDbEntity
  8
0
  6
CONTINUOUS
 62
     7
100
AcDbLine
 10
289.5734056512
 20
80.3544873917
 30
0.0
 11
289.5734056512
 21
73.8544877232
 31
0.0
  0
LINE
  5
334
330
1F
100
AcDbEntity
  8
0
  6
CONTINUOUS
 62
     7
100
AcDbLine
 10
288.0734026114
 20
80.3544873917
 30
0.0
 11
288.0734026114
 21
73.8544877232
 31
0.0
  0
ARC
  5
335
330
1F
100
AcDbEntity
  8
0
  6
CONTINUOUS
 62
     7
100
AcDbCircle
 10
287.0734050552
 20
73.8544877791
 30
0.0
 40
2.499999999999998
100
AcDbArc
 50
336.4218215218
 51
0.0
  0
ARC
  5
336
330
1F
100
AcDbEntity
  8
0
  6
CONTINUOUS
 62
     7
100
AcDbCircle
 10
287.0734050552
 20
73.8544877791
 30
0.0
 40
1.0
100
AcDbArc
 50
270.0
 51
0.0
  0
ARC
  5
337
330
1F
100
AcDbEntity
  8
0
  6
CONTINUOUS
 62
     7
100
AcDbCircle
 10
272.5734050552
 20
73.8544877791
 30
0.0
 40
2.5
100
AcDbArc
 50
180.0
 51
203.5781784782
  0
LINE
  5
338
330
1F
100
AcDbEntity
  8
0
  6
CONTINUOUS
 62
     7
100
AcDbLine
 10
271.5733989755
 20
73.8544877232
 30
0.0
 11
270.0734033863
 21
73.8544877232
 31
0.0
  0
ARC
  5
339
330
1F
100
AcDbEntity
  8
0
  6
CONTINUOUS
 62
     7
100
AcDbCircle
 10
272.5734050552
 20
73.8544877791
 30
0.0
 40
1.0
100
AcDbArc
 50
180.0
 51
270.0
  0
LINE
  5
33A
330
1F
100
AcDbEntity
  8
0
  6
CONTINUOUS
 62
     7
100
AcDbLine
 10
270.0734033863
 20
89.8544880175
 30
0.0
 11
271.5733989755
 21
89.8544880175
 31
0.0
  0
LINE
  5
33B
330
1F
100
AcDbEntity
  8
0
  6
CONTINUOUS
 62
     7
100
AcDbLine
 10
271.5733989755
 20
87.8544876897
 30
0.0
 11
270.0734033863
 21
87.8544876897
 31
0.0
  0
LINE
  5
33C
330
1F
100
AcDbEntity
  8
0
  6
CONTINUOUS
 62
     7
100
AcDbLine
 10
270.0734033863
 20
87.8544876897
 30
0.0
 11
270.0734033863
 21
89.8544880175
 31
0.0
  0
LINE
  5
33D
330
1F
100
AcDbEntity
  8
0
  6
CONTINUOUS
 62
     7
100
AcDbLine
 10
271.5733989755
 20
89.8544880175
 30
0.0
 11
271.5733989755
 21
87.8544876897
 31
0.0
  0
LINE
  5
33E
330
1F
100
AcDbEntity
  8
0
  6
CONTINUOUS
 62
     7
100
AcDbLine
 10
270.0734033863
 20
87.8544876897
 30
0.0
 11
270.0734033863
 21
73.8544877232
 31
0.0
  0
LINE
  5
33F
330
1F
100
AcDbEntity
  8
0
  6
CONTINUOUS
 62
     7
100
AcDbLine
 10
271.5733989755
 20
87.8544876897
 30
0.0
 11
271.5733989755
 21
73.8544877232
 31
0.0
  0
ARC
  5
340
330
1F
100
AcDbEntity
  8
0
  6
CONTINUOUS
 62
     7
100
AcDbCircle
 10
269.0734050552
 20
86.8544877791
 30
0.0
 40
1.000000000000057
100
AcDbArc
 50
345.0
 51
0.0
  0
LINE
  5
341
330
1F
100
AcDbEntity
  8
0
  6
CONTINUOUS
 62
     7
100
AcDbLine
 10
267.7694156448
 20
72.3286822169
 30
0.0
 11
266.3205310384
 21
72.7169108424
 31
0.0
  0
LINE
  5
342
330
1F
100
AcDbEntity
  8
0
  6
CONTINUOUS
 62
     7
100
AcDbLine
 10
266.3205310384
 20
72.7169108424
 30
0.0
 11
270.0393244306
 21
86.5956683257
 31
0.0
  0
LINE
  5
343
330
1F
100
AcDbEntity
  8
0
  6
CONTINUOUS
 62
     7
100
AcDbLine
 10
267.7694156448
 20
72.3286822169
 30
0.0
 11
270.0734033863
 21
80.9272805774
 31
0.0
  0
LINE
  5
344
330
1F
100
AcDbEntity
  8
0
  6
CONTINUOUS
 62
     7
100
AcDbLine
 10
294.280511109
 20
83.3544878834
 30
0.0
 11
294.280511109
 21
74.8544878872
 31
0.0
  0
LINE
  5
345
330
1F
100
AcDbEntity
  8
0
  6
CONTINUOUS
 62
     7
100
AcDbLine
 10
294.280511109
 20
83.3544878834
 30
0.0
 11
504.8662990014
 21
83.3544878834
 31
0.0
  0
LINE
  5
346
330
1F
100
AcDbEntity
  8
0
  6
CONTINUOUS
 62
     7
100
AcDbLine
 10
504.8662990014
 20
83.3544878834
 30
0.0
 11
504.8662990014
 21
74.8544878872
 31
0.0
  0
LINE
  5
347
330
1F
100
AcDbEntity
  8
0
  6
CONTINUOUS
 62
     7
100
AcDbLine
 10
300.5734055916
 20
82.4044876346
 30
0.0
 11
301.1671200077
 21
82.3544877195
 31
0.0
  0
LWPOLYLINE
  5
348
330
1F
100
AcDbEntity
  8
0
  6
CONTINUOUS
 62
     7
100
AcDbPolyline
 90
        3
 70
   128
 43
0.0
 10
297.0734059493
 20
78.2607708672
 10
297.0355271975
 20
78.5613310137
 10
297.0734059493
 20
79.4482052871
  0
LINE
  5
349
330
1F
100
AcDbEntity
  8
0
  6
CONTINUOUS
 62
     7
100
AcDbLine
 10
297.8470220844
 20
81.1281035268
 30
0.0
 11
298.2997864167
 21
81.5808725157
 31
0.0
  0
LINE
  5
34A
330
1F
100
AcDbEntity
  8
0
  6
CONTINUOUS
 62
     7
100
AcDbLine
 10
299.9796911756
 20
82.3544877195
 30
0.0
 11
300.5734055916
 21
82.4044876346
 31
0.0
  0
LWPOLYLINE
  5
34B
330
1F
100
AcDbEntity
  8
0
  6
CONTINUOUS
 62
     7
100
AcDbPolyline
 90
        3
 70
   128
 43
0.0
 10
504.8662990014
 20
74.8544878872
 10
504.7203570286
 20
73.8565671337
 10
504.5485242883
 20
72.7939111959
  0
ARC
  5
34C
330
1F
100
AcDbEntity
  8
0
  6
CONTINUOUS
 62
     7
100
AcDbCircle
 10
339.2917814929
 20
80.7642186689
 30
0.0
 40
45.39757019355595
100
AcDbArc
 50
187.4798349523
 51
190.0551117863
  0
ARC
  5
34D
330
1F
100
AcDbEntity
  8
0
  6
CONTINUOUS
 62
     7
100
AcDbCircle
 10
504.7075049766
 20
74.6629968175
 30
0.0
 40
2.87229318620844
100
AcDbArc
 50
320.9764751517
 51
3.8226508373
  0
ARC
  5
34E
330
1F
100
AcDbEntity
  8
0
  6
CONTINUOUS
 62
     7
100
AcDbCircle
 10
504.1102288192
 20
74.8423425538
 30
0.0
 40
1.463225390626056
100
AcDbArc
 50
292.0911971444
 51
0.4755824613
  0
LINE
  5
34F
330
1F
100
AcDbEntity
  8
0
  6
CONTINUOUS
 62
     7
100
AcDbLine
 10
507.5734078566
 20
74.8544878872
 30
0.0
 11
505.5734038035
 21
74.8544878872
 31
0.0
  0
LINE
  5
350
330
1F
100
AcDbEntity
  8
0
  6
CONTINUOUS
 62
     7
100
AcDbLine
 10
291.5734022538
 20
74.8544878872
 30
0.0
 11
293.5734063069
 21
74.8544878872
 31
0.0
  0
ARC
  5
351
330
1F
100
AcDbEntity
  8
0
  6
CONTINUOUS
 62
     7
100
AcDbCircle
 10
294.9513980118
 20
74.7929364759
 30
0.0
 40
1.379365692977205
100
AcDbArc
 50
177.442442178
 51
250.2415842258
  0
LWPOLYLINE
  5
352
330
1F
100
AcDbEntity
  8
0
  6
CONTINUOUS
 62
     7
100
AcDbPolyline
 90
        3
 70
   128
 43
0.0
 10
291.5734022538
 20
74.8544878872
 10
291.7186811248
 20
73.8565671337
 10
292.2146290223
 20
72.8544877922
  0
LINE
  5
353
330
1F
100
AcDbEntity
  8
0
  6
CONTINUOUS
 62
     7
100
AcDbLine
 10
505.5734038035
 20
74.8544878872
 30
0.0
 11
505.5734038035
 21
83.3544878834
 31
0.0
  0
LINE
  5
354
330
1F
100
AcDbEntity
  8
0
  6
CONTINUOUS
 62
     7
100
AcDbLine
 10
507.5734078566
 20
74.8544878872
 30
0.0
 11
507.5734078566
 21
83.3544878834
 31
0.0
  0
LINE
  5
355
330
1F
100
AcDbEntity
  8
0
  6
CONTINUOUS
 62
     7
100
AcDbLine
 10
505.5734038035
 20
83.3544878834
 30
0.0
 11
507.5734078566
 21
83.3544878834
 31
0.0
  0
LINE
  5
356
330
1F
100
AcDbEntity
  8
0
  6
CONTINUOUS
 62
     7
100
AcDbLine
 10
291.5734022538
 20
74.8544878872
 30
0.0
 11
291.5734022538
 21
83.3544878834
 31
0.0
  0
LINE
  5
357
330
1F
100
AcDbEntity
  8
0
  6
CONTINUOUS
 62
     7
100
AcDbLine
 10
293.5734063069
 20
83.3544878834
 30
0.0
 11
291.5734022538
 21
83.3544878834
 31
0.0
  0
LINE
  5
358
330
1F
100
AcDbEntity
  8
0
  6
CONTINUOUS
 62
     7
100
AcDbLine
 10
293.5734063069
 20
74.8544878872
 30
0.0
 11
293.5734063069
 21
83.3544878834
 31
0.0
  0
LINE
  5
359
330
1F
100
AcDbEntity
  8
0
  6
CONTINUOUS
 62
     7
100
AcDbLine
 10
480.6215956489
 20
87.6544880295
 30
0.0
 11
479.9234017412
 21
87.6544880295
 31
0.0
  0
LINE
  5
35A
330
1F
100
AcDbEntity
  8
0
  6
CONTINUOUS
 62
     7
100
AcDbLine
 10
492.2234013359
 20
87.6544880295
 30
0.0
 11
491.4022653977
 21
87.6544880295
 31
0.0
  0
LINE
  5
35B
330
1F
100
AcDbEntity
  8
0
  6
CONTINUOUS
 62
     7
100
AcDbLine
 10
480.6215956489
 20
87.6544880295
 30
0.0
 11
480.6215956489
 21
86.9544873559
 31
0.0
  0
LINE
  5
35C
330
1F
100
AcDbEntity
  8
0
  6
CONTINUOUS
 62
     7
100
AcDbLine
 10
480.6215956489
 20
86.9544873559
 30
0.0
 11
479.9234017412
 21
86.9544873559
 31
0.0
  0
LINE
  5
35D
330
1F
100
AcDbEntity
  8
0
  6
CONTINUOUS
 62
     7
100
AcDbLine
 10
492.2234013359
 20
86.9544873559
 30
0.0
 11
491.4022653977
 21
86.9544873559
 31
0.0
  0
LINE
  5
35E
330
1F
100
AcDbEntity
  8
0
  6
CONTINUOUS
 62
     7
100
AcDbLine
 10
491.4022653977
 20
87.6544880295
 30
0.0
 11
491.4022653977
 21
86.9544873559
 31
0.0
  0
LINE
  5
35F
330
1F
100
AcDbEntity
  8
0
  6
CONTINUOUS
 62
     7
100
AcDbLine
 10
488.6728495041
 20
87.6544880295
 30
0.0
 11
488.6728495041
 21
86.9544873559
 31
0.0
  0
LINE
  5
360
330
1F
100
AcDbEntity
  8
0
  6
CONTINUOUS
 62
     7
100
AcDbLine
 10
491.4022653977
 20
86.9544873559
 30
0.0
 11
488.6728495041
 21
86.9544873559
 31
0.0
  0
LINE
  5
361
330
1F
100
AcDbEntity
  8
0
  6
CONTINUOUS
 62
     7
100
AcDbLine
 10
491.4022653977
 20
87.6544880295
 30
0.0
 11
488.6728495041
 21
87.6544880295
 31
0.0
  0
LINE
  5
362
330
1F
100
AcDbEntity
  8
0
  6
CONTINUOUS
 62
     7
100
AcDbLine
 10
483.4139838497
 20
87.6544880295
 30
0.0
 11
483.4139838497
 21
86.9544873559
 31
0.0
  0
LINE
  5
363
330
1F
100
AcDbEntity
  8
0
  6
CONTINUOUS
 62
     7
100
AcDbLine
 10
483.4139838497
 20
86.9544873559
 30
0.0
 11
480.6215956489
 21
86.9544873559
 31
0.0
  0
LINE
  5
364
330
1F
100
AcDbEntity
  8
0
  6
CONTINUOUS
 62
     7
100
AcDbLine
 10
483.4139838497
 20
87.6544880295
 30
0.0
 11
480.6215956489
 21
87.6544880295
 31
0.0
  0
LINE
  5
365
330
1F
100
AcDbEntity
  8
0
  6
CONTINUOUS
 62
     7
100
AcDbLine
 10
510.0734054724
 20
86.8544875258
 30
0.0
 11
509.036396412
 21
86.8544875258
 31
0.0
  0
LINE
  5
366
330
1F
100
AcDbEntity
  8
0
  6
CONTINUOUS
 62
     7
100
AcDbLine
 10
509.036396412
 20
86.8544875258
 30
0.0
 11
509.036396412
 21
84.8544881293
 31
0.0
  0
LINE
  5
367
330
1F
100
AcDbEntity
  8
0
  6
CONTINUOUS
 62
     7
100
AcDbLine
 10
485.9383597652
 20
86.8544875258
 30
0.0
 11
485.9383597652
 21
84.8544881293
 31
0.0
  0
LINE
  5
368
330
1F
100
AcDbEntity
  8
0
  6
CONTINUOUS
 62
     7
100
AcDbLine
 10
506.0734048168
 20
84.8544881293
 30
0.0
 11
485.9383597652
 21
84.8544881293
 31
0.0
  0
LINE
  5
369
330
1F
100
AcDbEntity
  8
0
  6
CONTINUOUS
 62
     7
100
AcDbLine
 10
509.036396412
 20
86.8544875258
 30
0.0
 11
485.9383597652
 21
86.8544875258
 31
0.0
  0
LINE
  5
36A
330
1F
100
AcDbEntity
  8
0
  6
CONTINUOUS
 62
     7
100
AcDbLine
 10
485.9383597652
 20
84.8544881293
 30
0.0
 11
479.5734032671
 21
84.8544881293
 31
0.0
  0
LINE
  5
36B
330
1F
100
AcDbEntity
  8
0
  6
CONTINUOUS
 62
     7
100
AcDbLine
 10
485.9383597652
 20
86.8544875258
 30
0.0
 11
479.5734032671
 21
86.8544875258
 31
0.0
  0
LINE
  5
36C
330
1F
100
AcDbEntity
  8
0
  6
CONTINUOUS
 62
     7
100
AcDbLine
 10
492.6719784419
 20
68.054487797
 30
0.0
 11
492.6734015028
 21
68.054487797
 31
0.0
  0
LINE
  5
36D
330
1F
100
AcDbEntity
  8
0
  6
CONTINUOUS
 62
     7
100
AcDbLine
 10
479.4734015743
 20
68.054487797
 30
0.0
 11
492.6719784419
 21
68.054487797
 31
0.0
  0
LINE
  5
36E
330
1F
100
AcDbEntity
  8
0
  6
CONTINUOUS
 62
     7
100
AcDbLine
 10
489.5734086315
 20
87.8544876897
 30
0.0
 11
482.5734018961
 21
87.8544876897
 31
0.0
  0
LINE
  5
36F
330
1F
100
AcDbEntity
  8
0
  6
CONTINUOUS
 62
     7
100
AcDbLine
 10
489.5734086315
 20
88.8544878536
 30
0.0
 11
482.5734018961
 21
88.8544878536
 31
0.0
  0
LINE
  5
370
330
1F
100
AcDbEntity
  8
0
  6
CONTINUOUS
 62
     7
100
AcDbLine
 10
497.0734014789
 20
70.3544877316
 30
0.0
 11
475.0734015981
 21
70.3544877316
 31
0.0
  0
LINE
  5
371
330
1F
100
AcDbEntity
  8
0
  6
CONTINUOUS
 62
     7
100
AcDbLine
 10
492.3037707488
 20
68.354487753
 30
0.0
 11
477.0734056512
 21
68.354487753
 31
0.0
  0
LINE
  5
372
330
1F
100
AcDbEntity
  8
0
  6
CONTINUOUS
 62
     7
100
AcDbLine
 10
495.0734048764
 20
68.354487753
 30
0.0
 11
492.3037707488
 21
68.354487753
 31
0.0
  0
LINE
  5
373
330
1F
100
AcDbEntity
  8
0
  6
CONTINUOUS
 62
     8
100
AcDbLine
 10
530.607481269
 20
86.5956683257
 30
0.0
 11
530.5734023134
 21
86.5865385705
 31
0.0
  0
LINE
  5
374
330
1F
100
AcDbEntity
  8
0
  6
CONTINUOUS
 62
     8
100
AcDbLine
 10
270.0393244306
 20
86.5956683257
 30
0.0
 11
270.0734033863
 21
86.5865385705
 31
0.0
  0
LINE
  5
375
330
1F
100
AcDbEntity
  8
0
  6
CONTINUOUS
 62
     8
100
AcDbLine
 10
294.280511109
 20
74.8544878872
 30
0.0
 11
297.0734059493
 21
74.8544878872
 31
0.0
  0
LINE
  5
376
330
1F
100
AcDbEntity
  8
0
  6
CONTINUOUS
 62
     8
100
AcDbLine
 10
503.573407201
 20
74.8544878872
 30
0.0
 11
504.8662990014
 21
74.8544878872
 31
0.0
  0
LINE
  5
377
330
1F
100
AcDbEntity
  8
0
  6
CONTINUOUS
 62
     8
100
AcDbLine
 10
492.9234057347
 20
68.304487838
 30
0.0
 11
479.2234047929
 21
68.304487838
 31
0.0
  0
LINE
  5
378
330
1F
100
AcDbEntity
  8
0
  6
CONTINUOUS
 62
     8
100
AcDbLine
 10
490.9192442576
 20
84.3544880473
 30
0.0
 11
493.0734082738
 21
84.3544880473
 31
0.0
  0
LINE
  5
379
330
1F
100
AcDbEntity
  8
0
  6
CONTINUOUS
 62
     8
100
AcDbLine
 10
479.0734022538
 20
84.3544880473
 30
0.0
 11
490.9192442576
 21
84.3544880473
 31
0.0
  0
LINE
  5
37A
330
1F
100
AcDbEntity
  8
0
  6
CONTINUOUS
 62
     7
100
AcDbLine
 10
747.4829035879
 20
448.0005825095
 30
0.0
 11
748.1829042614
 21
448.0005825095
 31
0.0
  0
LINE
  5
37B
330
1F
100
AcDbEntity
  8
0
  6
CONTINUOUS
 62
     7
100
AcDbLine
 10
748.2829040915
 20
447.6505821727
 30
0.0
 11
750.282903488
 21
447.6505821727
 31
0.0
  0
LINE
  5
37C
330
1F
100
AcDbEntity
  8
0
  6
CONTINUOUS
 62
     7
100
AcDbLine
 10
766.7829038643
 20
447.3005823016
 30
0.0
 11
766.8329037794
 21
447.3005823016
 31
0.0
  0
LINE
  5
37D
330
1F
100
AcDbEntity
  8
0
  6
CONTINUOUS
 62
     7
100
AcDbLine
 10
766.8329037794
 20
461.000582312
 30
0.0
 11
766.7829038643
 21
461.000582312
 31
0.0
  0
ARC
  5
37E
330
1F
100
AcDbEntity
  8
0
  6
CONTINUOUS
 62
     7
100
AcDbCircle
 10
766.8329038382
 20
447.5505823068
 30
0.0
 40
0.25
100
AcDbArc
 50
270.0
 51
0.0
  0
ARC
  5
37F
330
1F
100
AcDbEntity
  8
0
  6
CONTINUOUS
 62
     7
100
AcDbCircle
 10
766.8329038382
 20
460.7505823068
 30
0.0
 40
0.2499999999999432
100
AcDbArc
 50
0.0
 51
90.0
  0
LINE
  5
380
330
1F
100
AcDbEntity
  8
0
  6
CONTINUOUS
 62
     7
100
AcDbLine
 10
747.2829039276
 20
457.6505824149
 30
0.0
 11
746.2829037637
 21
457.6505824149
 31
0.0
  0
LINE
  5
381
330
1F
100
AcDbEntity
  8
0
  6
CONTINUOUS
 62
     7
100
AcDbLine
 10
746.2829037637
 20
450.6505821988
 30
0.0
 11
747.2829039276
 21
450.6505821988
 31
0.0
  0
LINE
  5
382
330
1F
100
AcDbEntity
  8
0
  6
CONTINUOUS
 62
     7
100
AcDbLine
 10
748.2829040915
 20
457.1505823329
 30
0.0
 11
747.2829039276
 21
457.1505823329
 31
0.0
  0
LINE
  5
383
330
1F
100
AcDbEntity
  8
0
  6
CONTINUOUS
 62
     7
100
AcDbLine
 10
747.2829039276
 20
451.1505822808
 30
0.0
 11
747.4829035879
 21
451.1505822808
 31
0.0
  0
LINE
  5
384
330
1F
100
AcDbEntity
  8
0
  6
CONTINUOUS
 62
     7
100
AcDbLine
 10
748.1829042614
 20
451.1505822808
 30
0.0
 11
748.2829040915
 21
451.1505822808
 31
0.0
  0
LINE
  5
385
330
1F
100
AcDbEntity
  8
0
  6
CONTINUOUS
 62
     7
100
AcDbLine
 10
764.7829038857
 20
465.1505822472
 30
0.0
 11
763.7829038382
 21
465.1505822472
 31
0.0
  0
LINE
  5
386
330
1F
100
AcDbEntity
  8
0
  6
CONTINUOUS
 62
     7
100
AcDbLine
 10
763.7829038382
 20
443.1505823664
 30
0.0
 11
764.7829038857
 21
443.1505823664
 31
0.0
  0
LINE
  5
387
330
1F
100
AcDbEntity
  8
0
  6
CONTINUOUS
 62
     7
100
AcDbLine
 10
764.7829038857
 20
443.1505823664
 30
0.0
 11
766.7829038643
 21
445.1505826943
 31
0.0
  0
LINE
  5
388
330
1F
100
AcDbEntity
  8
0
  6
CONTINUOUS
 62
     7
100
AcDbLine
 10
766.7829038643
 20
463.1505819194
 30
0.0
 11
764.7829038857
 21
465.1505822472
 31
0.0
  0
LINE
  5
389
330
1F
100
AcDbEntity
  8
0
  6
CONTINUOUS
 62
     7
100
AcDbLine
 10
751.7829037339
 20
461.1505825229
 30
0.0
 11
750.78290357
 21
461.1505825229
 31
0.0
  0
LINE
  5
38A
330
1F
100
AcDbEntity
  8
0
  6
CONTINUOUS
 62
     7
100
AcDbLine
 10
750.78290357
 20
447.1505820908
 30
0.0
 11
751.7829037339
 21
447.1505820908
 31
0.0
  0
ARC
  5
38B
330
1F
100
AcDbEntity
  8
0
  6
CONTINUOUS
 62
     7
100
AcDbCircle
 10
750.7829038382
 20
460.6505823068
 30
0.0
 40
0.5000000000001249
100
AcDbArc
 50
90.0
 51
180.0000121787
  0
ARC
  5
38C
330
1F
100
AcDbEntity
  8
0
  6
CONTINUOUS
 62
     7
100
AcDbCircle
 10
750.7829038382
 20
447.6505823068
 30
0.0
 40
0.5000000000001249
100
AcDbArc
 50
179.9999878213
 51
270.0
  0
LINE
  5
38D
330
1F
100
AcDbEntity
  8
0
  6
CONTINUOUS
 62
     7
100
AcDbLine
 10
762.2829038252
 20
291.4937237434
 30
0.0
 11
763.7829038382
 21
291.4937237434
 31
0.0
  0
LINE
  5
38E
330
1F
100
AcDbEntity
  8
0
  6
CONTINUOUS
 62
     7
100
AcDbLine
 10
762.2829038252
 20
297.1505770616
 30
0.0
 11
762.2829038252
 21
291.4937237434
 31
0.0
  0
LINE
  5
38F
330
1F
100
AcDbEntity
  8
0
  6
CONTINUOUS
 62
     7
100
AcDbLine
 10
762.2829038252
 20
297.1505770616
 30
0.0
 11
763.7829038382
 21
297.1505770616
 31
0.0
  0
LINE
  5
390
330
1F
100
AcDbEntity
  8
0
  6
CONTINUOUS
 62
     7
100
AcDbLine
 10
763.7829038382
 20
297.1505770616
 30
0.0
 11
763.7829038382
 21
291.4937237434
 31
0.0
  0
LINE
  5
391
330
1F
100
AcDbEntity
  8
0
  6
CONTINUOUS
 62
     7
100
AcDbLine
 10
762.2829038252
 20
300.650576704
 30
0.0
 11
762.2829038252
 21
297.1505770616
 31
0.0
  0
LINE
  5
392
330
1F
100
AcDbEntity
  8
0
  6
CONTINUOUS
 62
     7
100
AcDbLine
 10
762.2829038252
 20
300.650576704
 30
0.0
 11
763.7829038382
 21
300.650576704
 31
0.0
  0
LINE
  5
393
330
1F
100
AcDbEntity
  8
0
  6
CONTINUOUS
 62
     7
100
AcDbLine
 10
763.7829038382
 20
300.650576704
 30
0.0
 11
763.7829038382
 21
297.1505770616
 31
0.0
  0
LINE
  5
394
330
1F
100
AcDbEntity
  8
0
  6
CONTINUOUS
 62
     7
100
AcDbLine
 10
762.2829038252
 20
275.9937295847
 30
0.0
 11
763.7829038382
 21
275.9937295847
 31
0.0
  0
LINE
  5
395
330
1F
100
AcDbEntity
  8
0
  6
CONTINUOUS
 62
     7
100
AcDbLine
 10
762.2829038252
 20
291.4937237434
 30
0.0
 11
762.2829038252
 21
275.9937295847
 31
0.0
  0
LINE
  5
396
330
1F
100
AcDbEntity
  8
0
  6
CONTINUOUS
 62
     7
100
AcDbLine
 10
763.7829038382
 20
291.4937237434
 30
0.0
 11
763.7829038382
 21
275.9937295847
 31
0.0
  0
LINE
  5
397
330
1F
100
AcDbEntity
  8
0
  6
CONTINUOUS
 62
     7
100
AcDbLine
 10
762.2829038252
 20
273.6505815916
 30
0.0
 11
763.7829038382
 21
273.6505815916
 31
0.0
  0
LINE
  5
398
330
1F
100
AcDbEntity
  8
0
  6
CONTINUOUS
 62
     7
100
AcDbLine
 10
762.2829038252
 20
275.9937295847
 30
0.0
 11
762.2829038252
 21
273.6505815916
 31
0.0
  0
LINE
  5
399
330
1F
100
AcDbEntity
  8
0
  6
CONTINUOUS
 62
     7
100
AcDbLine
 10
763.7829038382
 20
275.9937295847
 30
0.0
 11
763.7829038382
 21
273.6505815916
 31
0.0
  0
LINE
  5
39A
330
1F
100
AcDbEntity
  8
0
  6
CONTINUOUS
 62
     7
100
AcDbLine
 10
754.7829042256
 20
293.1505838566
 30
0.0
 11
754.7829042256
 21
291.6505882673
 31
0.0
  0
LINE
  5
39B
330
1F
100
AcDbEntity
  8
0
  6
CONTINUOUS
 62
     7
100
AcDbLine
 10
752.7829038978
 20
291.6505882673
 30
0.0
 11
752.7829038978
 21
293.1505838566
 31
0.0
  0
LINE
  5
39C
330
1F
100
AcDbEntity
  8
0
  6
CONTINUOUS
 62
     7
100
AcDbLine
 10
752.7829038978
 20
293.1505838566
 30
0.0
 11
754.7829042256
 21
293.1505838566
 31
0.0
  0
LINE
  5
39D
330
1F
100
AcDbEntity
  8
0
  6
CONTINUOUS
 62
     7
100
AcDbLine
 10
754.7829042256
 20
291.6505882673
 30
0.0
 11
752.7829038978
 21
291.6505882673
 31
0.0
  0
LINE
  5
39E
330
1F
100
AcDbEntity
  8
0
  6
CONTINUOUS
 62
     7
100
AcDbLine
 10
761.2829038941
 20
291.6505882673
 30
0.0
 11
761.2829038941
 21
293.1505838566
 31
0.0
  0
LINE
  5
39F
330
1F
100
AcDbEntity
  8
0
  6
CONTINUOUS
 62
     7
100
AcDbLine
 10
754.7829042256
 20
293.1505838566
 30
0.0
 11
761.2829038941
 21
293.1505838566
 31
0.0
  0
LINE
  5
3A0
330
1F
100
AcDbEntity
  8
0
  6
CONTINUOUS
 62
     7
100
AcDbLine
 10
754.7829042256
 20
291.6505882673
 30
0.0
 11
761.2829038941
 21
291.6505882673
 31
0.0
  0
ARC
  5
3A1
330
1F
100
AcDbEntity
  8
0
  6
CONTINUOUS
 62
     7
100
AcDbCircle
 10
761.2829038382
 20
290.6505823068
 30
0.0
 40
2.500000000000057
100
AcDbArc
 50
66.4218215218
 51
90.0
  0
ARC
  5
3A2
330
1F
100
AcDbEntity
  8
0
  6
CONTINUOUS
 62
     7
100
AcDbCircle
 10
761.2829038382
 20
290.6505823068
 30
0.0
 40
1.000000000000114
100
AcDbArc
 50
0.0
 51
90.0
  0
ARC
  5
3A3
330
1F
100
AcDbEntity
  8
0
  6
CONTINUOUS
 62
     7
100
AcDbCircle
 10
752.7829038382
 20
294.1505823068
 30
0.0
 40
2.5
100
AcDbArc
 50
180.0
 51
270.0
  0
LINE
  5
3A4
330
1F
100
AcDbEntity
  8
0
  6
CONTINUOUS
 62
     7
100
AcDbLine
 10
751.7829037339
 20
294.1505858831
 30
0.0
 11
750.282903488
 21
294.1505858831
 31
0.0
  0
ARC
  5
3A5
330
1F
100
AcDbEntity
  8
0
  6
CONTINUOUS
 62
     7
100
AcDbCircle
 10
752.7829038382
 20
294.1505823068
 30
0.0
 40
1.0
100
AcDbArc
 50
180.0
 51
270.0
  0
LINE
  5
3A6
330
1F
100
AcDbEntity
  8
0
  6
CONTINUOUS
 62
     7
100
AcDbLine
 10
750.282903488
 20
294.1505858831
 30
0.0
 11
750.282903488
 21
295.1505879097
 31
0.0
  0
LINE
  5
3A7
330
1F
100
AcDbEntity
  8
0
  6
CONTINUOUS
 62
     7
100
AcDbLine
 10
751.7829037339
 20
295.1505879097
 30
0.0
 11
750.282903488
 21
295.1505879097
 31
0.0
  0
LINE
  5
3A8
330
1F
100
AcDbEntity
  8
0
  6
CONTINUOUS
 62
     7
100
AcDbLine
 10
751.7829037339
 20
294.1505858831
 30
0.0
 11
751.7829037339
 21
295.1505879097
 31
0.0
  0
LINE
  5
3A9
330
1F
100
AcDbEntity
  8
0
  6
CONTINUOUS
 62
     7
100
AcDbLine
 10
750.282903488
 20
298.1505790882
 30
0.0
 11
751.7829037339
 21
298.1505790882
 31
0.0
  0
LINE
  5
3AA
330
1F
100
AcDbEntity
  8
0
  6
CONTINUOUS
 62
     7
100
AcDbLine
 10
750.282903488
 20
295.1505879097
 30
0.0
 11
750.282903488
 21
298.1505790882
 31
0.0
  0
LINE
  5
3AB
330
1F
100
AcDbEntity
  8
0
  6
CONTINUOUS
 62
     7
100
AcDbLine
 10
751.7829037339
 20
298.1505790882
 30
0.0
 11
751.7829037339
 21
297.6505855255
 31
0.0
  0
LINE
  5
3AC
330
1F
100
AcDbEntity
  8
0
  6
CONTINUOUS
 62
     7
100
AcDbLine
 10
751.7829037339
 20
295.6505814724
 30
0.0
 11
751.7829037339
 21
295.1505879097
 31
0.0
  0
LINE
  5
3AD
330
1F
100
AcDbEntity
  8
0
  6
CONTINUOUS
 62
     7
100
AcDbLine
 10
762.2829038252
 20
611.150587552
 30
0.0
 11
762.2829038252
 21
607.6505879097
 31
0.0
  0
LINE
  5
3AE
330
1F
100
AcDbEntity
  8
0
  6
CONTINUOUS
 62
     7
100
AcDbLine
 10
762.2829038252
 20
611.150587552
 30
0.0
 11
763.7829038382
 21
611.150587552
 31
0.0
  0
LINE
  5
3AF
330
1F
100
AcDbEntity
  8
0
  6
CONTINUOUS
 62
     7
100
AcDbLine
 10
762.2829038252
 20
607.6505879097
 30
0.0
 11
763.7829038382
 21
607.6505879097
 31
0.0
  0
LINE
  5
3B0
330
1F
100
AcDbEntity
  8
0
  6
CONTINUOUS
 62
     7
100
AcDbLine
 10
763.7829038382
 20
611.150587552
 30
0.0
 11
763.7829038382
 21
607.6505879097
 31
0.0
  0
LINE
  5
3B1
330
1F
100
AcDbEntity
  8
0
  6
CONTINUOUS
 62
     7
100
AcDbLine
 10
762.2829038252
 20
616.8074408703
 30
0.0
 11
763.7829038382
 21
616.8074408703
 31
0.0
  0
LINE
  5
3B2
330
1F
100
AcDbEntity
  8
0
  6
CONTINUOUS
 62
     7
100
AcDbLine
 10
762.2829038252
 20
616.8074408703
 30
0.0
 11
762.2829038252
 21
611.150587552
 31
0.0
  0
LINE
  5
3B3
330
1F
100
AcDbEntity
  8
0
  6
CONTINUOUS
 62
     7
100
AcDbLine
 10
763.7829038382
 20
616.8074408703
 30
0.0
 11
763.7829038382
 21
611.150587552
 31
0.0
  0
LINE
  5
3B4
330
1F
100
AcDbEntity
  8
0
  6
CONTINUOUS
 62
     7
100
AcDbLine
 10
762.2829038252
 20
632.307435029
 30
0.0
 11
763.7829038382
 21
632.307435029
 31
0.0
  0
LINE
  5
3B5
330
1F
100
AcDbEntity
  8
0
  6
CONTINUOUS
 62
     7
100
AcDbLine
 10
762.2829038252
 20
632.307435029
 30
0.0
 11
762.2829038252
 21
616.8074408703
 31
0.0
  0
LINE
  5
3B6
330
1F
100
AcDbEntity
  8
0
  6
CONTINUOUS
 62
     7
100
AcDbLine
 10
763.7829038382
 20
632.307435029
 30
0.0
 11
763.7829038382
 21
616.8074408703
 31
0.0
  0
LINE
  5
3B7
330
1F
100
AcDbEntity
  8
0
  6
CONTINUOUS
 62
     7
100
AcDbLine
 10
762.2829038252
 20
634.6505830221
 30
0.0
 11
763.7829038382
 21
634.6505830221
 31
0.0
  0
LINE
  5
3B8
330
1F
100
AcDbEntity
  8
0
  6
CONTINUOUS
 62
     7
100
AcDbLine
 10
762.2829038252
 20
634.6505830221
 30
0.0
 11
762.2829038252
 21
632.307435029
 31
0.0
  0
LINE
  5
3B9
330
1F
100
AcDbEntity
  8
0
  6
CONTINUOUS
 62
     7
100
AcDbLine
 10
763.7829038382
 20
634.6505830221
 30
0.0
 11
763.7829038382
 21
632.307435029
 31
0.0
  0
LINE
  5
3BA
330
1F
100
AcDbEntity
  8
0
  6
CONTINUOUS
 62
     7
100
AcDbLine
 10
752.7829038978
 20
615.1505807571
 30
0.0
 11
752.7829038978
 21
616.6505763464
 31
0.0
  0
LINE
  5
3BB
330
1F
100
AcDbEntity
  8
0
  6
CONTINUOUS
 62
     7
100
AcDbLine
 10
754.7829042256
 20
616.6505763464
 30
0.0
 11
754.7829042256
 21
615.1505807571
 31
0.0
  0
LINE
  5
3BC
330
1F
100
AcDbEntity
  8
0
  6
CONTINUOUS
 62
     7
100
AcDbLine
 10
754.7829042256
 20
615.1505807571
 30
0.0
 11
752.7829038978
 21
615.1505807571
 31
0.0
  0
LINE
  5
3BD
330
1F
100
AcDbEntity
  8
0
  6
CONTINUOUS
 62
     7
100
AcDbLine
 10
752.7829038978
 20
616.6505763464
 30
0.0
 11
754.7829042256
 21
616.6505763464
 31
0.0
  0
LINE
  5
3BE
330
1F
100
AcDbEntity
  8
0
  6
CONTINUOUS
 62
     7
100
AcDbLine
 10
761.2829038941
 20
616.6505763464
 30
0.0
 11
761.2829038941
 21
615.1505807571
 31
0.0
  0
LINE
  5
3BF
330
1F
100
AcDbEntity
  8
0
  6
CONTINUOUS
 62
     7
100
AcDbLine
 10
761.2829038941
 20
615.1505807571
 30
0.0
 11
754.7829042256
 21
615.1505807571
 31
0.0
  0
LINE
  5
3C0
330
1F
100
AcDbEntity
  8
0
  6
CONTINUOUS
 62
     7
100
AcDbLine
 10
761.2829038941
 20
616.6505763464
 30
0.0
 11
754.7829042256
 21
616.6505763464
 31
0.0
  0
ARC
  5
3C1
330
1F
100
AcDbEntity
  8
0
  6
CONTINUOUS
 62
     7
100
AcDbCircle
 10
761.2829038382
 20
617.6505823068
 30
0.0
 40
2.499999999999986
100
AcDbArc
 50
270.0
 51
293.5781784782
  0
ARC
  5
3C2
330
1F
100
AcDbEntity
  8
0
  6
CONTINUOUS
 62
     7
100
AcDbCircle
 10
761.2829038382
 20
617.6505823068
 30
0.0
 40
1.0
100
AcDbArc
 50
270.0
 51
0.0
  0
LINE
  5
3C3
330
1F
100
AcDbEntity
  8
0
  6
CONTINUOUS
 62
     7
100
AcDbLine
 10
750.282903488
 20
595.6505784921
 30
0.0
 11
751.7829037339
 21
595.6505784921
 31
0.0
  0
LINE
  5
3C4
330
1F
100
AcDbEntity
  8
0
  6
CONTINUOUS
 62
     7
100
AcDbLine
 10
751.7829037339
 20
592.6505873136
 30
0.0
 11
750.282903488
 21
592.6505873136
 31
0.0
  0
LINE
  5
3C5
330
1F
100
AcDbEntity
  8
0
  6
CONTINUOUS
 62
     7
100
AcDbLine
 10
750.282903488
 20
592.6505873136
 30
0.0
 11
750.282903488
 21
595.6505784921
 31
0.0
  0
LINE
  5
3C6
330
1F
100
AcDbEntity
  8
0
  6
CONTINUOUS
 62
     7
100
AcDbLine
 10
750.282903488
 20
315.6505773
 30
0.0
 11
751.7829037339
 21
315.6505773
 31
0.0
  0
LINE
  5
3C7
330
1F
100
AcDbEntity
  8
0
  6
CONTINUOUS
 62
     7
100
AcDbLine
 10
750.282903488
 20
315.6505773
 30
0.0
 11
750.282903488
 21
345.1505849294
 31
0.0
  0
LINE
  5
3C8
330
1F
100
AcDbEntity
  8
0
  6
CONTINUOUS
 62
     7
100
AcDbLine
 10
750.282903488
 20
348.1505835585
 30
0.0
 11
750.282903488
 21
348.6505845718
 31
0.0
  0
LINE
  5
3C9
330
1F
100
AcDbEntity
  8
0
  6
CONTINUOUS
 62
     7
100
AcDbLine
 10
750.282903488
 20
364.6505797438
 30
0.0
 11
750.282903488
 21
365.1505807571
 31
0.0
  0
LINE
  5
3CA
330
1F
100
AcDbEntity
  8
0
  6
CONTINUOUS
 62
     7
100
AcDbLine
 10
750.282903488
 20
368.1505793862
 30
0.0
 11
750.282903488
 21
447.6505821727
 31
0.0
  0
LINE
  5
3CB
330
1F
100
AcDbEntity
  8
0
  6
CONTINUOUS
 62
     7
100
AcDbLine
 10
750.282903488
 20
461.0676077351
 30
0.0
 11
750.282903488
 21
540.1505852275
 31
0.0
  0
LINE
  5
3CC
330
1F
100
AcDbEntity
  8
0
  6
CONTINUOUS
 62
     7
100
AcDbLine
 10
750.282903488
 20
543.1505838566
 30
0.0
 11
750.282903488
 21
543.6505848698
 31
0.0
  0
LINE
  5
3CD
330
1F
100
AcDbEntity
  8
0
  6
CONTINUOUS
 62
     7
100
AcDbLine
 10
750.282903488
 20
559.6505800419
 30
0.0
 11
750.282903488
 21
560.1505810551
 31
0.0
  0
LINE
  5
3CE
330
1F
100
AcDbEntity
  8
0
  6
CONTINUOUS
 62
     7
100
AcDbLine
 10
750.282903488
 20
563.1505796842
 30
0.0
 11
750.282903488
 21
592.6505873136
 31
0.0
  0
LINE
  5
3CF
330
1F
100
AcDbEntity
  8
0
  6
CONTINUOUS
 62
     7
100
AcDbLine
 10
751.7829037339
 20
312.6505861215
 30
0.0
 11
750.282903488
 21
312.6505861215
 31
0.0
  0
LINE
  5
3D0
330
1F
100
AcDbEntity
  8
0
  6
CONTINUOUS
 62
     7
100
AcDbLine
 10
750.282903488
 20
312.6505861215
 30
0.0
 11
750.282903488
 21
315.6505773
 31
0.0
  0
LINE
  5
3D1
330
1F
100
AcDbEntity
  8
0
  6
CONTINUOUS
 62
     7
100
AcDbLine
 10
762.420480775
 20
364.6505797438
 30
0.0
 11
762.420480775
 21
348.6505845718
 31
0.0
  0
LINE
  5
3D2
330
1F
100
AcDbEntity
  8
0
  6
CONTINUOUS
 62
     7
100
AcDbLine
 10
762.420480775
 20
348.6505845718
 30
0.0
 11
748.5417232916
 21
348.6505845718
 31
0.0
  0
LINE
  5
3D3
330
1F
100
AcDbEntity
  8
0
  6
CONTINUOUS
 62
     7
100
AcDbLine
 10
748.5417232916
 20
348.6505845718
 30
0.0
 11
748.5417232916
 21
364.6505797438
 31
0.0
  0
LINE
  5
3D4
330
1F
100
AcDbEntity
  8
0
  6
CONTINUOUS
 62
     7
100
AcDbLine
 10
748.5417232916
 20
364.6505797438
 30
0.0
 11
762.420480775
 21
364.6505797438
 31
0.0
  0
LINE
  5
3D5
330
1F
100
AcDbEntity
  8
0
  6
CONTINUOUS
 62
     7
100
AcDbLine
 10
762.420480775
 20
543.6505848698
 30
0.0
 11
762.420480775
 21
559.6505800419
 31
0.0
  0
LINE
  5
3D6
330
1F
100
AcDbEntity
  8
0
  6
CONTINUOUS
 62
     7
100
AcDbLine
 10
748.5417232916
 20
543.6505848698
 30
0.0
 11
762.420480775
 21
543.6505848698
 31
0.0
  0
LINE
  5
3D7
330
1F
100
AcDbEntity
  8
0
  6
CONTINUOUS
 62
     7
100
AcDbLine
 10
748.5417232916
 20
543.6505848698
 30
0.0
 11
748.5417232916
 21
559.6505800419
 31
0.0
  0
LINE
  5
3D8
330
1F
100
AcDbEntity
  8
0
  6
CONTINUOUS
 62
     7
100
AcDbLine
 10
762.420480775
 20
559.6505800419
 30
0.0
 11
748.5417232916
 21
559.6505800419
 31
0.0
  0
LINE
  5
3D9
330
1F
100
AcDbEntity
  8
0
  6
CONTINUOUS
 62
     7
100
AcDbLine
 10
762.8087094005
 20
364.6505797438
 30
0.0
 11
762.420480775
 21
364.6505797438
 31
0.0
  0
LINE
  5
3DA
330
1F
100
AcDbEntity
  8
0
  6
CONTINUOUS
 62
     7
100
AcDbLine
 10
762.8087094005
 20
364.6505797438
 30
0.0
 11
762.8087094005
 21
348.6505845718
 31
0.0
  0
LINE
  5
3DB
330
1F
100
AcDbEntity
  8
0
  6
CONTINUOUS
 62
     7
100
AcDbLine
 10
762.8087094005
 20
348.6505845718
 30
0.0
 11
762.420480775
 21
348.6505845718
 31
0.0
  0
LINE
  5
3DC
330
1F
100
AcDbEntity
  8
0
  6
CONTINUOUS
 62
     7
100
AcDbLine
 10
762.8087094005
 20
543.6505848698
 30
0.0
 11
762.8087094005
 21
559.6505800419
 31
0.0
  0
LINE
  5
3DD
330
1F
100
AcDbEntity
  8
0
  6
CONTINUOUS
 62
     7
100
AcDbLine
 10
762.8087094005
 20
543.6505848698
 30
0.0
 11
762.420480775
 21
543.6505848698
 31
0.0
  0
LINE
  5
3DE
330
1F
100
AcDbEntity
  8
0
  6
CONTINUOUS
 62
     7
100
AcDbLine
 10
762.8087094005
 20
559.6505800419
 30
0.0
 11
762.420480775
 21
559.6505800419
 31
0.0
  0
LINE
  5
3DF
330
1F
100
AcDbEntity
  8
0
  6
CONTINUOUS
 62
     7
100
AcDbLine
 10
748.2829040915
 20
543.6505848698
 30
0.0
 11
748.5417232916
 21
543.6505848698
 31
0.0
  0
LINE
  5
3E0
330
1F
100
AcDbEntity
  8
0
  6
CONTINUOUS
 62
     7
100
AcDbLine
 10
748.2829040915
 20
559.6505800419
 30
0.0
 11
748.2829040915
 21
543.6505848698
 31
0.0
  0
LINE
  5
3E1
330
1F
100
AcDbEntity
  8
0
  6
CONTINUOUS
 62
     7
100
AcDbLine
 10
748.5417232916
 20
559.6505800419
 30
0.0
 11
748.2829040915
 21
559.6505800419
 31
0.0
  0
LINE
  5
3E2
330
1F
100
AcDbEntity
  8
0
  6
CONTINUOUS
 62
     7
100
AcDbLine
 10
748.5417232916
 20
364.6505797438
 30
0.0
 11
748.2829040915
 21
364.6505797438
 31
0.0
  0
LINE
  5
3E3
330
1F
100
AcDbEntity
  8
0
  6
CONTINUOUS
 62
     7
100
AcDbLine
 10
748.2829040915
 20
348.6505845718
 30
0.0
 11
748.5417232916
 21
348.6505845718
 31
0.0
  0
LINE
  5
3E4
330
1F
100
AcDbEntity
  8
0
  6
CONTINUOUS
 62
     7
100
AcDbLine
 10
748.2829040915
 20
364.6505797438
 30
0.0
 11
748.2829040915
 21
348.6505845718
 31
0.0
  0
LINE
  5
3E5
330
1F
100
AcDbEntity
  8
0
  6
CONTINUOUS
 62
     7
100
AcDbLine
 10
761.2829038941
 20
543.1505838566
 30
0.0
 11
761.2829038941
 21
540.1505852275
 31
0.0
  0
LINE
  5
3E6
330
1F
100
AcDbEntity
  8
0
  6
CONTINUOUS
 62
     7
100
AcDbLine
 10
761.2829038941
 20
540.1505852275
 30
0.0
 11
747.2829039276
 21
540.1505852275
 31
0.0
  0
ARC
  5
3E7
330
1F
100
AcDbEntity
  8
0
  6
CONTINUOUS
 62
     7
100
AcDbCircle
 10
747.2829038382
 20
542.1505823068
 30
0.0
 40
2.0
100
AcDbArc
 50
180.0
 51
270.0
  0
LINE
  5
3E8
330
1F
100
AcDbEntity
  8
0
  6
CONTINUOUS
 62
     7
100
AcDbLine
 10
745.2829035998
 20
542.15058183
 30
0.0
 11
745.2829035998
 21
561.1505830817
 31
0.0
  0
ARC
  5
3E9
330
1F
100
AcDbEntity
  8
0
  6
CONTINUOUS
 62
     7
100
AcDbCircle
 10
747.2829038382
 20
561.1505823068
 30
0.0
 40
2.0
100
AcDbArc
 50
90.0
 51
180.0
  0
LINE
  5
3EA
330
1F
100
AcDbEntity
  8
0
  6
CONTINUOUS
 62
     7
100
AcDbLine
 10
747.2829039276
 20
563.1505796842
 30
0.0
 11
761.2829038941
 21
563.1505796842
 31
0.0
  0
LINE
  5
3EB
330
1F
100
AcDbEntity
  8
0
  6
CONTINUOUS
 62
     7
100
AcDbLine
 10
761.2829038941
 20
563.1505796842
 30
0.0
 11
761.2829038941
 21
560.1505810551
 31
0.0
  0
LINE
  5
3EC
330
1F
100
AcDbEntity
  8
0
  6
CONTINUOUS
 62
     7
100
AcDbLine
 10
748.2829040915
 20
560.1505810551
 30
0.0
 11
761.2829038941
 21
560.1505810551
 31
0.0
  0
LINE
  5
3ED
330
1F
100
AcDbEntity
  8
0
  6
CONTINUOUS
 62
     7
100
AcDbLine
 10
748.2829040915
 20
559.6505800419
 30
0.0
 11
748.2829040915
 21
560.1505810551
 31
0.0
  0
LINE
  5
3EE
330
1F
100
AcDbEntity
  8
0
  6
CONTINUOUS
 62
     7
100
AcDbLine
 10
748.2829040915
 20
543.1505838566
 30
0.0
 11
748.2829040915
 21
543.6505848698
 31
0.0
  0
LINE
  5
3EF
330
1F
100
AcDbEntity
  8
0
  6
CONTINUOUS
 62
     7
100
AcDbLine
 10
761.2829038941
 20
543.1505838566
 30
0.0
 11
748.2829040915
 21
543.1505838566
 31
0.0
  0
LINE
  5
3F0
330
1F
100
AcDbEntity
  8
0
  6
CONTINUOUS
 62
     7
100
AcDbLine
 10
748.2829040915
 20
348.1505835585
 30
0.0
 11
761.2829038941
 21
348.1505835585
 31
0.0
  0
LINE
  5
3F1
330
1F
100
AcDbEntity
  8
0
  6
CONTINUOUS
 62
     7
100
AcDbLine
 10
761.2829038941
 20
348.1505835585
 30
0.0
 11
761.2829038941
 21
345.1505849294
 31
0.0
  0
LINE
  5
3F2
330
1F
100
AcDbEntity
  8
0
  6
CONTINUOUS
 62
     7
100
AcDbLine
 10
747.2829039276
 20
345.1505849294
 30
0.0
 11
761.2829038941
 21
345.1505849294
 31
0.0
  0
ARC
  5
3F3
330
1F
100
AcDbEntity
  8
0
  6
CONTINUOUS
 62
     7
100
AcDbCircle
 10
747.2829038382
 20
347.1505823068
 30
0.0
 40
2.000000000000057
100
AcDbArc
 50
180.0
 51
270.0
  0
LINE
  5
3F4
330
1F
100
AcDbEntity
  8
0
  6
CONTINUOUS
 62
     7
100
AcDbLine
 10
745.2829035998
 20
366.1505827837
 30
0.0
 11
745.2829035998
 21
347.150581532
 31
0.0
  0
ARC
  5
3F5
330
1F
100
AcDbEntity
  8
0
  6
CONTINUOUS
 62
     7
100
AcDbCircle
 10
747.2829038382
 20
366.1505823068
 30
0.0
 40
2.0
100
AcDbArc
 50
90.0
 51
180.0
  0
LINE
  5
3F6
330
1F
100
AcDbEntity
  8
0
  6
CONTINUOUS
 62
     7
100
AcDbLine
 10
761.2829038941
 20
368.1505793862
 30
0.0
 11
747.2829039276
 21
368.1505793862
 31
0.0
  0
LINE
  5
3F7
330
1F
100
AcDbEntity
  8
0
  6
CONTINUOUS
 62
     7
100
AcDbLine
 10
761.2829038941
 20
368.1505793862
 30
0.0
 11
761.2829038941
 21
365.1505807571
 31
0.0
  0
LINE
  5
3F8
330
1F
100
AcDbEntity
  8
0
  6
CONTINUOUS
 62
     7
100
AcDbLine
 10
761.2829038941
 20
365.1505807571
 30
0.0
 11
748.2829040915
 21
365.1505807571
 31
0.0
  0
LINE
  5
3F9
330
1F
100
AcDbEntity
  8
0
  6
CONTINUOUS
 62
     7
100
AcDbLine
 10
748.2829040915
 20
365.1505807571
 30
0.0
 11
748.2829040915
 21
364.6505797438
 31
0.0
  0
LINE
  5
3FA
330
1F
100
AcDbEntity
  8
0
  6
CONTINUOUS
 62
     7
100
AcDbLine
 10
748.2829040915
 20
348.6505845718
 30
0.0
 11
748.2829040915
 21
348.1505835585
 31
0.0
  0
LINE
  5
3FB
330
1F
100
AcDbEntity
  8
0
  6
CONTINUOUS
 62
     7
100
AcDbLine
 10
761.2829038941
 20
368.1505793862
 30
0.0
 11
763.7829038382
 21
368.1505793862
 31
0.0
  0
LINE
  5
3FC
330
1F
100
AcDbEntity
  8
0
  6
CONTINUOUS
 62
     7
100
AcDbLine
 10
763.7829038382
 20
368.1505793862
 30
0.0
 11
763.7829038382
 21
365.1505807571
 31
0.0
  0
LINE
  5
3FD
330
1F
100
AcDbEntity
  8
0
  6
CONTINUOUS
 62
     7
100
AcDbLine
 10
763.7829038382
 20
365.1505807571
 30
0.0
 11
761.2829038941
 21
365.1505807571
 31
0.0
  0
LINE
  5
3FE
330
1F
100
AcDbEntity
  8
0
  6
CONTINUOUS
 62
     7
100
AcDbLine
 10
763.7829038382
 20
348.1505835585
 30
0.0
 11
763.7829038382
 21
345.1505849294
 31
0.0
  0
LINE
  5
3FF
330
1F
100
AcDbEntity
  8
0
  6
CONTINUOUS
 62
     7
100
AcDbLine
 10
763.7829038382
 20
345.1505849294
 30
0.0
 11
761.2829038941
 21
345.1505849294
 31
0.0
  0
LINE
  5
400
330
1F
100
AcDbEntity
  8
0
  6
CONTINUOUS
 62
     7
100
AcDbLine
 10
761.2829038941
 20
348.1505835585
 30
0.0
 11
763.7829038382
 21
348.1505835585
 31
0.0
  0
LINE
  5
401
330
1F
100
AcDbEntity
  8
0
  6
CONTINUOUS
 62
     7
100
AcDbLine
 10
763.7829038382
 20
540.1505852275
 30
0.0
 11
761.2829038941
 21
540.1505852275
 31
0.0
  0
LINE
  5
402
330
1F
100
AcDbEntity
  8
0
  6
CONTINUOUS
 62
     7
100
AcDbLine
 10
763.7829038382
 20
543.1505838566
 30
0.0
 11
761.2829038941
 21
543.1505838566
 31
0.0
  0
LINE
  5
403
330
1F
100
AcDbEntity
  8
0
  6
CONTINUOUS
 62
     7
100
AcDbLine
 10
763.7829038382
 20
543.1505838566
 30
0.0
 11
763.7829038382
 21
540.1505852275
 31
0.0
  0
LINE
  5
404
330
1F
100
AcDbEntity
  8
0
  6
CONTINUOUS
 62
     7
100
AcDbLine
 10
763.7829038382
 20
563.1505796842
 30
0.0
 11
763.7829038382
 21
560.1505810551
 31
0.0
  0
LINE
  5
405
330
1F
100
AcDbEntity
  8
0
  6
CONTINUOUS
 62
     7
100
AcDbLine
 10
761.2829038941
 20
560.1505810551
 30
0.0
 11
763.7829038382
 21
560.1505810551
 31
0.0
  0
LINE
  5
406
330
1F
100
AcDbEntity
  8
0
  6
CONTINUOUS
 62
     7
100
AcDbLine
 10
761.2829038941
 20
563.1505796842
 30
0.0
 11
763.7829038382
 21
563.1505796842
 31
0.0
  0
LINE
  5
407
330
1F
100
AcDbEntity
  8
0
  6
CONTINUOUS
 62
     7
100
AcDbLine
 10
762.2829038252
 20
539.6505842142
 30
0.0
 11
762.2829038252
 21
368.6505803995
 31
0.0
  0
LINE
  5
408
330
1F
100
AcDbEntity
  8
0
  6
CONTINUOUS
 62
     7
100
AcDbLine
 10
762.2829038252
 20
539.6505842142
 30
0.0
 11
763.7829038382
 21
539.6505842142
 31
0.0
  0
LINE
  5
409
330
1F
100
AcDbEntity
  8
0
  6
CONTINUOUS
 62
     7
100
AcDbLine
 10
763.7829038382
 20
539.6505842142
 30
0.0
 11
763.7829038382
 21
368.6505803995
 31
0.0
  0
LINE
  5
40A
330
1F
100
AcDbEntity
  8
0
  6
CONTINUOUS
 62
     7
100
AcDbLine
 10
762.2829038252
 20
368.6505803995
 30
0.0
 11
763.7829038382
 21
368.6505803995
 31
0.0
  0
LINE
  5
40B
330
1F
100
AcDbEntity
  8
0
  6
CONTINUOUS
 62
     7
100
AcDbLine
 10
763.7829038382
 20
344.6505839162
 30
0.0
 11
763.7829038382
 21
300.650576704
 31
0.0
  0
LINE
  5
40C
330
1F
100
AcDbEntity
  8
0
  6
CONTINUOUS
 62
     7
100
AcDbLine
 10
762.2829038252
 20
344.6505839162
 30
0.0
 11
762.2829038252
 21
300.650576704
 31
0.0
  0
LINE
  5
40D
330
1F
100
AcDbEntity
  8
0
  6
CONTINUOUS
 62
     7
100
AcDbLine
 10
762.2829038252
 20
344.6505839162
 30
0.0
 11
763.7829038382
 21
344.6505839162
 31
0.0
  0
LINE
  5
40E
330
1F
100
AcDbEntity
  8
0
  6
CONTINUOUS
 62
     7
100
AcDbLine
 10
762.2829038252
 20
563.6505806975
 30
0.0
 11
763.7829038382
 21
563.6505806975
 31
0.0
  0
LINE
  5
40F
330
1F
100
AcDbEntity
  8
0
  6
CONTINUOUS
 62
     7
100
AcDbLine
 10
763.7829038382
 20
607.6505879097
 30
0.0
 11
763.7829038382
 21
563.6505806975
 31
0.0
  0
LINE
  5
410
330
1F
100
AcDbEntity
  8
0
  6
CONTINUOUS
 62
     7
100
AcDbLine
 10
762.2829038252
 20
607.6505879097
 30
0.0
 11
762.2829038252
 21
563.6505806975
 31
0.0
  0
LINE
  5
411
330
1F
100
AcDbEntity
  8
0
  6
CONTINUOUS
 62
     7
100
AcDbLine
 10
763.7829038382
 20
345.1505849294
 30
0.0
 11
763.7829038382
 21
344.6505839162
 31
0.0
  0
LINE
  5
412
330
1F
100
AcDbEntity
  8
0
  6
CONTINUOUS
 62
     7
100
AcDbLine
 10
762.2829038252
 20
345.1505849294
 30
0.0
 11
762.2829038252
 21
344.6505839162
 31
0.0
  0
LINE
  5
413
330
1F
100
AcDbEntity
  8
0
  6
CONTINUOUS
 62
     7
100
AcDbLine
 10
763.7829038382
 20
368.6505803995
 30
0.0
 11
763.7829038382
 21
368.1505793862
 31
0.0
  0
LINE
  5
414
330
1F
100
AcDbEntity
  8
0
  6
CONTINUOUS
 62
     7
100
AcDbLine
 10
762.2829038252
 20
368.6505803995
 30
0.0
 11
762.2829038252
 21
368.1505793862
 31
0.0
  0
LINE
  5
415
330
1F
100
AcDbEntity
  8
0
  6
CONTINUOUS
 62
     7
100
AcDbLine
 10
763.7829038382
 20
563.6505806975
 30
0.0
 11
763.7829038382
 21
563.1505796842
 31
0.0
  0
LINE
  5
416
330
1F
100
AcDbEntity
  8
0
  6
CONTINUOUS
 62
     7
100
AcDbLine
 10
762.2829038252
 20
563.6505806975
 30
0.0
 11
762.2829038252
 21
563.1505796842
 31
0.0
  0
LINE
  5
417
330
1F
100
AcDbEntity
  8
0
  6
CONTINUOUS
 62
     7
100
AcDbLine
 10
763.7829038382
 20
540.1505852275
 30
0.0
 11
763.7829038382
 21
539.6505842142
 31
0.0
  0
LINE
  5
418
330
1F
100
AcDbEntity
  8
0
  6
CONTINUOUS
 62
     7
100
AcDbLine
 10
762.2829038252
 20
540.1505852275
 30
0.0
 11
762.2829038252
 21
539.6505842142
 31
0.0
  0
LINE
  5
419
330
1F
100
AcDbEntity
  8
0
  6
CONTINUOUS
 62
     7
100
AcDbLine
 10
763.7829038382
 20
348.1505835585
 30
0.0
 11
763.7829038382
 21
365.1505807571
 31
0.0
  0
LINE
  5
41A
330
1F
100
AcDbEntity
  8
0
  6
CONTINUOUS
 62
     7
100
AcDbLine
 10
762.2829038252
 20
348.1505835585
 30
0.0
 11
762.2829038252
 21
348.6505845718
 31
0.0
  0
LINE
  5
41B
330
1F
100
AcDbEntity
  8
0
  6
CONTINUOUS
 62
     7
100
AcDbLine
 10
762.2829038252
 20
364.6505797438
 30
0.0
 11
762.2829038252
 21
365.1505807571
 31
0.0
  0
LINE
  5
41C
330
1F
100
AcDbEntity
  8
0
  6
CONTINUOUS
 62
     7
100
AcDbLine
 10
763.7829038382
 20
543.1505838566
 30
0.0
 11
763.7829038382
 21
560.1505810551
 31
0.0
  0
LINE
  5
41D
330
1F
100
AcDbEntity
  8
0
  6
CONTINUOUS
 62
     7
100
AcDbLine
 10
762.2829038252
 20
543.1505838566
 30
0.0
 11
762.2829038252
 21
543.6505848698
 31
0.0
  0
LINE
  5
41E
330
1F
100
AcDbEntity
  8
0
  6
CONTINUOUS
 62
     7
100
AcDbLine
 10
762.2829038252
 20
559.6505800419
 30
0.0
 11
762.2829038252
 21
560.1505810551
 31
0.0
  0
LINE
  5
41F
330
1F
100
AcDbEntity
  8
0
  6
CONTINUOUS
 62
     7
100
AcDbLine
 10
761.2829038941
 20
300.650576704
 30
0.0
 11
762.2829038252
 21
300.650576704
 31
0.0
  0
LINE
  5
420
330
1F
100
AcDbEntity
  8
0
  6
CONTINUOUS
 62
     7
100
AcDbLine
 10
762.2829038252
 20
607.6505879097
 30
0.0
 11
761.2829038941
 21
607.6505879097
 31
0.0
  0
LINE
  5
421
330
1F
100
AcDbEntity
  8
0
  6
CONTINUOUS
 62
     7
100
AcDbLine
 10
754.7829042256
 20
607.6505879097
 30
0.0
 11
752.7829038978
 21
605.6505838566
 31
0.0
  0
LINE
  5
422
330
1F
100
AcDbEntity
  8
0
  6
CONTINUOUS
 62
     7
100
AcDbLine
 10
754.7829042256
 20
607.6505879097
 30
0.0
 11
761.2829038941
 21
607.6505879097
 31
0.0
  0
LINE
  5
423
330
1F
100
AcDbEntity
  8
0
  6
CONTINUOUS
 62
     7
100
AcDbLine
 10
761.2829038941
 20
300.650576704
 30
0.0
 11
754.7829042256
 21
300.650576704
 31
0.0
  0
LINE
  5
424
330
1F
100
AcDbEntity
  8
0
  6
CONTINUOUS
 62
     7
100
AcDbLine
 10
752.7829038978
 20
302.6505807571
 30
0.0
 11
754.7829042256
 21
300.650576704
 31
0.0
  0
LINE
  5
425
330
1F
100
AcDbEntity
  8
0
  6
CONTINUOUS
 62
     7
100
AcDbLine
 10
752.7829038978
 20
302.6505807571
 30
0.0
 11
752.7829038978
 21
345.1505849294
 31
0.0
  0
LINE
  5
426
330
1F
100
AcDbEntity
  8
0
  6
CONTINUOUS
 62
     7
100
AcDbLine
 10
752.7829038978
 20
348.1505835585
 30
0.0
 11
752.7829038978
 21
348.6505845718
 31
0.0
  0
LINE
  5
427
330
1F
100
AcDbEntity
  8
0
  6
CONTINUOUS
 62
     7
100
AcDbLine
 10
752.7829038978
 20
364.6505797438
 30
0.0
 11
752.7829038978
 21
365.1505807571
 31
0.0
  0
LINE
  5
428
330
1F
100
AcDbEntity
  8
0
  6
CONTINUOUS
 62
     7
100
AcDbLine
 10
752.7829038978
 20
368.1505793862
 30
0.0
 11
752.7829038978
 21
540.1505852275
 31
0.0
  0
LINE
  5
429
330
1F
100
AcDbEntity
  8
0
  6
CONTINUOUS
 62
     7
100
AcDbLine
 10
752.7829038978
 20
543.1505838566
 30
0.0
 11
752.7829038978
 21
543.6505848698
 31
0.0
  0
LINE
  5
42A
330
1F
100
AcDbEntity
  8
0
  6
CONTINUOUS
 62
     7
100
AcDbLine
 10
752.7829038978
 20
559.6505800419
 30
0.0
 11
752.7829038978
 21
560.1505810551
 31
0.0
  0
LINE
  5
42B
330
1F
100
AcDbEntity
  8
0
  6
CONTINUOUS
 62
     7
100
AcDbLine
 10
752.7829038978
 20
563.1505796842
 30
0.0
 11
752.7829038978
 21
605.6505838566
 31
0.0
  0
LINE
  5
42C
330
1F
100
AcDbEntity
  8
0
  6
CONTINUOUS
 62
     7
100
AcDbLine
 10
760.2829037302
 20
609.943474286
 30
0.0
 11
751.7829037339
 21
609.943474286
 31
0.0
  0
LINE
  5
42D
330
1F
100
AcDbEntity
  8
0
  6
CONTINUOUS
 62
     7
100
AcDbLine
 10
760.2829037302
 20
298.3576903276
 30
0.0
 11
751.7829037339
 21
298.3576903276
 31
0.0
  0
LINE
  5
42E
330
1F
100
AcDbEntity
  8
0
  6
CONTINUOUS
 62
     7
100
AcDbLine
 10
751.7829037339
 20
298.3576903276
 30
0.0
 11
751.7829037339
 21
345.1505849294
 31
0.0
  0
LINE
  5
42F
330
1F
100
AcDbEntity
  8
0
  6
CONTINUOUS
 62
     7
100
AcDbLine
 10
751.7829037339
 20
348.1505835585
 30
0.0
 11
751.7829037339
 21
348.6505845718
 31
0.0
  0
LINE
  5
430
330
1F
100
AcDbEntity
  8
0
  6
CONTINUOUS
 62
     7
100
AcDbLine
 10
751.7829037339
 20
364.6505797438
 30
0.0
 11
751.7829037339
 21
365.1505807571
 31
0.0
  0
LINE
  5
431
330
1F
100
AcDbEntity
  8
0
  6
CONTINUOUS
 62
     7
100
AcDbLine
 10
751.7829037339
 20
368.1505793862
 30
0.0
 11
751.7829037339
 21
540.1505852275
 31
0.0
  0
LINE
  5
432
330
1F
100
AcDbEntity
  8
0
  6
CONTINUOUS
 62
     7
100
AcDbLine
 10
751.7829037339
 20
543.1505838566
 30
0.0
 11
751.7829037339
 21
543.6505848698
 31
0.0
  0
LINE
  5
433
330
1F
100
AcDbEntity
  8
0
  6
CONTINUOUS
 62
     7
100
AcDbLine
 10
751.7829037339
 20
559.6505800419
 30
0.0
 11
751.7829037339
 21
560.1505810551
 31
0.0
  0
LINE
  5
434
330
1F
100
AcDbEntity
  8
0
  6
CONTINUOUS
 62
     7
100
AcDbLine
 10
751.7829037339
 20
563.1505796842
 30
0.0
 11
751.7829037339
 21
609.943474286
 31
0.0
  0
ARC
  5
435
330
1F
100
AcDbEntity
  8
0
  6
CONTINUOUS
 62
     7
100
AcDbCircle
 10
754.2097339905
 20
344.4913172873
 30
0.0
 40
46.53165510855575
100
AcDbArc
 50
277.4994659361
 51
279.9912887588
  0
LWPOLYLINE
  5
436
330
1F
100
AcDbEntity
  8
0
  6
CONTINUOUS
 62
     7
100
AcDbPolyline
 90
        3
 70
   128
 43
0.0
 10
760.2829037302
 20
609.943474286
 10
761.2808244836
 20
609.7975323133
 10
762.2829038252
 20
609.6354970865
  0
ARC
  5
437
330
1F
100
AcDbEntity
  8
0
  6
CONTINUOUS
 62
     7
100
AcDbCircle
 10
760.2950390376
 20
609.1873845886
 30
0.0
 40
1.463244822072187
100
AcDbArc
 50
22.092027878
 51
90.4751835492
  0
LINE
  5
438
330
1F
100
AcDbEntity
  8
0
  6
CONTINUOUS
 62
     7
100
AcDbLine
 10
760.2829037302
 20
612.6505831413
 30
0.0
 11
760.2829037302
 21
610.6505790882
 31
0.0
  0
ARC
  5
439
330
1F
100
AcDbEntity
  8
0
  6
CONTINUOUS
 62
     7
100
AcDbCircle
 10
760.4742714854
 20
609.7842653255
 30
0.0
 40
2.872698981560764
100
AcDbArc
 50
50.9798687731
 51
93.819645072
  0
LWPOLYLINE
  5
43A
330
1F
100
AcDbEntity
  8
0
  6
CONTINUOUS
 62
     7
100
AcDbPolyline
 90
        3
 70
   128
 43
0.0
 10
760.2829037302
 20
295.6505814724
 10
761.2808244836
 20
295.795867794
 10
762.2829038252
 20
296.2918082409
  0
LINE
  5
43B
330
1F
100
AcDbEntity
  8
0
  6
CONTINUOUS
 62
     7
100
AcDbLine
 10
760.2829037302
 20
295.6505814724
 30
0.0
 11
760.2829037302
 21
297.6505855255
 31
0.0
  0
ARC
  5
43C
330
1F
100
AcDbEntity
  8
0
  6
CONTINUOUS
 62
     7
100
AcDbCircle
 10
760.3444565207
 20
299.0285789841
 30
0.0
 40
1.379367506494404
100
AcDbArc
 50
267.4423881937
 51
340.2412050414
  0
LINE
  5
43D
330
1F
100
AcDbEntity
  8
0
  6
CONTINUOUS
 62
     7
100
AcDbLine
 10
760.2829037302
 20
295.6505814724
 30
0.0
 11
751.7829037339
 21
295.6505814724
 31
0.0
  0
LINE
  5
43E
330
1F
100
AcDbEntity
  8
0
  6
CONTINUOUS
 62
     7
100
AcDbLine
 10
760.2829037302
 20
297.6505855255
 30
0.0
 11
751.7829037339
 21
297.6505855255
 31
0.0
  0
LINE
  5
43F
330
1F
100
AcDbEntity
  8
0
  6
CONTINUOUS
 62
     7
100
AcDbLine
 10
751.7829037339
 20
297.6505855255
 30
0.0
 11
751.7829037339
 21
295.6505814724
 31
0.0
  0
LINE
  5
440
330
1F
100
AcDbEntity
  8
0
  6
CONTINUOUS
 62
     7
100
AcDbLine
 10
751.7829037339
 20
612.6505831413
 30
0.0
 11
760.2829037302
 21
612.6505831413
 31
0.0
  0
LINE
  5
441
330
1F
100
AcDbEntity
  8
0
  6
CONTINUOUS
 62
     7
100
AcDbLine
 10
751.7829037339
 20
610.6505790882
 30
0.0
 11
751.7829037339
 21
612.6505831413
 31
0.0
  0
LINE
  5
442
330
1F
100
AcDbEntity
  8
0
  6
CONTINUOUS
 62
     7
100
AcDbLine
 10
760.2829037302
 20
610.6505790882
 30
0.0
 11
751.7829037339
 21
610.6505790882
 31
0.0
  0
LINE
  5
443
330
1F
100
AcDbEntity
  8
0
  6
CONTINUOUS
 62
     7
100
AcDbLine
 10
747.4829035879
 20
456.9966808118
 30
0.0
 11
747.4829035879
 21
448.0005825095
 31
0.0
  0
LINE
  5
444
330
1F
100
AcDbEntity
  8
0
  6
CONTINUOUS
 62
     7
100
AcDbLine
 10
747.4829035879
 20
456.9966808118
 30
0.0
 11
748.1829042614
 21
456.9966808118
 31
0.0
  0
LINE
  5
445
330
1F
100
AcDbEntity
  8
0
  6
CONTINUOUS
 62
     7
100
AcDbLine
 10
748.1829042614
 20
456.9966808118
 30
0.0
 11
748.1829042614
 21
448.0005825095
 31
0.0
  0
LINE
  5
446
330
1F
100
AcDbEntity
  8
0
  6
CONTINUOUS
 62
     7
100
AcDbLine
 10
747.4829035879
 20
457.2207153466
 30
0.0
 11
748.1829042614
 21
457.2207153466
 31
0.0
  0
LINE
  5
447
330
1F
100
AcDbEntity
  8
0
  6
CONTINUOUS
 62
     7
100
AcDbLine
 10
747.4829035879
 20
457.2207153466
 30
0.0
 11
747.4829035879
 21
457.1505823329
 31
0.0
  0
LINE
  5
448
330
1F
100
AcDbEntity
  8
0
  6
CONTINUOUS
 62
     7
100
AcDbLine
 10
748.1829042614
 20
457.2207153466
 30
0.0
 11
748.1829042614
 21
457.1505823329
 31
0.0
  0
LINE
  5
449
330
1F
100
AcDbEntity
  8
0
  6
CONTINUOUS
 62
     7
100
AcDbLine
 10
748.2829040915
 20
460.6491794035
 30
0.0
 11
748.2829040915
 21
447.6505821727
 31
0.0
  0
LINE
  5
44A
330
1F
100
AcDbEntity
  8
0
  6
CONTINUOUS
 62
     7
100
AcDbLine
 10
748.2829040915
 20
460.6491794035
 30
0.0
 11
750.282903488
 21
460.6491794035
 31
0.0
  0
LINE
  5
44B
330
1F
100
AcDbEntity
  8
0
  6
CONTINUOUS
 62
     7
100
AcDbLine
 10
750.282903488
 20
460.6491794035
 30
0.0
 11
750.282903488
 21
447.6505821727
 31
0.0
  0
LINE
  5
44C
330
1F
100
AcDbEntity
  8
0
  6
CONTINUOUS
 62
     7
100
AcDbLine
 10
748.2829040915
 20
461.1291821271
 30
0.0
 11
750.282903488
 21
461.1291821271
 31
0.0
  0
LINE
  5
44D
330
1F
100
AcDbEntity
  8
0
  6
CONTINUOUS
 62
     7
100
AcDbLine
 10
750.282903488
 20
461.0676077351
 30
0.0
 11
750.282903488
 21
460.6491794035
 31
0.0
  0
LINE
  5
44E
330
1F
100
AcDbEntity
  8
0
  6
CONTINUOUS
 62
     7
100
AcDbLine
 10
748.2829040915
 20
461.1291821271
 30
0.0
 11
748.2829040915
 21
460.6491794035
 31
0.0
  0
LINE
  5
44F
330
1F
100
AcDbEntity
  8
0
  6
CONTINUOUS
 62
     7
100
AcDbLine
 10
767.0829038203
 20
447.5505823426
 30
0.0
 11
767.0829038203
 21
460.7505822711
 31
0.0
  0
LINE
  5
450
330
1F
100
AcDbEntity
  8
0
  6
CONTINUOUS
 62
     7
100
AcDbLine
 10
747.2829039276
 20
454.0778641163
 30
0.0
 11
747.2829039276
 21
450.6505821988
 31
0.0
  0
LINE
  5
451
330
1F
100
AcDbEntity
  8
0
  6
CONTINUOUS
 62
     7
100
AcDbLine
 10
747.2829039276
 20
457.6505824149
 30
0.0
 11
747.2829039276
 21
454.0778641163
 31
0.0
  0
LINE
  5
452
330
1F
100
AcDbEntity
  8
0
  6
CONTINUOUS
 62
     7
100
AcDbLine
 10
746.2829037637
 20
457.6505824149
 30
0.0
 11
746.2829037637
 21
450.6505821988
 31
0.0
  0
LINE
  5
453
330
1F
100
AcDbEntity
  8
0
  6
CONTINUOUS
 62
     7
100
AcDbLine
 10
764.7829038857
 20
446.2124822818
 30
0.0
 11
764.7829038857
 21
443.1505823664
 31
0.0
  0
LINE
  5
454
330
1F
100
AcDbEntity
  8
0
  6
CONTINUOUS
 62
     7
100
AcDbLine
 10
764.7829038857
 20
465.1505822472
 30
0.0
 11
764.7829038857
 21
446.2124822818
 31
0.0
  0
LINE
  5
455
330
1F
100
AcDbEntity
  8
0
  6
CONTINUOUS
 62
     7
100
AcDbLine
 10
766.7829038643
 20
463.1505819194
 30
0.0
 11
766.7829038643
 21
445.1505826943
 31
0.0
  0
LINE
  5
456
330
1F
100
AcDbEntity
  8
0
  6
CONTINUOUS
 62
     7
100
AcDbLine
 10
750.282903488
 20
449.4598872185
 30
0.0
 11
750.282903488
 21
460.6491794035
 31
0.0
  0
LINE
  5
457
330
1F
100
AcDbEntity
  8
0
  6
CONTINUOUS
 62
     7
100
AcDbLine
 10
750.282903488
 20
447.6505826384
 30
0.0
 11
750.282903488
 21
449.4598872185
 31
0.0
  0
LINE
  5
458
330
1F
100
AcDbEntity
  8
0
  6
CONTINUOUS
 62
     8
100
AcDbLine
 10
761.2829038941
 20
607.6505879097
 30
0.0
 11
761.2829038941
 21
563.1505796842
 31
0.0
  0
LINE
  5
459
330
1F
100
AcDbEntity
  8
0
  6
CONTINUOUS
 62
     8
100
AcDbLine
 10
761.2829038941
 20
560.1505810551
 30
0.0
 11
761.2829038941
 21
559.6505800419
 31
0.0
  0
LINE
  5
45A
330
1F
100
AcDbEntity
  8
0
  6
CONTINUOUS
 62
     8
100
AcDbLine
 10
761.2829038941
 20
543.6505848698
 30
0.0
 11
761.2829038941
 21
543.1505838566
 31
0.0
  0
LINE
  5
45B
330
1F
100
AcDbEntity
  8
0
  6
CONTINUOUS
 62
     8
100
AcDbLine
 10
761.2829038941
 20
540.1505852275
 30
0.0
 11
761.2829038941
 21
368.1505793862
 31
0.0
  0
LINE
  5
45C
330
1F
100
AcDbEntity
  8
0
  6
CONTINUOUS
 62
     8
100
AcDbLine
 10
761.2829038941
 20
365.1505807571
 30
0.0
 11
761.2829038941
 21
364.6505797438
 31
0.0
  0
LINE
  5
45D
330
1F
100
AcDbEntity
  8
0
  6
CONTINUOUS
 62
     8
100
AcDbLine
 10
761.2829038941
 20
348.6505845718
 30
0.0
 11
761.2829038941
 21
348.1505835585
 31
0.0
  0
LINE
  5
45E
330
1F
100
AcDbEntity
  8
0
  6
CONTINUOUS
 62
     8
100
AcDbLine
 10
761.2829038941
 20
345.1505849294
 30
0.0
 11
761.2829038941
 21
300.650576704
 31
0.0
  0
LINE
  5
45F
330
1F
100
AcDbEntity
  8
0
  6
CONTINUOUS
 62
     8
100
AcDbLine
 10
760.2829037302
 20
609.943474286
 30
0.0
 11
760.2829037302
 21
607.6505879097
 31
0.0
  0
LINE
  5
460
330
1F
100
AcDbEntity
  8
0
  6
CONTINUOUS
 62
     8
100
AcDbLine
 10
760.2829037302
 20
300.650576704
 30
0.0
 11
760.2829037302
 21
298.3576903276
 31
0.0
  0
LINE
  5
461
330
1F
100
AcDbEntity
  8
0
  6
CONTINUOUS
 62
     8
100
AcDbLine
 10
766.8329037794
 20
461.000582312
 30
0.0
 11
766.8329037794
 21
447.3005823016
 31
0.0
  0
LINE
  5
462
330
1F
100
AcDbEntity
  8
0
  6
CONTINUOUS
 62
     8
100
AcDbLine
 10
750.78290357
 20
447.1505820908
 30
0.0
 11
750.78290357
 21
461.1505825229
 31
0.0
  0
LINE
  5
463
330
1F
100
AcDbEntity
  8
0
  6
CONTINUOUS
 62
     7
100
AcDbLine
 10
1169.3719688235
 20
294.1505858831
 30
0.0
 11
986.8719715057
 21
294.1505858831
 31
0.0
  0
LINE
  5
464
330
1F
100
AcDbEntity
  8
0
  6
CONTINUOUS
 62
     7
100
AcDbLine
 10
1169.3719688235
 20
294.1505858831
 30
0.0
 11
1169.3719688235
 21
291.6505882673
 31
0.0
  0
LINE
  5
465
330
1F
100
AcDbEntity
  8
0
  6
CONTINUOUS
 62
     7
100
AcDbLine
 10
1169.3719688235
 20
291.6505882673
 30
0.0
 11
986.8719715057
 21
291.6505882673
 31
0.0
  0
LINE
  5
466
330
1F
100
AcDbEntity
  8
0
  6
CONTINUOUS
 62
     7
100
AcDbLine
 10
986.8719715057
 20
291.6505882673
 30
0.0
 11
986.8719715057
 21
294.1505858831
 31
0.0
  0
ARC
  5
467
330
1F
100
AcDbEntity
  8
0
  6
CONTINUOUS
 62
     7
100
AcDbCircle
 10
989.8719716845
 20
295.1505823068
 30
0.0
 40
3.0
100
AcDbArc
 50
90.0
 51
180.0
  0
LINE
  5
468
330
1F
100
AcDbEntity
  8
0
  6
CONTINUOUS
 62
     7
100
AcDbLine
 10
1166.3719701944
 20
298.1505790882
 30
0.0
 11
989.8719701348
 21
298.1505790882
 31
0.0
  0
ARC
  5
469
330
1F
100
AcDbEntity
  8
0
  6
CONTINUOUS
 62
     7
100
AcDbCircle
 10
1166.3719716845
 20
295.1505823068
 30
0.0
 40
3.0
100
AcDbArc
 50
0.0
 51
90.0
  0
LINE
  5
46A
330
1F
100
AcDbEntity
  8
0
  6
CONTINUOUS
 62
     7
100
AcDbLine
 10
1169.3719688235
 20
294.1505858831
 30
0.0
 11
1169.3719688235
 21
295.1505879097
 31
0.0
  0
LINE
  5
46B
330
1F
100
AcDbEntity
  8
0
  6
CONTINUOUS
 62
     7
100
AcDbLine
 10
986.8719715057
 20
295.1505879097
 30
0.0
 11
986.8719715057
 21
294.1505858831
 31
0.0
  0
LINE
  5
46C
330
1F
100
AcDbEntity
  8
0
  6
CONTINUOUS
 62
     7
100
AcDbLine
 10
976.8719735919
 20
293.1505838566
 30
0.0
 11
976.8719735919
 21
291.6505882673
 31
0.0
  0
LINE
  5
46D
330
1F
100
AcDbEntity
  8
0
  6
CONTINUOUS
 62
     7
100
AcDbLine
 10
976.8719735919
 20
293.1505838566
 30
0.0
 11
986.8719715057
 21
293.1505838566
 31
0.0
  0
LINE
  5
46E
330
1F
100
AcDbEntity
  8
0
  6
CONTINUOUS
 62
     7
100
AcDbLine
 10
976.8719735919
 20
291.6505882673
 30
0.0
 11
986.8719715057
 21
291.6505882673
 31
0.0
  0
LINE
  5
46F
330
1F
100
AcDbEntity
  8
0
  6
CONTINUOUS
 62
     7
100
AcDbLine
 10
1179.3719741879
 20
291.6505882673
 30
0.0
 11
1179.3719741879
 21
293.1505838566
 31
0.0
  0
LINE
  5
470
330
1F
100
AcDbEntity
  8
0
  6
CONTINUOUS
 62
     7
100
AcDbLine
 10
1169.3719688235
 20
293.1505838566
 30
0.0
 11
1179.3719741879
 21
293.1505838566
 31
0.0
  0
LINE
  5
471
330
1F
100
AcDbEntity
  8
0
  6
CONTINUOUS
 62
     7
100
AcDbLine
 10
1169.3719688235
 20
291.6505882673
 30
0.0
 11
1179.3719741879
 21
291.6505882673
 31
0.0
  0
LINE
  5
472
330
1F
100
AcDbEntity
  8
0
  6
CONTINUOUS
 62
     7
100
AcDbLine
 10
974.8719695388
 20
291.6505882673
 30
0.0
 11
974.8719695388
 21
293.1505838566
 31
0.0
  0
LINE
  5
473
330
1F
100
AcDbEntity
  8
0
  6
CONTINUOUS
 62
     7
100
AcDbLine
 10
974.8719695388
 20
293.1505838566
 30
0.0
 11
976.8719735919
 21
293.1505838566
 31
0.0
  0
LINE
  5
474
330
1F
100
AcDbEntity
  8
0
  6
CONTINUOUS
 62
     7
100
AcDbLine
 10
976.8719735919
 20
291.6505882673
 30
0.0
 11
974.8719695388
 21
291.6505882673
 31
0.0
  0
LINE
  5
475
330
1F
100
AcDbEntity
  8
0
  6
CONTINUOUS
 62
     7
100
AcDbLine
 10
1181.3719707905
 20
293.1505838566
 30
0.0
 11
1181.3719707905
 21
291.6505882673
 31
0.0
  0
LINE
  5
476
330
1F
100
AcDbEntity
  8
0
  6
CONTINUOUS
 62
     7
100
AcDbLine
 10
1179.3719741879
 20
293.1505838566
 30
0.0
 11
1181.3719707905
 21
293.1505838566
 31
0.0
  0
LINE
  5
477
330
1F
100
AcDbEntity
  8
0
  6
CONTINUOUS
 62
     7
100
AcDbLine
 10
1181.3719707905
 20
291.6505882673
 30
0.0
 11
1179.3719741879
 21
291.6505882673
 31
0.0
  0
LINE
  5
478
330
1F
100
AcDbEntity
  8
0
  6
CONTINUOUS
 62
     7
100
AcDbLine
 10
974.8719695388
 20
291.6505882673
 30
0.0
 11
974.8719695388
 21
290.6505862407
 31
0.0
  0
LINE
  5
479
330
1F
100
AcDbEntity
  8
0
  6
CONTINUOUS
 62
     7
100
AcDbLine
 10
1181.3719707905
 20
290.6505862407
 30
0.0
 11
1181.3719707905
 21
291.6505882673
 31
0.0
  0
LINE
  5
47A
330
1F
100
AcDbEntity
  8
0
  6
CONTINUOUS
 62
     7
100
AcDbLine
 10
974.8719695388
 20
290.6505862407
 30
0.0
 11
1181.3719707905
 21
290.6505862407
 31
0.0
  0
LINE
  5
47B
330
1F
100
AcDbEntity
  8
0
  6
CONTINUOUS
 62
     7
100
AcDbLine
 10
974.8719695388
 20
289.9005809955
 30
0.0
 11
974.8719695388
 21
290.6505862407
 31
0.0
  0
LINE
  5
47C
330
1F
100
AcDbEntity
  8
0
  6
CONTINUOUS
 62
     7
100
AcDbLine
 10
1181.3719707905
 20
290.6505862407
 30
0.0
 11
1181.3719707905
 21
289.9005809955
 31
0.0
  0
LINE
  5
47D
330
1F
100
AcDbEntity
  8
0
  6
CONTINUOUS
 62
     7
100
AcDbLine
 10
1181.3719707905
 20
289.9005809955
 30
0.0
 11
1182.1219685851
 21
289.9005809955
 31
0.0
  0
LINE
  5
47E
330
1F
100
AcDbEntity
  8
0
  6
CONTINUOUS
 62
     7
100
AcDbLine
 10
1182.1219685851
 20
289.9005809955
 30
0.0
 11
1182.1219685851
 21
293.1505838566
 31
0.0
  0
LINE
  5
47F
330
1F
100
AcDbEntity
  8
0
  6
CONTINUOUS
 62
     7
100
AcDbLine
 10
1182.1219685851
 20
293.1505838566
 30
0.0
 11
1183.8719684063
 21
293.1505838566
 31
0.0
  0
ARC
  5
480
330
1F
100
AcDbEntity
  8
0
  6
CONTINUOUS
 62
     7
100
AcDbCircle
 10
1183.8719716845
 20
298.1505823068
 30
0.0
 40
5.0
100
AcDbArc
 50
270.0
 51
0.0
  0
LINE
  5
481
330
1F
100
AcDbEntity
  8
0
  6
CONTINUOUS
 62
     7
100
AcDbLine
 10
1188.8719710885
 20
298.1505790882
 30
0.0
 11
1188.8719710885
 21
300.650576704
 31
0.0
  0
LINE
  5
482
330
1F
100
AcDbEntity
  8
0
  6
CONTINUOUS
 62
     7
100
AcDbLine
 10
1191.3719687043
 20
300.650576704
 30
0.0
 11
1193.6219695388
 21
300.650576704
 31
0.0
  0
LINE
  5
483
330
1F
100
AcDbEntity
  8
0
  6
CONTINUOUS
 62
     7
100
AcDbLine
 10
1193.6219695388
 20
300.650576704
 30
0.0
 11
1196.6219681679
 21
303.6505827837
 31
0.0
  0
LINE
  5
484
330
1F
100
AcDbEntity
  8
0
  6
CONTINUOUS
 62
     7
100
AcDbLine
 10
1196.6219681679
 20
303.6505827837
 30
0.0
 11
1200.6219688235
 21
303.6505827837
 31
0.0
  0
LINE
  5
485
330
1F
100
AcDbEntity
  8
0
  6
CONTINUOUS
 62
     7
100
AcDbLine
 10
1200.6219688235
 20
303.6505827837
 30
0.0
 11
1203.6219749032
 21
300.650576704
 31
0.0
  0
LINE
  5
486
330
1F
100
AcDbEntity
  8
0
  6
CONTINUOUS
 62
     7
100
AcDbLine
 10
1203.6219749032
 20
300.650576704
 30
0.0
 11
1208.3719733535
 21
300.650576704
 31
0.0
  0
LINE
  5
487
330
1F
100
AcDbEntity
  8
0
  6
CONTINUOUS
 62
     7
100
AcDbLine
 10
1208.3719733535
 20
300.650576704
 30
0.0
 11
1208.3719733535
 21
297.1505770616
 31
0.0
  0
ARC
  5
488
330
1F
100
AcDbEntity
  8
0
  6
CONTINUOUS
 62
     7
100
AcDbCircle
 10
1200.3719716845
 20
297.1505823068
 30
0.0
 40
8.000000000000025
100
AcDbArc
 50
315.0
 51
0.0
  0
LINE
  5
489
330
1F
100
AcDbEntity
  8
0
  6
CONTINUOUS
 62
     7
100
AcDbLine
 10
1206.0288253604
 20
291.4937237434
 30
0.0
 11
1190.528823751
 21
275.9937295847
 31
0.0
  0
ARC
  5
48A
330
1F
100
AcDbEntity
  8
0
  6
CONTINUOUS
 62
     7
100
AcDbCircle
 10
1184.8719716845
 20
281.6505823068
 30
0.0
 40
8.000000000000064
100
AcDbArc
 50
270.0
 51
315.0
  0
LINE
  5
48B
330
1F
100
AcDbEntity
  8
0
  6
CONTINUOUS
 62
     7
100
AcDbLine
 10
1184.8719704328
 20
273.6505815916
 30
0.0
 11
971.3719698964
 21
273.6505815916
 31
0.0
  0
ARC
  5
48C
330
1F
100
AcDbEntity
  8
0
  6
CONTINUOUS
 62
     7
100
AcDbCircle
 10
971.3719716845
 20
281.6505823068
 30
0.0
 40
8.000000000000064
100
AcDbArc
 50
225.0
 51
270.0
  0
LINE
  5
48D
330
1F
100
AcDbEntity
  8
0
  6
CONTINUOUS
 62
     7
100
AcDbLine
 10
965.7151165782
 20
275.9937295847
 30
0.0
 11
950.2151224194
 21
291.4937237434
 31
0.0
  0
ARC
  5
48E
330
1F
100
AcDbEntity
  8
0
  6
CONTINUOUS
 62
     7
100
AcDbCircle
 10
955.8719716845
 20
297.1505823068
 30
0.0
 40
7.999999999999984
100
AcDbArc
 50
180.0
 51
225.0
  0
LINE
  5
48F
330
1F
100
AcDbEntity
  8
0
  6
CONTINUOUS
 62
     7
100
AcDbLine
 10
947.8719744263
 20
297.1505770616
 30
0.0
 11
947.8719744263
 21
300.650576704
 31
0.0
  0
LINE
  5
490
330
1F
100
AcDbEntity
  8
0
  6
CONTINUOUS
 62
     7
100
AcDbLine
 10
947.8719744263
 20
300.650576704
 30
0.0
 11
952.6219728766
 21
300.650576704
 31
0.0
  0
LINE
  5
491
330
1F
100
AcDbEntity
  8
0
  6
CONTINUOUS
 62
     7
100
AcDbLine
 10
952.6219728766
 20
300.650576704
 30
0.0
 11
955.6219715057
 21
303.6505827837
 31
0.0
  0
LINE
  5
492
330
1F
100
AcDbEntity
  8
0
  6
CONTINUOUS
 62
     7
100
AcDbLine
 10
955.6219715057
 20
303.6505827837
 30
0.0
 11
959.6219721614
 21
303.6505827837
 31
0.0
  0
LINE
  5
493
330
1F
100
AcDbEntity
  8
0
  6
CONTINUOUS
 62
     7
100
AcDbLine
 10
959.6219721614
 20
303.6505827837
 30
0.0
 11
962.6219707905
 21
300.650576704
 31
0.0
  0
LINE
  5
494
330
1F
100
AcDbEntity
  8
0
  6
CONTINUOUS
 62
     7
100
AcDbLine
 10
962.6219707905
 20
300.650576704
 30
0.0
 11
964.8719716249
 21
300.650576704
 31
0.0
  0
LINE
  5
495
330
1F
100
AcDbEntity
  8
0
  6
CONTINUOUS
 62
     7
100
AcDbLine
 10
967.3719692407
 20
300.650576704
 30
0.0
 11
967.3719692407
 21
298.1505790882
 31
0.0
  0
ARC
  5
496
330
1F
100
AcDbEntity
  8
0
  6
CONTINUOUS
 62
     7
100
AcDbCircle
 10
972.3719716845
 20
298.1505823068
 30
0.0
 40
5.000000000000114
100
AcDbArc
 50
180.0
 51
270.0
  0
LINE
  5
497
330
1F
100
AcDbEntity
  8
0
  6
CONTINUOUS
 62
     7
100
AcDbLine
 10
972.3719719229
 20
293.1505838566
 30
0.0
 11
974.1219717441
 21
293.1505838566
 31
0.0
  0
LINE
  5
498
330
1F
100
AcDbEntity
  8
0
  6
CONTINUOUS
 62
     7
100
AcDbLine
 10
974.1219717441
 20
293.1505838566
 30
0.0
 11
974.1219717441
 21
289.9005809955
 31
0.0
  0
LINE
  5
499
330
1F
100
AcDbEntity
  8
0
  6
CONTINUOUS
 62
     7
100
AcDbLine
 10
974.1219717441
 20
289.9005809955
 30
0.0
 11
974.8719695388
 21
289.9005809955
 31
0.0
  0
LINE
  5
49A
330
1F
100
AcDbEntity
  8
0
  6
CONTINUOUS
 62
     7
100
AcDbLine
 10
974.8719695388
 20
615.1505807571
 30
0.0
 11
974.8719695388
 21
616.6505763464
 31
0.0
  0
LINE
  5
49B
330
1F
100
AcDbEntity
  8
0
  6
CONTINUOUS
 62
     7
100
AcDbLine
 10
974.8719695388
 20
616.6505763464
 30
0.0
 11
976.8719735919
 21
616.6505763464
 31
0.0
  0
LINE
  5
49C
330
1F
100
AcDbEntity
  8
0
  6
CONTINUOUS
 62
     7
100
AcDbLine
 10
976.8719735919
 20
616.6505763464
 30
0.0
 11
976.8719735919
 21
615.1505807571
 31
0.0
  0
LINE
  5
49D
330
1F
100
AcDbEntity
  8
0
  6
CONTINUOUS
 62
     7
100
AcDbLine
 10
976.8719735919
 20
615.1505807571
 30
0.0
 11
974.8719695388
 21
615.1505807571
 31
0.0
  0
LINE
  5
49E
330
1F
100
AcDbEntity
  8
0
  6
CONTINUOUS
 62
     7
100
AcDbLine
 10
1179.3719741879
 20
615.1505807571
 30
0.0
 11
1179.3719741879
 21
616.6505763464
 31
0.0
  0
LINE
  5
49F
330
1F
100
AcDbEntity
  8
0
  6
CONTINUOUS
 62
     7
100
AcDbLine
 10
1179.3719741879
 20
615.1505807571
 30
0.0
 11
976.8719735919
 21
615.1505807571
 31
0.0
  0
LINE
  5
4A0
330
1F
100
AcDbEntity
  8
0
  6
CONTINUOUS
 62
     7
100
AcDbLine
 10
1179.3719741879
 20
616.6505763464
 30
0.0
 11
976.8719735919
 21
616.6505763464
 31
0.0
  0
LINE
  5
4A1
330
1F
100
AcDbEntity
  8
0
  6
CONTINUOUS
 62
     7
100
AcDbLine
 10
1181.3719707905
 20
616.6505763464
 30
0.0
 11
1181.3719707905
 21
615.1505807571
 31
0.0
  0
LINE
  5
4A2
330
1F
100
AcDbEntity
  8
0
  6
CONTINUOUS
 62
     7
100
AcDbLine
 10
1181.3719707905
 20
615.1505807571
 30
0.0
 11
1179.3719741879
 21
615.1505807571
 31
0.0
  0
LINE
  5
4A3
330
1F
100
AcDbEntity
  8
0
  6
CONTINUOUS
 62
     7
100
AcDbLine
 10
1179.3719741879
 20
616.6505763464
 30
0.0
 11
1181.3719707905
 21
616.6505763464
 31
0.0
  0
LINE
  5
4A4
330
1F
100
AcDbEntity
  8
0
  6
CONTINUOUS
 62
     7
100
AcDbLine
 10
1181.3719707905
 20
616.6505763464
 30
0.0
 11
1181.3719707905
 21
617.6505783729
 31
0.0
  0
LINE
  5
4A5
330
1F
100
AcDbEntity
  8
0
  6
CONTINUOUS
 62
     7
100
AcDbLine
 10
974.8719695388
 20
617.6505783729
 30
0.0
 11
974.8719695388
 21
616.6505763464
 31
0.0
  0
LINE
  5
4A6
330
1F
100
AcDbEntity
  8
0
  6
CONTINUOUS
 62
     7
100
AcDbLine
 10
1181.3719707905
 20
617.6505783729
 30
0.0
 11
974.8719695388
 21
617.6505783729
 31
0.0
  0
LINE
  5
4A7
330
1F
100
AcDbEntity
  8
0
  6
CONTINUOUS
 62
     7
100
AcDbLine
 10
1181.3719707905
 20
618.4005836181
 30
0.0
 11
1181.3719707905
 21
617.6505783729
 31
0.0
  0
LINE
  5
4A8
330
1F
100
AcDbEntity
  8
0
  6
CONTINUOUS
 62
     7
100
AcDbLine
 10
974.8719695388
 20
617.6505783729
 30
0.0
 11
974.8719695388
 21
618.4005836181
 31
0.0
  0
LINE
  5
4A9
330
1F
100
AcDbEntity
  8
0
  6
CONTINUOUS
 62
     7
100
AcDbLine
 10
974.8719695388
 20
618.4005836181
 30
0.0
 11
974.1219717441
 21
618.4005836181
 31
0.0
  0
LINE
  5
4AA
330
1F
100
AcDbEntity
  8
0
  6
CONTINUOUS
 62
     7
100
AcDbLine
 10
974.1219717441
 20
618.4005836181
 30
0.0
 11
974.1219717441
 21
615.1505807571
 31
0.0
  0
LINE
  5
4AB
330
1F
100
AcDbEntity
  8
0
  6
CONTINUOUS
 62
     7
100
AcDbLine
 10
974.1219717441
 20
615.1505807571
 30
0.0
 11
972.3719719229
 21
615.1505807571
 31
0.0
  0
ARC
  5
4AC
330
1F
100
AcDbEntity
  8
0
  6
CONTINUOUS
 62
     7
100
AcDbCircle
 10
972.3719716845
 20
610.1505823068
 30
0.0
 40
5.000000000000114
100
AcDbArc
 50
90.0
 51
180.0
  0
LINE
  5
4AD
330
1F
100
AcDbEntity
  8
0
  6
CONTINUOUS
 62
     7
100
AcDbLine
 10
967.3719692407
 20
610.1505855255
 30
0.0
 11
967.3719692407
 21
607.6505879097
 31
0.0
  0
LINE
  5
4AE
330
1F
100
AcDbEntity
  8
0
  6
CONTINUOUS
 62
     7
100
AcDbLine
 10
964.8719716249
 20
607.6505879097
 30
0.0
 11
962.6219707905
 21
607.6505879097
 31
0.0
  0
LINE
  5
4AF
330
1F
100
AcDbEntity
  8
0
  6
CONTINUOUS
 62
     7
100
AcDbLine
 10
962.6219707905
 20
607.6505879097
 30
0.0
 11
959.6219721614
 21
604.65058183
 31
0.0
  0
LINE
  5
4B0
330
1F
100
AcDbEntity
  8
0
  6
CONTINUOUS
 62
     7
100
AcDbLine
 10
959.6219721614
 20
604.65058183
 30
0.0
 11
955.6219715057
 21
604.65058183
 31
0.0
  0
LINE
  5
4B1
330
1F
100
AcDbEntity
  8
0
  6
CONTINUOUS
 62
     7
100
AcDbLine
 10
955.6219715057
 20
604.65058183
 30
0.0
 11
952.6219728766
 21
607.6505879097
 31
0.0
  0
LINE
  5
4B2
330
1F
100
AcDbEntity
  8
0
  6
CONTINUOUS
 62
     7
100
AcDbLine
 10
952.6219728766
 20
607.6505879097
 30
0.0
 11
947.8719744263
 21
607.6505879097
 31
0.0
  0
LINE
  5
4B3
330
1F
100
AcDbEntity
  8
0
  6
CONTINUOUS
 62
     7
100
AcDbLine
 10
947.8719744263
 20
607.6505879097
 30
0.0
 11
947.8719744263
 21
611.150587552
 31
0.0
  0
ARC
  5
4B4
330
1F
100
AcDbEntity
  8
0
  6
CONTINUOUS
 62
     7
100
AcDbCircle
 10
955.8719716845
 20
611.1505823068
 30
0.0
 40
8.000000000000064
100
AcDbArc
 50
135.0
 51
180.0
  0
LINE
  5
4B5
330
1F
100
AcDbEntity
  8
0
  6
CONTINUOUS
 62
     7
100
AcDbLine
 10
950.2151224194
 20
616.8074408703
 30
0.0
 11
965.7151165782
 21
632.307435029
 31
0.0
  0
ARC
  5
4B6
330
1F
100
AcDbEntity
  8
0
  6
CONTINUOUS
 62
     7
100
AcDbCircle
 10
971.3719716845
 20
626.6505823068
 30
0.0
 40
8.0
100
AcDbArc
 50
90.0
 51
135.0
  0
LINE
  5
4B7
330
1F
100
AcDbEntity
  8
0
  6
CONTINUOUS
 62
     7
100
AcDbLine
 10
971.3719698964
 20
634.6505830221
 30
0.0
 11
1184.8719704328
 21
634.6505830221
 31
0.0
  0
ARC
  5
4B8
330
1F
100
AcDbEntity
  8
0
  6
CONTINUOUS
 62
     7
100
AcDbCircle
 10
1184.8719716845
 20
626.6505823068
 30
0.0
 40
8.000000000000064
100
AcDbArc
 50
45.0
 51
90.0
  0
LINE
  5
4B9
330
1F
100
AcDbEntity
  8
0
  6
CONTINUOUS
 62
     7
100
AcDbLine
 10
1190.528823751
 20
632.307435029
 30
0.0
 11
1206.0288253604
 21
616.8074408703
 31
0.0
  0
ARC
  5
4BA
330
1F
100
AcDbEntity
  8
0
  6
CONTINUOUS
 62
     7
100
AcDbCircle
 10
1200.3719716845
 20
611.1505823068
 30
0.0
 40
8.000000000000144
100
AcDbArc
 50
0.0
 51
45.0
  0
LINE
  5
4BB
330
1F
100
AcDbEntity
  8
0
  6
CONTINUOUS
 62
     7
100
AcDbLine
 10
1208.3719733535
 20
611.150587552
 30
0.0
 11
1208.3719733535
 21
607.6505879097
 31
0.0
  0
LINE
  5
4BC
330
1F
100
AcDbEntity
  8
0
  6
CONTINUOUS
 62
     7
100
AcDbLine
 10
1208.3719733535
 20
607.6505879097
 30
0.0
 11
1203.6219749032
 21
607.6505879097
 31
0.0
  0
LINE
  5
4BD
330
1F
100
AcDbEntity
  8
0
  6
CONTINUOUS
 62
     7
100
AcDbLine
 10
1203.6219749032
 20
607.6505879097
 30
0.0
 11
1200.6219688235
 21
604.65058183
 31
0.0
  0
LINE
  5
4BE
330
1F
100
AcDbEntity
  8
0
  6
CONTINUOUS
 62
     7
100
AcDbLine
 10
1200.6219688235
 20
604.65058183
 30
0.0
 11
1196.6219681679
 21
604.65058183
 31
0.0
  0
LINE
  5
4BF
330
1F
100
AcDbEntity
  8
0
  6
CONTINUOUS
 62
     7
100
AcDbLine
 10
1196.6219681679
 20
604.65058183
 30
0.0
 11
1193.6219695388
 21
607.6505879097
 31
0.0
  0
LINE
  5
4C0
330
1F
100
AcDbEntity
  8
0
  6
CONTINUOUS
 62
     7
100
AcDbLine
 10
1193.6219695388
 20
607.6505879097
 30
0.0
 11
1191.3719687043
 21
607.6505879097
 31
0.0
  0
LINE
  5
4C1
330
1F
100
AcDbEntity
  8
0
  6
CONTINUOUS
 62
     7
100
AcDbLine
 10
1188.8719710885
 20
607.6505879097
 30
0.0
 11
1188.8719710885
 21
610.1505855255
 31
0.0
  0
ARC
  5
4C2
330
1F
100
AcDbEntity
  8
0
  6
CONTINUOUS
 62
     7
100
AcDbCircle
 10
1183.8719716845
 20
610.1505823068
 30
0.0
 40
5.000000000000114
100
AcDbArc
 50
0.0
 51
90.0
  0
LINE
  5
4C3
330
1F
100
AcDbEntity
  8
0
  6
CONTINUOUS
 62
     7
100
AcDbLine
 10
1183.8719684063
 20
615.1505807571
 30
0.0
 11
1182.1219685851
 21
615.1505807571
 31
0.0
  0
LINE
  5
4C4
330
1F
100
AcDbEntity
  8
0
  6
CONTINUOUS
 62
     7
100
AcDbLine
 10
1182.1219685851
 20
615.1505807571
 30
0.0
 11
1182.1219685851
 21
618.4005836181
 31
0.0
  0
LINE
  5
4C5
330
1F
100
AcDbEntity
  8
0
  6
CONTINUOUS
 62
     7
100
AcDbLine
 10
1182.1219685851
 20
618.4005836181
 30
0.0
 11
1181.3719707905
 21
618.4005836181
 31
0.0
  0
LINE
  5
4C6
330
1F
100
AcDbEntity
  8
0
  6
CONTINUOUS
 62
     7
100
AcDbLine
 10
947.8719744263
 20
347.150581532
 30
0.0
 11
949.3719700156
 21
347.150581532
 31
0.0
  0
LINE
  5
4C7
330
1F
100
AcDbEntity
  8
0
  6
CONTINUOUS
 62
     7
100
AcDbLine
 10
949.3719700156
 20
347.150581532
 30
0.0
 11
949.3719700156
 21
345.1505849294
 31
0.0
  0
LINE
  5
4C8
330
1F
100
AcDbEntity
  8
0
  6
CONTINUOUS
 62
     7
100
AcDbLine
 10
949.3719700156
 20
345.1505849294
 30
0.0
 11
947.8719744263
 21
345.1505849294
 31
0.0
  0
LINE
  5
4C9
330
1F
100
AcDbEntity
  8
0
  6
CONTINUOUS
 62
     7
100
AcDbLine
 10
947.8719744263
 20
345.1505849294
 30
0.0
 11
947.8719744263
 21
347.150581532
 31
0.0
  0
LINE
  5
4CA
330
1F
100
AcDbEntity
  8
0
  6
CONTINUOUS
 62
     7
100
AcDbLine
 10
947.8719744263
 20
366.1505827837
 30
0.0
 11
947.8719744263
 21
347.150581532
 31
0.0
  0
LINE
  5
4CB
330
1F
100
AcDbEntity
  8
0
  6
CONTINUOUS
 62
     7
100
AcDbLine
 10
949.3719700156
 20
366.1505827837
 30
0.0
 11
947.8719744263
 21
366.1505827837
 31
0.0
  0
LINE
  5
4CC
330
1F
100
AcDbEntity
  8
0
  6
CONTINUOUS
 62
     7
100
AcDbLine
 10
949.3719700156
 20
366.1505827837
 30
0.0
 11
949.3719700156
 21
347.150581532
 31
0.0
  0
LINE
  5
4CD
330
1F
100
AcDbEntity
  8
0
  6
CONTINUOUS
 62
     7
100
AcDbLine
 10
947.8719744263
 20
368.1505793862
 30
0.0
 11
949.3719700156
 21
368.1505793862
 31
0.0
  0
LINE
  5
4CE
330
1F
100
AcDbEntity
  8
0
  6
CONTINUOUS
 62
     7
100
AcDbLine
 10
949.3719700156
 20
368.1505793862
 30
0.0
 11
949.3719700156
 21
366.1505827837
 31
0.0
  0
LINE
  5
4CF
330
1F
100
AcDbEntity
  8
0
  6
CONTINUOUS
 62
     7
100
AcDbLine
 10
947.8719744263
 20
366.1505827837
 30
0.0
 11
947.8719744263
 21
368.1505793862
 31
0.0
  0
LINE
  5
4D0
330
1F
100
AcDbEntity
  8
0
  6
CONTINUOUS
 62
     7
100
AcDbLine
 10
947.8719744263
 20
542.15058183
 30
0.0
 11
949.3719700156
 21
542.15058183
 31
0.0
  0
LINE
  5
4D1
330
1F
100
AcDbEntity
  8
0
  6
CONTINUOUS
 62
     7
100
AcDbLine
 10
949.3719700156
 20
542.15058183
 30
0.0
 11
949.3719700156
 21
540.1505852275
 31
0.0
  0
LINE
  5
4D2
330
1F
100
AcDbEntity
  8
0
  6
CONTINUOUS
 62
     7
100
AcDbLine
 10
949.3719700156
 20
540.1505852275
 30
0.0
 11
947.8719744263
 21
540.1505852275
 31
0.0
  0
LINE
  5
4D3
330
1F
100
AcDbEntity
  8
0
  6
CONTINUOUS
 62
     7
100
AcDbLine
 10
947.8719744263
 20
540.1505852275
 30
0.0
 11
947.8719744263
 21
542.15058183
 31
0.0
  0
LINE
  5
4D4
330
1F
100
AcDbEntity
  8
0
  6
CONTINUOUS
 62
     7
100
AcDbLine
 10
949.3719700156
 20
561.1505830817
 30
0.0
 11
947.8719744263
 21
561.1505830817
 31
0.0
  0
LINE
  5
4D5
330
1F
100
AcDbEntity
  8
0
  6
CONTINUOUS
 62
     7
100
AcDbLine
 10
949.3719700156
 20
542.15058183
 30
0.0
 11
949.3719700156
 21
561.1505830817
 31
0.0
  0
LINE
  5
4D6
330
1F
100
AcDbEntity
  8
0
  6
CONTINUOUS
 62
     7
100
AcDbLine
 10
947.8719744263
 20
542.15058183
 30
0.0
 11
947.8719744263
 21
561.1505830817
 31
0.0
  0
LINE
  5
4D7
330
1F
100
AcDbEntity
  8
0
  6
CONTINUOUS
 62
     7
100
AcDbLine
 10
947.8719744263
 20
563.1505796842
 30
0.0
 11
949.3719700156
 21
563.1505796842
 31
0.0
  0
LINE
  5
4D8
330
1F
100
AcDbEntity
  8
0
  6
CONTINUOUS
 62
     7
100
AcDbLine
 10
949.3719700156
 20
563.1505796842
 30
0.0
 11
949.3719700156
 21
561.1505830817
 31
0.0
  0
LINE
  5
4D9
330
1F
100
AcDbEntity
  8
0
  6
CONTINUOUS
 62
     7
100
AcDbLine
 10
947.8719744263
 20
561.1505830817
 30
0.0
 11
947.8719744263
 21
563.1505796842
 31
0.0
  0
LINE
  5
4DA
330
1F
100
AcDbEntity
  8
0
  6
CONTINUOUS
 62
     7
100
AcDbLine
 10
947.8378954707
 20
348.6505845718
 30
0.0
 11
947.8719744263
 21
348.6505845718
 31
0.0
  0
LINE
  5
4DB
330
1F
100
AcDbEntity
  8
0
  6
CONTINUOUS
 62
     7
100
AcDbLine
 10
947.8378954707
 20
364.6505797438
 30
0.0
 11
947.8378954707
 21
348.6505845718
 31
0.0
  0
LINE
  5
4DC
330
1F
100
AcDbEntity
  8
0
  6
CONTINUOUS
 62
     7
100
AcDbLine
 10
947.8719744263
 20
364.6505797438
 30
0.0
 11
947.8378954707
 21
364.6505797438
 31
0.0
  0
LINE
  5
4DD
330
1F
100
AcDbEntity
  8
0
  6
CONTINUOUS
 62
     7
100
AcDbLine
 10
947.8378954707
 20
559.6505800419
 30
0.0
 11
947.8378954707
 21
543.6505848698
 31
0.0
  0
LINE
  5
4DE
330
1F
100
AcDbEntity
  8
0
  6
CONTINUOUS
 62
     7
100
AcDbLine
 10
947.8719744263
 20
559.6505800419
 30
0.0
 11
947.8378954707
 21
559.6505800419
 31
0.0
  0
LINE
  5
4DF
330
1F
100
AcDbEntity
  8
0
  6
CONTINUOUS
 62
     7
100
AcDbLine
 10
947.8378954707
 20
543.6505848698
 30
0.0
 11
947.8719744263
 21
543.6505848698
 31
0.0
  0
LINE
  5
4E0
330
1F
100
AcDbEntity
  8
0
  6
CONTINUOUS
 62
     7
100
AcDbLine
 10
944.1191020785
 20
364.6505797438
 30
0.0
 11
944.1191020785
 21
348.6505845718
 31
0.0
  0
LINE
  5
4E1
330
1F
100
AcDbEntity
  8
0
  6
CONTINUOUS
 62
     7
100
AcDbLine
 10
947.8378954707
 20
364.6505797438
 30
0.0
 11
944.1191020785
 21
364.6505797438
 31
0.0
  0
LINE
  5
4E2
330
1F
100
AcDbEntity
  8
0
  6
CONTINUOUS
 62
     7
100
AcDbLine
 10
944.1191020785
 20
348.6505845718
 30
0.0
 11
947.8378954707
 21
348.6505845718
 31
0.0
  0
LINE
  5
4E3
330
1F
100
AcDbEntity
  8
0
  6
CONTINUOUS
 62
     7
100
AcDbLine
 10
944.1191020785
 20
543.6505848698
 30
0.0
 11
944.1191020785
 21
559.6505800419
 31
0.0
  0
LINE
  5
4E4
330
1F
100
AcDbEntity
  8
0
  6
CONTINUOUS
 62
     7
100
AcDbLine
 10
944.1191020785
 20
559.6505800419
 30
0.0
 11
947.8378954707
 21
559.6505800419
 31
0.0
  0
LINE
  5
4E5
330
1F
100
AcDbEntity
  8
0
  6
CONTINUOUS
 62
     7
100
AcDbLine
 10
947.8378954707
 20
543.6505848698
 30
0.0
 11
944.1191020785
 21
543.6505848698
 31
0.0
  0
LINE
  5
4E6
330
1F
100
AcDbEntity
  8
0
  6
CONTINUOUS
 62
     7
100
AcDbLine
 10
965.8719736515
 20
595.6505784921
 30
0.0
 11
968.3719712673
 21
595.6505784921
 31
0.0
  0
LINE
  5
4E7
330
1F
100
AcDbEntity
  8
0
  6
CONTINUOUS
 62
     7
100
AcDbLine
 10
968.3719712673
 20
312.6505861215
 30
0.0
 11
968.3719712673
 21
595.6505784921
 31
0.0
  0
LINE
  5
4E8
330
1F
100
AcDbEntity
  8
0
  6
CONTINUOUS
 62
     7
100
AcDbLine
 10
965.8719736515
 20
312.6505861215
 30
0.0
 11
965.8719736515
 21
595.6505784921
 31
0.0
  0
LINE
  5
4E9
330
1F
100
AcDbEntity
  8
0
  6
CONTINUOUS
 62
     7
100
AcDbLine
 10
968.3719712673
 20
312.6505861215
 30
0.0
 11
965.8719736515
 21
312.6505861215
 31
0.0
  0
LINE
  5
4EA
330
1F
100
AcDbEntity
  8
0
  6
CONTINUOUS
 62
     7
100
AcDbLine
 10
969.3719732939
 20
595.6505784921
 30
0.0
 11
968.3719712673
 21
595.6505784921
 31
0.0
  0
ARC
  5
4EB
330
1F
100
AcDbEntity
  8
0
  6
CONTINUOUS
 62
     7
100
AcDbCircle
 10
969.3719716845
 20
592.6505823068
 30
0.0
 40
3.0
100
AcDbArc
 50
0.0
 51
90.0
  0
LINE
  5
4EC
330
1F
100
AcDbEntity
  8
0
  6
CONTINUOUS
 62
     7
100
AcDbLine
 10
972.3719719229
 20
315.6505773
 30
0.0
 11
972.3719719229
 21
448.064801392
 31
0.0
  0
LINE
  5
4ED
330
1F
100
AcDbEntity
  8
0
  6
CONTINUOUS
 62
     7
100
AcDbLine
 10
972.3719719229
 20
461.0676077351
 30
0.0
 11
972.3719719229
 21
592.6505873136
 31
0.0
  0
ARC
  5
4EE
330
1F
100
AcDbEntity
  8
0
  6
CONTINUOUS
 62
     7
100
AcDbCircle
 10
969.3719716845
 20
315.6505823068
 30
0.0
 40
3.0
100
AcDbArc
 50
270.0
 51
0.0
  0
LINE
  5
4EF
330
1F
100
AcDbEntity
  8
0
  6
CONTINUOUS
 62
     7
100
AcDbLine
 10
968.3719712673
 20
312.6505861215
 30
0.0
 11
969.3719732939
 21
312.6505861215
 31
0.0
  0
LINE
  5
4F0
330
1F
100
AcDbEntity
  8
0
  6
CONTINUOUS
 62
     7
100
AcDbLine
 10
965.8719736515
 20
302.6505807571
 30
0.0
 11
967.3719692407
 21
302.6505807571
 31
0.0
  0
LINE
  5
4F1
330
1F
100
AcDbEntity
  8
0
  6
CONTINUOUS
 62
     7
100
AcDbLine
 10
967.3719692407
 20
312.6505861215
 30
0.0
 11
967.3719692407
 21
302.6505807571
 31
0.0
  0
LINE
  5
4F2
330
1F
100
AcDbEntity
  8
0
  6
CONTINUOUS
 62
     7
100
AcDbLine
 10
965.8719736515
 20
312.6505861215
 30
0.0
 11
965.8719736515
 21
302.6505807571
 31
0.0
  0
LINE
  5
4F3
330
1F
100
AcDbEntity
  8
0
  6
CONTINUOUS
 62
     7
100
AcDbLine
 10
967.3719692407
 20
605.6505838566
 30
0.0
 11
965.8719736515
 21
605.6505838566
 31
0.0
  0
LINE
  5
4F4
330
1F
100
AcDbEntity
  8
0
  6
CONTINUOUS
 62
     7
100
AcDbLine
 10
967.3719692407
 20
605.6505838566
 30
0.0
 11
967.3719692407
 21
595.6505784921
 31
0.0
  0
LINE
  5
4F5
330
1F
100
AcDbEntity
  8
0
  6
CONTINUOUS
 62
     7
100
AcDbLine
 10
965.8719736515
 20
605.6505838566
 30
0.0
 11
965.8719736515
 21
595.6505784921
 31
0.0
  0
LINE
  5
4F6
330
1F
100
AcDbEntity
  8
0
  6
CONTINUOUS
 62
     7
100
AcDbLine
 10
967.3719692407
 20
300.650576704
 30
0.0
 11
965.8719736515
 21
300.650576704
 31
0.0
  0
LINE
  5
4F7
330
1F
100
AcDbEntity
  8
0
  6
CONTINUOUS
 62
     7
100
AcDbLine
 10
967.3719692407
 20
302.6505807571
 30
0.0
 11
967.3719692407
 21
300.650576704
 31
0.0
  0
LINE
  5
4F8
330
1F
100
AcDbEntity
  8
0
  6
CONTINUOUS
 62
     7
100
AcDbLine
 10
965.8719736515
 20
300.650576704
 30
0.0
 11
965.8719736515
 21
302.6505807571
 31
0.0
  0
LINE
  5
4F9
330
1F
100
AcDbEntity
  8
0
  6
CONTINUOUS
 62
     7
100
AcDbLine
 10
965.8719736515
 20
607.6505879097
 30
0.0
 11
967.3719692407
 21
607.6505879097
 31
0.0
  0
LINE
  5
4FA
330
1F
100
AcDbEntity
  8
0
  6
CONTINUOUS
 62
     7
100
AcDbLine
 10
967.3719692407
 20
607.6505879097
 30
0.0
 11
967.3719692407
 21
605.6505838566
 31
0.0
  0
LINE
  5
4FB
330
1F
100
AcDbEntity
  8
0
  6
CONTINUOUS
 62
     7
100
AcDbLine
 10
965.8719736515
 20
605.6505838566
 30
0.0
 11
965.8719736515
 21
607.6505879097
 31
0.0
  0
LINE
  5
4FC
330
1F
100
AcDbEntity
  8
0
  6
CONTINUOUS
 62
     7
100
AcDbLine
 10
950.3719720422
 20
345.1505849294
 30
0.0
 11
950.3719720422
 21
348.1505835585
 31
0.0
  0
LINE
  5
4FD
330
1F
100
AcDbEntity
  8
0
  6
CONTINUOUS
 62
     7
100
AcDbLine
 10
949.3719700156
 20
348.1505835585
 30
0.0
 11
950.3719720422
 21
348.1505835585
 31
0.0
  0
LINE
  5
4FE
330
1F
100
AcDbEntity
  8
0
  6
CONTINUOUS
 62
     7
100
AcDbLine
 10
949.3719700156
 20
345.1505849294
 30
0.0
 11
950.3719720422
 21
345.1505849294
 31
0.0
  0
LINE
  5
4FF
330
1F
100
AcDbEntity
  8
0
  6
CONTINUOUS
 62
     7
100
AcDbLine
 10
950.3719720422
 20
365.1505807571
 30
0.0
 11
950.3719720422
 21
368.1505793862
 31
0.0
  0
LINE
  5
500
330
1F
100
AcDbEntity
  8
0
  6
CONTINUOUS
 62
     7
100
AcDbLine
 10
950.3719720422
 20
365.1505807571
 30
0.0
 11
949.3719700156
 21
365.1505807571
 31
0.0
  0
LINE
  5
501
330
1F
100
AcDbEntity
  8
0
  6
CONTINUOUS
 62
     7
100
AcDbLine
 10
950.3719720422
 20
368.1505793862
 30
0.0
 11
949.3719700156
 21
368.1505793862
 31
0.0
  0
LINE
  5
502
330
1F
100
AcDbEntity
  8
0
  6
CONTINUOUS
 62
     7
100
AcDbLine
 10
950.3719720422
 20
543.1505838566
 30
0.0
 11
949.3719700156
 21
543.1505838566
 31
0.0
  0
LINE
  5
503
330
1F
100
AcDbEntity
  8
0
  6
CONTINUOUS
 62
     7
100
AcDbLine
 10
950.3719720422
 20
540.1505852275
 30
0.0
 11
950.3719720422
 21
543.1505838566
 31
0.0
  0
LINE
  5
504
330
1F
100
AcDbEntity
  8
0
  6
CONTINUOUS
 62
     7
100
AcDbLine
 10
949.3719700156
 20
540.1505852275
 30
0.0
 11
950.3719720422
 21
540.1505852275
 31
0.0
  0
LINE
  5
505
330
1F
100
AcDbEntity
  8
0
  6
CONTINUOUS
 62
     7
100
AcDbLine
 10
950.3719720422
 20
560.1505810551
 30
0.0
 11
950.3719720422
 21
563.1505796842
 31
0.0
  0
LINE
  5
506
330
1F
100
AcDbEntity
  8
0
  6
CONTINUOUS
 62
     7
100
AcDbLine
 10
949.3719700156
 20
560.1505810551
 30
0.0
 11
950.3719720422
 21
560.1505810551
 31
0.0
  0
LINE
  5
507
330
1F
100
AcDbEntity
  8
0
  6
CONTINUOUS
 62
     7
100
AcDbLine
 10
950.3719720422
 20
563.1505796842
 30
0.0
 11
949.3719700156
 21
563.1505796842
 31
0.0
  0
LINE
  5
508
330
1F
100
AcDbEntity
  8
0
  6
CONTINUOUS
 62
     7
100
AcDbLine
 10
965.8719736515
 20
607.6505879097
 30
0.0
 11
964.8719716249
 21
607.6505879097
 31
0.0
  0
LINE
  5
509
330
1F
100
AcDbEntity
  8
0
  6
CONTINUOUS
 62
     7
100
AcDbLine
 10
964.8719716249
 20
607.6505879097
 30
0.0
 11
964.8719716249
 21
300.650576704
 31
0.0
  0
LINE
  5
50A
330
1F
100
AcDbEntity
  8
0
  6
CONTINUOUS
 62
     7
100
AcDbLine
 10
964.8719716249
 20
300.650576704
 30
0.0
 11
965.8719736515
 21
300.650576704
 31
0.0
  0
LINE
  5
50B
330
1F
100
AcDbEntity
  8
0
  6
CONTINUOUS
 62
     7
100
AcDbLine
 10
950.3719720422
 20
368.1505793862
 30
0.0
 11
950.3719720422
 21
368.6505803995
 31
0.0
  0
LINE
  5
50C
330
1F
100
AcDbEntity
  8
0
  6
CONTINUOUS
 62
     7
100
AcDbLine
 10
950.3719720422
 20
368.6505803995
 30
0.0
 11
947.8719744263
 21
368.6505803995
 31
0.0
  0
LINE
  5
50D
330
1F
100
AcDbEntity
  8
0
  6
CONTINUOUS
 62
     7
100
AcDbLine
 10
947.8719744263
 20
368.6505803995
 30
0.0
 11
947.8719744263
 21
539.6505842142
 31
0.0
  0
LINE
  5
50E
330
1F
100
AcDbEntity
  8
0
  6
CONTINUOUS
 62
     7
100
AcDbLine
 10
947.8719744263
 20
539.6505842142
 30
0.0
 11
950.3719720422
 21
539.6505842142
 31
0.0
  0
LINE
  5
50F
330
1F
100
AcDbEntity
  8
0
  6
CONTINUOUS
 62
     7
100
AcDbLine
 10
950.3719720422
 20
539.6505842142
 30
0.0
 11
950.3719720422
 21
540.1505852275
 31
0.0
  0
LINE
  5
510
330
1F
100
AcDbEntity
  8
0
  6
CONTINUOUS
 62
     7
100
AcDbLine
 10
950.3719720422
 20
543.1505838566
 30
0.0
 11
950.8719656049
 21
543.1505838566
 31
0.0
  0
LINE
  5
511
330
1F
100
AcDbEntity
  8
0
  6
CONTINUOUS
 62
     7
100
AcDbLine
 10
950.8719656049
 20
560.1505810551
 30
0.0
 11
950.8719656049
 21
543.1505838566
 31
0.0
  0
LINE
  5
512
330
1F
100
AcDbEntity
  8
0
  6
CONTINUOUS
 62
     7
100
AcDbLine
 10
950.8719656049
 20
560.1505810551
 30
0.0
 11
950.3719720422
 21
560.1505810551
 31
0.0
  0
LINE
  5
513
330
1F
100
AcDbEntity
  8
0
  6
CONTINUOUS
 62
     7
100
AcDbLine
 10
950.3719720422
 20
563.1505796842
 30
0.0
 11
950.3719720422
 21
563.6505806975
 31
0.0
  0
LINE
  5
514
330
1F
100
AcDbEntity
  8
0
  6
CONTINUOUS
 62
     7
100
AcDbLine
 10
950.3719720422
 20
563.6505806975
 30
0.0
 11
947.8719744263
 21
563.6505806975
 31
0.0
  0
LINE
  5
515
330
1F
100
AcDbEntity
  8
0
  6
CONTINUOUS
 62
     7
100
AcDbLine
 10
947.8719744263
 20
563.6505806975
 30
0.0
 11
947.8719744263
 21
607.6505879097
 31
0.0
  0
LINE
  5
516
330
1F
100
AcDbEntity
  8
0
  6
CONTINUOUS
 62
     7
100
AcDbLine
 10
947.8719744263
 20
300.650576704
 30
0.0
 11
947.8719744263
 21
344.6505839162
 31
0.0
  0
LINE
  5
517
330
1F
100
AcDbEntity
  8
0
  6
CONTINUOUS
 62
     7
100
AcDbLine
 10
947.8719744263
 20
344.6505839162
 30
0.0
 11
950.3719720422
 21
344.6505839162
 31
0.0
  0
LINE
  5
518
330
1F
100
AcDbEntity
  8
0
  6
CONTINUOUS
 62
     7
100
AcDbLine
 10
950.3719720422
 20
344.6505839162
 30
0.0
 11
950.3719720422
 21
345.1505849294
 31
0.0
  0
LINE
  5
519
330
1F
100
AcDbEntity
  8
0
  6
CONTINUOUS
 62
     7
100
AcDbLine
 10
950.8719656049
 20
348.1505835585
 30
0.0
 11
950.3719720422
 21
348.1505835585
 31
0.0
  0
LINE
  5
51A
330
1F
100
AcDbEntity
  8
0
  6
CONTINUOUS
 62
     7
100
AcDbLine
 10
950.8719656049
 20
365.1505807571
 30
0.0
 11
950.8719656049
 21
348.1505835585
 31
0.0
  0
LINE
  5
51B
330
1F
100
AcDbEntity
  8
0
  6
CONTINUOUS
 62
     7
100
AcDbLine
 10
950.3719720422
 20
365.1505807571
 30
0.0
 11
950.8719656049
 21
365.1505807571
 31
0.0
  0
LINE
  5
51C
330
1F
100
AcDbEntity
  8
0
  6
CONTINUOUS
 62
     7
100
AcDbLine
 10
1208.3719733535
 20
345.1505849294
 30
0.0
 11
1206.8719777642
 21
345.1505849294
 31
0.0
  0
LINE
  5
51D
330
1F
100
AcDbEntity
  8
0
  6
CONTINUOUS
 62
     7
100
AcDbLine
 10
1206.8719777642
 20
345.1505849294
 30
0.0
 11
1206.8719777642
 21
347.150581532
 31
0.0
  0
LINE
  5
51E
330
1F
100
AcDbEntity
  8
0
  6
CONTINUOUS
 62
     7
100
AcDbLine
 10
1206.8719777642
 20
347.150581532
 30
0.0
 11
1208.3719733535
 21
347.150581532
 31
0.0
  0
LINE
  5
51F
330
1F
100
AcDbEntity
  8
0
  6
CONTINUOUS
 62
     7
100
AcDbLine
 10
1208.3719733535
 20
347.150581532
 30
0.0
 11
1208.3719733535
 21
345.1505849294
 31
0.0
  0
LINE
  5
520
330
1F
100
AcDbEntity
  8
0
  6
CONTINUOUS
 62
     7
100
AcDbLine
 10
1208.3719733535
 20
366.1505827837
 30
0.0
 11
1206.8719777642
 21
366.1505827837
 31
0.0
  0
LINE
  5
521
330
1F
100
AcDbEntity
  8
0
  6
CONTINUOUS
 62
     7
100
AcDbLine
 10
1208.3719733535
 20
366.1505827837
 30
0.0
 11
1208.3719733535
 21
347.150581532
 31
0.0
  0
LINE
  5
522
330
1F
100
AcDbEntity
  8
0
  6
CONTINUOUS
 62
     7
100
AcDbLine
 10
1206.8719777642
 20
366.1505827837
 30
0.0
 11
1206.8719777642
 21
347.150581532
 31
0.0
  0
LINE
  5
523
330
1F
100
AcDbEntity
  8
0
  6
CONTINUOUS
 62
     7
100
AcDbLine
 10
1206.8719777642
 20
368.1505793862
 30
0.0
 11
1208.3719733535
 21
368.1505793862
 31
0.0
  0
LINE
  5
524
330
1F
100
AcDbEntity
  8
0
  6
CONTINUOUS
 62
     7
100
AcDbLine
 10
1208.3719733535
 20
368.1505793862
 30
0.0
 11
1208.3719733535
 21
366.1505827837
 31
0.0
  0
LINE
  5
525
330
1F
100
AcDbEntity
  8
0
  6
CONTINUOUS
 62
     7
100
AcDbLine
 10
1206.8719777642
 20
366.1505827837
 30
0.0
 11
1206.8719777642
 21
368.1505793862
 31
0.0
  0
LINE
  5
526
330
1F
100
AcDbEntity
  8
0
  6
CONTINUOUS
 62
     7
100
AcDbLine
 10
1208.3719733535
 20
540.1505852275
 30
0.0
 11
1206.8719777642
 21
540.1505852275
 31
0.0
  0
LINE
  5
527
330
1F
100
AcDbEntity
  8
0
  6
CONTINUOUS
 62
     7
100
AcDbLine
 10
1206.8719777642
 20
542.15058183
 30
0.0
 11
1208.3719733535
 21
542.15058183
 31
0.0
  0
LINE
  5
528
330
1F
100
AcDbEntity
  8
0
  6
CONTINUOUS
 62
     7
100
AcDbLine
 10
1208.3719733535
 20
542.15058183
 30
0.0
 11
1208.3719733535
 21
540.1505852275
 31
0.0
  0
LINE
  5
529
330
1F
100
AcDbEntity
  8
0
  6
CONTINUOUS
 62
     7
100
AcDbLine
 10
1206.8719777642
 20
540.1505852275
 30
0.0
 11
1206.8719777642
 21
542.15058183
 31
0.0
  0
LINE
  5
52A
330
1F
100
AcDbEntity
  8
0
  6
CONTINUOUS
 62
     7
100
AcDbLine
 10
1208.3719733535
 20
561.1505830817
 30
0.0
 11
1206.8719777642
 21
561.1505830817
 31
0.0
  0
LINE
  5
52B
330
1F
100
AcDbEntity
  8
0
  6
CONTINUOUS
 62
     7
100
AcDbLine
 10
1208.3719733535
 20
542.15058183
 30
0.0
 11
1208.3719733535
 21
561.1505830817
 31
0.0
  0
LINE
  5
52C
330
1F
100
AcDbEntity
  8
0
  6
CONTINUOUS
 62
     7
100
AcDbLine
 10
1206.8719777642
 20
542.15058183
 30
0.0
 11
1206.8719777642
 21
561.1505830817
 31
0.0
  0
LINE
  5
52D
330
1F
100
AcDbEntity
  8
0
  6
CONTINUOUS
 62
     7
100
AcDbLine
 10
1206.8719777642
 20
563.1505796842
 30
0.0
 11
1208.3719733535
 21
563.1505796842
 31
0.0
  0
LINE
  5
52E
330
1F
100
AcDbEntity
  8
0
  6
CONTINUOUS
 62
     7
100
AcDbLine
 10
1208.3719733535
 20
563.1505796842
 30
0.0
 11
1208.3719733535
 21
561.1505830817
 31
0.0
  0
LINE
  5
52F
330
1F
100
AcDbEntity
  8
0
  6
CONTINUOUS
 62
     7
100
AcDbLine
 10
1206.8719777642
 20
561.1505830817
 30
0.0
 11
1206.8719777642
 21
563.1505796842
 31
0.0
  0
LINE
  5
530
330
1F
100
AcDbEntity
  8
0
  6
CONTINUOUS
 62
     7
100
AcDbLine
 10
1208.4060523091
 20
364.6505797438
 30
0.0
 11
1208.3719733535
 21
364.6505797438
 31
0.0
  0
LINE
  5
531
330
1F
100
AcDbEntity
  8
0
  6
CONTINUOUS
 62
     7
100
AcDbLine
 10
1208.4060523091
 20
348.6505845718
 30
0.0
 11
1208.4060523091
 21
364.6505797438
 31
0.0
  0
LINE
  5
532
330
1F
100
AcDbEntity
  8
0
  6
CONTINUOUS
 62
     7
100
AcDbLine
 10
1208.3719733535
 20
348.6505845718
 30
0.0
 11
1208.4060523091
 21
348.6505845718
 31
0.0
  0
LINE
  5
533
330
1F
100
AcDbEntity
  8
0
  6
CONTINUOUS
 62
     7
100
AcDbLine
 10
1208.4060523091
 20
559.6505800419
 30
0.0
 11
1208.3719733535
 21
559.6505800419
 31
0.0
  0
LINE
  5
534
330
1F
100
AcDbEntity
  8
0
  6
CONTINUOUS
 62
     7
100
AcDbLine
 10
1208.4060523091
 20
543.6505848698
 30
0.0
 11
1208.4060523091
 21
559.6505800419
 31
0.0
  0
LINE
  5
535
330
1F
100
AcDbEntity
  8
0
  6
CONTINUOUS
 62
     7
100
AcDbLine
 10
1208.3719733535
 20
543.6505848698
 30
0.0
 11
1208.4060523091
 21
543.6505848698
 31
0.0
  0
LINE
  5
536
330
1F
100
AcDbEntity
  8
0
  6
CONTINUOUS
 62
     7
100
AcDbLine
 10
1212.1248457013
 20
364.6505797438
 30
0.0
 11
1212.1248457013
 21
348.6505845718
 31
0.0
  0
LINE
  5
537
330
1F
100
AcDbEntity
  8
0
  6
CONTINUOUS
 62
     7
100
AcDbLine
 10
1212.1248457013
 20
348.6505845718
 30
0.0
 11
1208.4060523091
 21
348.6505845718
 31
0.0
  0
LINE
  5
538
330
1F
100
AcDbEntity
  8
0
  6
CONTINUOUS
 62
     7
100
AcDbLine
 10
1208.4060523091
 20
364.6505797438
 30
0.0
 11
1212.1248457013
 21
364.6505797438
 31
0.0
  0
LINE
  5
539
330
1F
100
AcDbEntity
  8
0
  6
CONTINUOUS
 62
     7
100
AcDbLine
 10
1212.1248457013
 20
543.6505848698
 30
0.0
 11
1212.1248457013
 21
559.6505800419
 31
0.0
  0
LINE
  5
53A
330
1F
100
AcDbEntity
  8
0
  6
CONTINUOUS
 62
     7
100
AcDbLine
 10
1212.1248457013
 20
559.6505800419
 30
0.0
 11
1208.4060523091
 21
559.6505800419
 31
0.0
  0
LINE
  5
53B
330
1F
100
AcDbEntity
  8
0
  6
CONTINUOUS
 62
     7
100
AcDbLine
 10
1208.4060523091
 20
543.6505848698
 30
0.0
 11
1212.1248457013
 21
543.6505848698
 31
0.0
  0
LINE
  5
53C
330
1F
100
AcDbEntity
  8
0
  6
CONTINUOUS
 62
     7
100
AcDbLine
 10
1190.3719741283
 20
605.6505838566
 30
0.0
 11
1188.8719710885
 21
605.6505838566
 31
0.0
  0
LINE
  5
53D
330
1F
100
AcDbEntity
  8
0
  6
CONTINUOUS
 62
     7
100
AcDbLine
 10
1190.3719741283
 20
302.6505807571
 30
0.0
 11
1190.3719741283
 21
605.6505838566
 31
0.0
  0
LINE
  5
53E
330
1F
100
AcDbEntity
  8
0
  6
CONTINUOUS
 62
     7
100
AcDbLine
 10
1188.8719710885
 20
302.6505807571
 30
0.0
 11
1190.3719741283
 21
302.6505807571
 31
0.0
  0
LINE
  5
53F
330
1F
100
AcDbEntity
  8
0
  6
CONTINUOUS
 62
     7
100
AcDbLine
 10
1188.8719710885
 20
302.6505807571
 30
0.0
 11
1188.8719710885
 21
605.6505838566
 31
0.0
  0
LINE
  5
540
330
1F
100
AcDbEntity
  8
0
  6
CONTINUOUS
 62
     7
100
AcDbLine
 10
1190.3719741283
 20
302.6505807571
 30
0.0
 11
1190.3719741283
 21
300.650576704
 31
0.0
  0
LINE
  5
541
330
1F
100
AcDbEntity
  8
0
  6
CONTINUOUS
 62
     7
100
AcDbLine
 10
1190.3719741283
 20
300.650576704
 30
0.0
 11
1188.8719710885
 21
300.650576704
 31
0.0
  0
LINE
  5
542
330
1F
100
AcDbEntity
  8
0
  6
CONTINUOUS
 62
     7
100
AcDbLine
 10
1188.8719710885
 20
300.650576704
 30
0.0
 11
1188.8719710885
 21
302.6505807571
 31
0.0
  0
LINE
  5
543
330
1F
100
AcDbEntity
  8
0
  6
CONTINUOUS
 62
     7
100
AcDbLine
 10
1188.8719710885
 20
607.6505879097
 30
0.0
 11
1190.3719741283
 21
607.6505879097
 31
0.0
  0
LINE
  5
544
330
1F
100
AcDbEntity
  8
0
  6
CONTINUOUS
 62
     7
100
AcDbLine
 10
1190.3719741283
 20
607.6505879097
 30
0.0
 11
1190.3719741283
 21
605.6505838566
 31
0.0
  0
LINE
  5
545
330
1F
100
AcDbEntity
  8
0
  6
CONTINUOUS
 62
     7
100
AcDbLine
 10
1188.8719710885
 20
605.6505838566
 30
0.0
 11
1188.8719710885
 21
607.6505879097
 31
0.0
  0
LINE
  5
546
330
1F
100
AcDbEntity
  8
0
  6
CONTINUOUS
 62
     7
100
AcDbLine
 10
1205.8719757376
 20
348.1505835585
 30
0.0
 11
1205.8719757376
 21
345.1505849294
 31
0.0
  0
LINE
  5
547
330
1F
100
AcDbEntity
  8
0
  6
CONTINUOUS
 62
     7
100
AcDbLine
 10
1206.8719777642
 20
348.1505835585
 30
0.0
 11
1205.8719757376
 21
348.1505835585
 31
0.0
  0
LINE
  5
548
330
1F
100
AcDbEntity
  8
0
  6
CONTINUOUS
 62
     7
100
AcDbLine
 10
1205.8719757376
 20
345.1505849294
 30
0.0
 11
1206.8719777642
 21
345.1505849294
 31
0.0
  0
LINE
  5
549
330
1F
100
AcDbEntity
  8
0
  6
CONTINUOUS
 62
     7
100
AcDbLine
 10
1206.8719777642
 20
368.1505793862
 30
0.0
 11
1205.8719757376
 21
368.1505793862
 31
0.0
  0
LINE
  5
54A
330
1F
100
AcDbEntity
  8
0
  6
CONTINUOUS
 62
     7
100
AcDbLine
 10
1205.8719757376
 20
365.1505807571
 30
0.0
 11
1206.8719777642
 21
365.1505807571
 31
0.0
  0
LINE
  5
54B
330
1F
100
AcDbEntity
  8
0
  6
CONTINUOUS
 62
     7
100
AcDbLine
 10
1205.8719757376
 20
368.1505793862
 30
0.0
 11
1205.8719757376
 21
365.1505807571
 31
0.0
  0
LINE
  5
54C
330
1F
100
AcDbEntity
  8
0
  6
CONTINUOUS
 62
     7
100
AcDbLine
 10
1205.8719757376
 20
540.1505852275
 30
0.0
 11
1206.8719777642
 21
540.1505852275
 31
0.0
  0
LINE
  5
54D
330
1F
100
AcDbEntity
  8
0
  6
CONTINUOUS
 62
     7
100
AcDbLine
 10
1205.8719757376
 20
543.1505838566
 30
0.0
 11
1205.8719757376
 21
540.1505852275
 31
0.0
  0
LINE
  5
54E
330
1F
100
AcDbEntity
  8
0
  6
CONTINUOUS
 62
     7
100
AcDbLine
 10
1205.8719757376
 20
543.1505838566
 30
0.0
 11
1206.8719777642
 21
543.1505838566
 31
0.0
  0
LINE
  5
54F
330
1F
100
AcDbEntity
  8
0
  6
CONTINUOUS
 62
     7
100
AcDbLine
 10
1205.8719757376
 20
563.1505796842
 30
0.0
 11
1205.8719757376
 21
560.1505810551
 31
0.0
  0
LINE
  5
550
330
1F
100
AcDbEntity
  8
0
  6
CONTINUOUS
 62
     7
100
AcDbLine
 10
1206.8719777642
 20
563.1505796842
 30
0.0
 11
1205.8719757376
 21
563.1505796842
 31
0.0
  0
LINE
  5
551
330
1F
100
AcDbEntity
  8
0
  6
CONTINUOUS
 62
     7
100
AcDbLine
 10
1206.8719777642
 20
560.1505810551
 30
0.0
 11
1205.8719757376
 21
560.1505810551
 31
0.0
  0
LINE
  5
552
330
1F
100
AcDbEntity
  8
0
  6
CONTINUOUS
 62
     7
100
AcDbLine
 10
1191.3719687043
 20
607.6505879097
 30
0.0
 11
1190.3719741283
 21
607.6505879097
 31
0.0
  0
LINE
  5
553
330
1F
100
AcDbEntity
  8
0
  6
CONTINUOUS
 62
     7
100
AcDbLine
 10
1191.3719687043
 20
300.650576704
 30
0.0
 11
1191.3719687043
 21
607.6505879097
 31
0.0
  0
LINE
  5
554
330
1F
100
AcDbEntity
  8
0
  6
CONTINUOUS
 62
     7
100
AcDbLine
 10
1190.3719741283
 20
300.650576704
 30
0.0
 11
1191.3719687043
 21
300.650576704
 31
0.0
  0
LINE
  5
555
330
1F
100
AcDbEntity
  8
0
  6
CONTINUOUS
 62
     7
100
AcDbLine
 10
1205.8719757376
 20
540.1505852275
 30
0.0
 11
1205.8719757376
 21
539.6505842142
 31
0.0
  0
LINE
  5
556
330
1F
100
AcDbEntity
  8
0
  6
CONTINUOUS
 62
     7
100
AcDbLine
 10
1205.8719757376
 20
539.6505842142
 30
0.0
 11
1208.3719733535
 21
539.6505842142
 31
0.0
  0
LINE
  5
557
330
1F
100
AcDbEntity
  8
0
  6
CONTINUOUS
 62
     7
100
AcDbLine
 10
1208.3719733535
 20
539.6505842142
 30
0.0
 11
1208.3719733535
 21
368.6505803995
 31
0.0
  0
LINE
  5
558
330
1F
100
AcDbEntity
  8
0
  6
CONTINUOUS
 62
     7
100
AcDbLine
 10
1208.3719733535
 20
368.6505803995
 30
0.0
 11
1205.8719757376
 21
368.6505803995
 31
0.0
  0
LINE
  5
559
330
1F
100
AcDbEntity
  8
0
  6
CONTINUOUS
 62
     7
100
AcDbLine
 10
1205.8719757376
 20
368.6505803995
 30
0.0
 11
1205.8719757376
 21
368.1505793862
 31
0.0
  0
LINE
  5
55A
330
1F
100
AcDbEntity
  8
0
  6
CONTINUOUS
 62
     7
100
AcDbLine
 10
1205.8719757376
 20
365.1505807571
 30
0.0
 11
1205.3719672738
 21
365.1505807571
 31
0.0
  0
LINE
  5
55B
330
1F
100
AcDbEntity
  8
0
  6
CONTINUOUS
 62
     7
100
AcDbLine
 10
1205.3719672738
 20
348.1505835585
 30
0.0
 11
1205.3719672738
 21
365.1505807571
 31
0.0
  0
LINE
  5
55C
330
1F
100
AcDbEntity
  8
0
  6
CONTINUOUS
 62
     7
100
AcDbLine
 10
1205.3719672738
 20
348.1505835585
 30
0.0
 11
1205.8719757376
 21
348.1505835585
 31
0.0
  0
LINE
  5
55D
330
1F
100
AcDbEntity
  8
0
  6
CONTINUOUS
 62
     7
100
AcDbLine
 10
1205.8719757376
 20
345.1505849294
 30
0.0
 11
1205.8719757376
 21
344.6505839162
 31
0.0
  0
LINE
  5
55E
330
1F
100
AcDbEntity
  8
0
  6
CONTINUOUS
 62
     7
100
AcDbLine
 10
1205.8719757376
 20
344.6505839162
 30
0.0
 11
1208.3719733535
 21
344.6505839162
 31
0.0
  0
LINE
  5
55F
330
1F
100
AcDbEntity
  8
0
  6
CONTINUOUS
 62
     7
100
AcDbLine
 10
1208.3719733535
 20
344.6505839162
 30
0.0
 11
1208.3719733535
 21
300.650576704
 31
0.0
  0
LINE
  5
560
330
1F
100
AcDbEntity
  8
0
  6
CONTINUOUS
 62
     7
100
AcDbLine
 10
1208.3719733535
 20
607.6505879097
 30
0.0
 11
1208.3719733535
 21
563.6505806975
 31
0.0
  0
LINE
  5
561
330
1F
100
AcDbEntity
  8
0
  6
CONTINUOUS
 62
     7
100
AcDbLine
 10
1208.3719733535
 20
563.6505806975
 30
0.0
 11
1205.8719757376
 21
563.6505806975
 31
0.0
  0
LINE
  5
562
330
1F
100
AcDbEntity
  8
0
  6
CONTINUOUS
 62
     7
100
AcDbLine
 10
1205.8719757376
 20
563.6505806975
 30
0.0
 11
1205.8719757376
 21
563.1505796842
 31
0.0
  0
LINE
  5
563
330
1F
100
AcDbEntity
  8
0
  6
CONTINUOUS
 62
     7
100
AcDbLine
 10
1205.3719672738
 20
560.1505810551
 30
0.0
 11
1205.8719757376
 21
560.1505810551
 31
0.0
  0
LINE
  5
564
330
1F
100
AcDbEntity
  8
0
  6
CONTINUOUS
 62
     7
100
AcDbLine
 10
1205.3719672738
 20
543.1505838566
 30
0.0
 11
1205.3719672738
 21
560.1505810551
 31
0.0
  0
LINE
  5
565
330
1F
100
AcDbEntity
  8
0
  6
CONTINUOUS
 62
     7
100
AcDbLine
 10
1205.8719757376
 20
543.1505838566
 30
0.0
 11
1205.3719672738
 21
543.1505838566
 31
0.0
  0
LINE
  5
566
330
1F
100
AcDbEntity
  8
0
  6
CONTINUOUS
 62
     7
100
AcDbLine
 10
970.8719688831
 20
609.943474286
 30
0.0
 11
970.8719688831
 21
595.2486643724
 31
0.0
  0
LINE
  5
567
330
1F
100
AcDbEntity
  8
0
  6
CONTINUOUS
 62
     7
100
AcDbLine
 10
970.8719688831
 20
313.0525002412
 30
0.0
 11
970.8719688831
 21
298.3576903276
 31
0.0
  0
LINE
  5
568
330
1F
100
AcDbEntity
  8
0
  6
CONTINUOUS
 62
     7
100
AcDbLine
 10
972.8719729362
 20
609.943474286
 30
0.0
 11
970.8719688831
 21
609.943474286
 31
0.0
  0
LINE
  5
569
330
1F
100
AcDbEntity
  8
0
  6
CONTINUOUS
 62
     7
100
AcDbLine
 10
972.8719729362
 20
609.943474286
 30
0.0
 11
972.8719729362
 21
461.0572174348
 31
0.0
  0
LINE
  5
56A
330
1F
100
AcDbEntity
  8
0
  6
CONTINUOUS
 62
     7
100
AcDbLine
 10
972.8719729362
 20
448.054410626
 30
0.0
 11
972.8719729362
 21
298.3576903276
 31
0.0
  0
LINE
  5
56B
330
1F
100
AcDbEntity
  8
0
  6
CONTINUOUS
 62
     7
100
AcDbLine
 10
972.8719729362
 20
298.3576903276
 30
0.0
 11
970.8719688831
 21
298.3576903276
 31
0.0
  0
LINE
  5
56C
330
1F
100
AcDbEntity
  8
0
  6
CONTINUOUS
 62
     7
100
AcDbLine
 10
973.5790777384
 20
295.6505814724
 30
0.0
 11
986.9139331756
 21
295.6505814724
 31
0.0
  0
LINE
  5
56D
330
1F
100
AcDbEntity
  8
0
  6
CONTINUOUS
 62
     7
100
AcDbLine
 10
1169.3300146042
 20
295.6505814724
 30
0.0
 11
1184.1648656307
 21
295.6505814724
 31
0.0
  0
LINE
  5
56E
330
1F
100
AcDbEntity
  8
0
  6
CONTINUOUS
 62
     7
100
AcDbLine
 10
973.5790777384
 20
297.6505855255
 30
0.0
 11
973.5790777384
 21
295.6505814724
 31
0.0
  0
LINE
  5
56F
330
1F
100
AcDbEntity
  8
0
  6
CONTINUOUS
 62
     7
100
AcDbLine
 10
973.5790777384
 20
297.6505855255
 30
0.0
 11
988.2136571584
 21
297.6505855255
 31
0.0
  0
LINE
  5
570
330
1F
100
AcDbEntity
  8
0
  6
CONTINUOUS
 62
     7
100
AcDbLine
 10
1168.0302831708
 20
297.6505855255
 30
0.0
 11
1184.1648656307
 21
297.6505855255
 31
0.0
  0
LINE
  5
571
330
1F
100
AcDbEntity
  8
0
  6
CONTINUOUS
 62
     7
100
AcDbLine
 10
1184.1648656307
 20
297.6505855255
 30
0.0
 11
1184.1648656307
 21
295.6505814724
 31
0.0
  0
LINE
  5
572
330
1F
100
AcDbEntity
  8
0
  6
CONTINUOUS
 62
     7
100
AcDbLine
 10
1184.1648656307
 20
612.6505831413
 30
0.0
 11
973.5790777384
 21
612.6505831413
 31
0.0
  0
LINE
  5
573
330
1F
100
AcDbEntity
  8
0
  6
CONTINUOUS
 62
     7
100
AcDbLine
 10
1184.1648656307
 20
610.6505790882
 30
0.0
 11
1184.1648656307
 21
612.6505831413
 31
0.0
  0
LINE
  5
574
330
1F
100
AcDbEntity
  8
0
  6
CONTINUOUS
 62
     7
100
AcDbLine
 10
1184.1648656307
 20
610.6505790882
 30
0.0
 11
973.5790777384
 21
610.6505790882
 31
0.0
  0
LINE
  5
575
330
1F
100
AcDbEntity
  8
0
  6
CONTINUOUS
 62
     7
100
AcDbLine
 10
973.5790777384
 20
610.6505790882
 30
0.0
 11
973.5790777384
 21
612.6505831413
 31
0.0
  0
LINE
  5
576
330
1F
100
AcDbEntity
  8
0
  6
CONTINUOUS
 62
     7
100
AcDbLine
 10
1186.8719744859
 20
298.3576903276
 30
0.0
 11
1186.8719744859
 21
609.943474286
 31
0.0
  0
LINE
  5
577
330
1F
100
AcDbEntity
  8
0
  6
CONTINUOUS
 62
     7
100
AcDbLine
 10
1184.8719704328
 20
298.3576903276
 30
0.0
 11
1186.8719744859
 21
298.3576903276
 31
0.0
  0
LINE
  5
578
330
1F
100
AcDbEntity
  8
0
  6
CONTINUOUS
 62
     7
100
AcDbLine
 10
1184.8719704328
 20
298.3576903276
 30
0.0
 11
1184.8719704328
 21
609.943474286
 31
0.0
  0
LINE
  5
579
330
1F
100
AcDbEntity
  8
0
  6
CONTINUOUS
 62
     7
100
AcDbLine
 10
1184.8719704328
 20
609.943474286
 30
0.0
 11
1186.8719744859
 21
609.943474286
 31
0.0
  0
LINE
  5
57A
330
1F
100
AcDbEntity
  8
0
  6
CONTINUOUS
 62
     7
100
AcDbLine
 10
1183.3719748436
 20
299.1505811147
 30
0.0
 11
974.3719685255
 21
299.1505811147
 31
0.0
  0
ARC
  5
57B
330
1F
100
AcDbEntity
  8
0
  6
CONTINUOUS
 62
     7
100
AcDbCircle
 10
1186.3184450674
 20
299.7485147469
 30
0.0
 40
3.006528131985974
100
AcDbArc
 50
191.4713810689
 51
224.2500684732
  0
LWPOLYLINE
  5
57C
330
1F
100
AcDbEntity
  8
0
  6
CONTINUOUS
 62
     7
100
AcDbPolyline
 90
        6
 70
   128
 43
0.0
 10
974.3719685255
 20
299.1505811147
 10
974.1921711145
 20
298.6274907522
 10
974.012366253
 20
298.1700847082
 10
973.8326209961
 20
297.8358665638
 10
973.6528757392
 20
297.6665893726
 10
973.5790777384
 20
297.6505855255
  0
LWPOLYLINE
  5
57D
330
1F
100
AcDbEntity
  8
0
  6
CONTINUOUS
 62
     7
100
AcDbPolyline
 90
        6
 70
   128
 43
0.0
 10
974.3719685255
 20
609.1505834989
 10
973.8488856135
 20
609.3303809099
 10
973.3914721189
 20
609.510193222
 10
973.0572465239
 20
609.6899310283
 10
972.8879767834
 20
609.8696688347
 10
972.8719729362
 20
609.943474286
  0
ARC
  5
57E
330
1F
100
AcDbEntity
  8
0
  6
CONTINUOUS
 62
     7
100
AcDbCircle
 10
974.9700596878
 20
296.2038128745
 30
0.0
 40
3.006851526108335
100
AcDbArc
 50
101.4731934784
 51
134.2482560637
  0
LINE
  5
57F
330
1F
100
AcDbEntity
  8
0
  6
CONTINUOUS
 62
     7
100
AcDbLine
 10
974.3719685255
 20
609.1505834989
 30
0.0
 11
1183.3719748436
 21
609.1505834989
 31
0.0
  0
LWPOLYLINE
  5
580
330
1F
100
AcDbEntity
  8
0
  6
CONTINUOUS
 62
     7
100
AcDbPolyline
 90
        6
 70
   128
 43
0.0
 10
1183.3719748436
 20
609.1505834989
 10
1183.5517722545
 20
609.6736738615
 10
1183.7315771161
 20
610.1310799055
 10
1183.911322373
 20
610.4652980499
 10
1184.0910676299
 20
610.6345752411
 10
1184.1648656307
 20
610.6505790882
  0
ARC
  5
581
330
1F
100
AcDbEntity
  8
0
  6
CONTINUOUS
 62
     7
100
AcDbCircle
 10
971.4254983017
 20
608.5526498667
 30
0.0
 40
3.00652813199029
100
AcDbArc
 50
11.4713810689
 51
44.2500684732
  0
LINE
  5
582
330
1F
100
AcDbEntity
  8
0
  6
CONTINUOUS
 62
     7
100
AcDbLine
 10
1183.3719748436
 20
609.1505834989
 30
0.0
 11
1183.3719748436
 21
299.1505811147
 31
0.0
  0
ARC
  5
583
330
1F
100
AcDbEntity
  8
0
  6
CONTINUOUS
 62
     7
100
AcDbCircle
 10
1182.7738836813
 20
612.0973517392
 30
0.0
 40
3.006851526108191
100
AcDbArc
 50
281.4731934784
 51
314.2482560637
  0
LWPOLYLINE
  5
584
330
1F
100
AcDbEntity
  8
0
  6
CONTINUOUS
 62
     7
100
AcDbPolyline
 90
        6
 70
   128
 43
0.0
 10
1183.3719748436
 20
299.1505811147
 10
1183.8950577555
 20
298.9707837038
 10
1184.3524712501
 20
298.7909713916
 10
1184.6866968451
 20
298.6112335853
 10
1184.8559665857
 20
298.431495779
 10
1184.8719704328
 20
298.3576903276
  0
LINE
  5
585
330
1F
100
AcDbEntity
  8
0
  6
CONTINUOUS
 62
     7
100
AcDbLine
 10
989.6368372618
 20
446.6326675534
 30
0.0
 11
988.5407078443
 21
447.7287969708
 31
0.0
  0
LINE
  5
586
330
1F
100
AcDbEntity
  8
0
  6
CONTINUOUS
 62
     7
100
AcDbLine
 10
999.889886695
 20
451.415449024
 30
0.0
 11
995.1071056901
 21
446.6326675534
 31
0.0
  0
LINE
  5
587
330
1F
100
AcDbEntity
  8
0
  6
CONTINUOUS
 62
     7
100
AcDbLine
 10
995.1071056901
 20
461.6684970602
 30
0.0
 11
999.889886695
 21
456.8857155897
 31
0.0
  0
LINE
  5
588
330
1F
100
AcDbEntity
  8
0
  6
CONTINUOUS
 62
     7
100
AcDbLine
 10
988.6967006503
 20
460.7283618458
 30
0.0
 11
989.6368372618
 21
461.6684970602
 31
0.0
  0
CIRCLE
  5
589
330
1F
100
AcDbEntity
  8
0
  6
CONTINUOUS
 62
     7
100
AcDbCircle
 10
1166.8719716845
 20
315.6505823068
 30
0.0
 40
2.999999999999988
  0
CIRCLE
  5
58A
330
1F
100
AcDbEntity
  8
0
  6
CONTINUOUS
 62
     7
100
AcDbCircle
 10
1166.8719716845
 20
315.6505823068
 30
0.0
 40
2.386500000000098
  0
CIRCLE
  5
58B
330
1F
100
AcDbEntity
  8
0
  6
CONTINUOUS
 62
     7
100
AcDbCircle
 10
1166.8719716845
 20
315.6505823068
 30
0.0
 40
0.7592592592591433
  0
LINE
  5
58C
330
1F
100
AcDbEntity
  8
0
  6
CONTINUOUS
 62
     7
100
AcDbLine
 10
991.188741046
 20
449.7312396921
 30
0.0
 11
991.5450054584
 21
450.7496816728
 31
0.0
  0
LINE
  5
58D
330
1F
100
AcDbEntity
  8
0
  6
CONTINUOUS
 62
     7
100
AcDbLine
 10
993.0569368778
 20
450.718261876
 30
0.0
 11
993.3705839692
 21
449.6858987182
 31
0.0
  0
ARC
  5
58E
330
1F
100
AcDbEntity
  8
0
  6
CONTINUOUS
 62
     7
100
AcDbCircle
 10
992.3719716845
 20
454.1505823068
 30
0.0
 40
4.575000000000122
100
AcDbArc
 50
282.6077753781
 51
351.2735920271
  0
LINE
  5
58F
330
1F
100
AcDbEntity
  8
0
  6
CONTINUOUS
 62
     7
100
AcDbLine
 10
996.894008237
 20
453.4564797574
 30
0.0
 11
995.8069461761
 21
453.4790700924
 31
0.0
  0
LINE
  5
590
330
1F
100
AcDbEntity
  8
0
  6
CONTINUOUS
 62
     7
100
AcDbLine
 10
995.4746279298
 20
455.7703131501
 30
0.0
 11
997.8237810908
 21
456.9966808118
 31
0.0
  0
LINE
  5
591
330
1F
100
AcDbEntity
  8
0
  6
CONTINUOUS
 62
     7
100
AcDbLine
 10
987.043111342
 20
457.2207153466
 30
0.0
 11
989.3392834245
 21
455.8978123747
 31
0.0
  0
LINE
  5
592
330
1F
100
AcDbEntity
  8
0
  6
CONTINUOUS
 62
     7
100
AcDbLine
 10
988.9120596824
 20
453.6223535466
 30
0.0
 11
987.8249976216
 21
453.6449438816
 31
0.0
  0
ARC
  5
593
330
1F
100
AcDbEntity
  8
0
  6
CONTINUOUS
 62
     7
100
AcDbCircle
 10
992.3719716845
 20
454.1505823068
 30
0.0
 40
4.575000000000076
100
AcDbArc
 50
186.3454107116
 51
255.0112273606
  0
ARC
  5
594
330
1F
100
AcDbEntity
  8
0
  6
CONTINUOUS
 62
     7
100
AcDbCircle
 10
992.3719716845
 20
454.1505823068
 30
0.0
 40
6.150000000000128
100
AcDbArc
 50
150.0523443279
 51
27.5666584108
  0
LINE
  5
595
330
1F
100
AcDbEntity
  8
0
  6
CONTINUOUS
 62
     7
100
AcDbLine
 10
988.036266285
 20
452.6903484872
 30
0.0
 11
989.0912386952
 21
452.6684249209
 31
0.0
  0
ARC
  5
596
330
1F
100
AcDbEntity
  8
0
  6
CONTINUOUS
 62
     7
100
AcDbCircle
 10
992.3719716845
 20
454.1505823068
 30
0.0
 40
3.600000000000108
100
AcDbArc
 50
204.3123236273
 51
243.3066791114
  0
LINE
  5
597
330
1F
100
AcDbEntity
  8
0
  6
CONTINUOUS
 62
     7
100
AcDbLine
 10
990.7547968803
 20
450.9342567686
 30
0.0
 11
990.7328772722
 21
449.8792845912
 31
0.0
  0
LINE
  5
598
330
1F
100
AcDbEntity
  8
0
  6
CONTINUOUS
 62
     7
100
AcDbLine
 10
993.8322070418
 20
449.8148766503
 30
0.0
 11
993.8541266499
 21
450.8698492933
 31
0.0
  0
ARC
  5
599
330
1F
100
AcDbEntity
  8
0
  6
CONTINUOUS
 62
     7
100
AcDbCircle
 10
992.3719716845
 20
454.1505823068
 30
0.0
 40
3.600000000000056
100
AcDbArc
 50
294.3123236273
 51
333.3066791114
  0
LINE
  5
59A
330
1F
100
AcDbEntity
  8
0
  6
CONTINUOUS
 62
     7
100
AcDbLine
 10
995.5882939873
 20
452.5334088754
 30
0.0
 11
996.6432663976
 21
452.5114853092
 31
0.0
  0
ARC
  5
59B
330
1F
100
AcDbEntity
  8
0
  6
CONTINUOUS
 62
     7
100
AcDbCircle
 10
992.3719716845
 20
454.1505823068
 30
0.0
 40
3.599999999999996
100
AcDbArc
 50
27.5666584108
 51
63.3066791114
  0
LINE
  5
59C
330
1F
100
AcDbEntity
  8
0
  6
CONTINUOUS
 62
     7
100
AcDbLine
 10
993.9891460715
 20
457.3669078451
 30
0.0
 11
994.0116170226
 21
458.4484366857
 31
0.0
  0
ARC
  5
59D
330
1F
100
AcDbEntity
  8
0
  6
CONTINUOUS
 62
     7
100
AcDbCircle
 10
992.3719716845
 20
454.1505823068
 30
0.0
 40
4.600000000000246
100
AcDbArc
 50
69.1179443492
 51
108.5010583896
  0
LINE
  5
59E
330
1F
100
AcDbEntity
  8
0
  6
CONTINUOUS
 62
     7
100
AcDbLine
 10
990.912287253
 20
458.5128441609
 30
0.0
 11
990.8898163019
 21
457.4313153204
 31
0.0
  0
ARC
  5
59F
330
1F
100
AcDbEntity
  8
0
  6
CONTINUOUS
 62
     7
100
AcDbCircle
 10
992.3719716845
 20
454.1505823068
 30
0.0
 40
3.600000000000005
100
AcDbArc
 50
114.3123236273
 51
150.0523443279
  0
LINE
  5
5A0
330
1F
100
AcDbEntity
  8
0
  6
CONTINUOUS
 62
     7
100
AcDbLine
 10
992.2369259773
 20
447.6519852102
 30
0.0
 11
969.1388818799
 21
448.1319883995
 31
0.0
  0
LINE
  5
5A1
330
1F
100
AcDbEntity
  8
0
  6
CONTINUOUS
 62
     7
100
AcDbLine
 10
969.4089803277
 20
461.1291821271
 30
0.0
 11
992.5070169745
 21
460.6491794035
 31
0.0
  0
ARC
  5
5A2
330
1F
100
AcDbEntity
  8
0
  6
CONTINUOUS
 62
     7
100
AcDbCircle
 10
992.3719716845
 20
454.1505823068
 30
0.0
 40
6.500000000000025
100
AcDbArc
 50
268.8095013694
 51
88.8095013694
  0
ARC
  5
5A3
330
1F
100
AcDbEntity
  8
0
  6
CONTINUOUS
 62
     7
100
AcDbCircle
 10
992.3719716845
 20
454.1505823068
 30
0.0
 40
24.00000000000407
100
AcDbArc
 50
163.0956403214
 51
194.5233624174
  0
LWPOLYLINE
  5
5A4
330
1F
100
AcDbEntity
  8
0
  6
CONTINUOUS
 62
     7
100
AcDbPolyline
 90
        3
 70
   128
 43
0.0
 10
987.574240881
 20
447.7488809422
 10
988.4786594091
 20
447.1618673921
 10
990.0015729843
 20
446.5098214492
  0
ARC
  5
5A5
330
1F
100
AcDbEntity
  8
0
  6
CONTINUOUS
 62
     7
100
AcDbCircle
 10
992.3719716845
 20
454.1505823068
 30
0.0
 40
8.000000000000103
100
AcDbArc
 50
284.8544769975
 51
342.7645257412
  0
ARC
  5
5A6
330
1F
100
AcDbEntity
  8
0
  6
CONTINUOUS
 62
     7
100
AcDbCircle
 10
992.3719716845
 20
454.1505823068
 30
0.0
 40
7.99999999999994
100
AcDbArc
 50
14.8544769975
 51
72.7645257412
  0
LWPOLYLINE
  5
5A7
330
1F
100
AcDbEntity
  8
0
  6
CONTINUOUS
 62
     7
100
AcDbPolyline
 90
        3
 70
   128
 43
0.0
 10
990.3210538803
 20
461.883222793
 10
988.7723612963
 20
461.2950087681
 10
987.8443393288
 20
460.7460751355
  0
LINE
  5
5A8
330
1F
100
AcDbEntity
  8
0
  6
CONTINUOUS
 62
     7
100
AcDbLine
 10
985.2916959105
 20
460.7991214067
 30
0.0
 11
987.0857063113
 21
463.7624878593
 31
0.0
  0
LINE
  5
5A9
330
1F
100
AcDbEntity
  8
0
  6
CONTINUOUS
 62
     7
100
AcDbLine
 10
987.0857063113
 20
463.7624878593
 30
0.0
 11
998.0529907523
 21
463.5345755301
 31
0.0
  0
LINE
  5
5AA
330
1F
100
AcDbEntity
  8
0
  6
CONTINUOUS
 62
     7
100
AcDbLine
 10
998.0529907523
 20
463.5345755301
 30
0.0
 11
1003.3392596422
 21
453.9226698904
 31
0.0
  0
LINE
  5
5AB
330
1F
100
AcDbEntity
  8
0
  6
CONTINUOUS
 62
     7
100
AcDbLine
 10
1003.3392596422
 20
453.9226698904
 30
0.0
 11
997.6582366405
 21
444.5386767544
 31
0.0
  0
LINE
  5
5AC
330
1F
100
AcDbEntity
  8
0
  6
CONTINUOUS
 62
     7
100
AcDbLine
 10
997.6582366405
 20
444.5386767544
 30
0.0
 11
986.6909521995
 21
444.7665890835
 31
0.0
  0
LINE
  5
5AD
330
1F
100
AcDbEntity
  8
0
  6
CONTINUOUS
 62
     7
100
AcDbLine
 10
986.6909521995
 20
444.7665890835
 30
0.0
 11
985.0216049133
 21
447.801927679
 31
0.0
  0
CIRCLE
  5
5AE
330
1F
100
AcDbEntity
  8
0
  6
CONTINUOUS
 62
     7
100
AcDbCircle
 10
992.3719716845
 20
454.1505823068
 30
0.0
 40
3.500000000000077
  0
LINE
  5
5AF
330
1F
100
AcDbEntity
  8
0
  6
CONTINUOUS
 62
     7
100
AcDbLine
 10
990.9604403554
 20
458.4234721184
 30
0.0
 11
990.9379992066
 21
457.3433423571
 31
0.0
  0
ARC
  5
5B0
330
1F
100
AcDbEntity
  8
0
  6
CONTINUOUS
 62
     7
100
AcDbCircle
 10
992.3719716845
 20
454.1505823068
 30
0.0
 40
4.499999999999719
100
AcDbArc
 50
69.3382807349
 51
108.2807220039
  0
LINE
  5
5B1
330
1F
100
AcDbEntity
  8
0
  6
CONTINUOUS
 62
     7
100
AcDbLine
 10
993.9597982345
 20
458.3611424237
 30
0.0
 11
993.9373496352
 21
457.2810124297
 31
0.0
  0
ARC
  5
5B2
330
1F
100
AcDbEntity
  8
0
  6
CONTINUOUS
 62
     7
100
AcDbCircle
 10
992.3719716845
 20
454.1505823068
 30
0.0
 40
4.499999999999917
100
AcDbArc
 50
339.3382807349
 51
350.2604225388
  0
LINE
  5
5B3
330
1F
100
AcDbEntity
  8
0
  6
CONTINUOUS
 62
     7
100
AcDbLine
 10
996.5825292645
 20
452.5627583422
 30
0.0
 11
995.5024036942
 21
452.5852046132
 31
0.0
  0
LINE
  5
5B4
330
1F
100
AcDbEntity
  8
0
  6
CONTINUOUS
 62
     7
100
AcDbLine
 10
993.8059437452
 20
450.9578222565
 30
0.0
 11
993.7835025965
 21
449.8776924953
 31
0.0
  0
LWPOLYLINE
  5
5B5
330
1F
100
AcDbEntity
  8
0
  6
CONTINUOUS
 62
     7
100
AcDbPolyline
 90
        3
 70
   128
 43
0.0
 10
990.7841447173
 20
449.9400221899
 10
991.1471668063
 20
449.820471105
 10
991.2135738312
 20
449.802235809
  0
LWPOLYLINE
  5
5B6
330
1F
100
AcDbEntity
  8
0
  6
CONTINUOUS
 62
     7
100
AcDbPolyline
 90
        3
 70
   128
 43
0.0
 10
993.3487165151
 20
449.7578648075
 10
993.4158238946
 20
449.7733261593
 10
993.7835025965
 20
449.8776924953
  0
LINE
  5
5B7
330
1F
100
AcDbEntity
  8
0
  6
CONTINUOUS
 62
     7
100
AcDbLine
 10
990.8065933166
 20
451.020152184
 30
0.0
 11
990.7841447173
 21
449.9400221899
 31
0.0
  0
LINE
  5
5B8
330
1F
100
AcDbEntity
  8
0
  6
CONTINUOUS
 62
     7
100
AcDbLine
 10
988.09908213
 20
452.7390538638
 30
0.0
 11
989.1792151509
 21
452.7166075928
 31
0.0
  0
ARC
  5
5B9
330
1F
100
AcDbEntity
  8
0
  6
CONTINUOUS
 62
     7
100
AcDbCircle
 10
992.3719716845
 20
454.1505823068
 30
0.0
 40
4.499999999999979
100
AcDbArc
 50
186.4717570301
 51
198.2807220039
  0
ARC
  5
5BA
330
1F
100
AcDbEntity
  8
0
  6
CONTINUOUS
 62
     7
100
AcDbCircle
 10
992.3719716845
 20
454.1505823068
 30
0.0
 40
7.000000000000053
100
AcDbArc
 50
247.0227120711
 51
110.5962906676
  0
LWPOLYLINE
  5
5BB
330
1F
100
AcDbEntity
  8
0
  6
CONTINUOUS
 62
     7
100
AcDbPolyline
 90
        4
 70
   128
 43
0.0
 10
994.4228890715
 20
446.4179418206
 10
995.5955806552
 20
447.5428844959
 10
996.8771699248
 20
448.7722922273
 10
997.2178104697
 20
449.0990644477
  0
ARC
  5
5BC
330
1F
100
AcDbEntity
  8
0
  6
CONTINUOUS
 62
     7
100
AcDbCircle
 10
992.3719716845
 20
454.1505823068
 30
0.0
 40
7.999999999999929
100
AcDbArc
 50
252.7645257412
 51
284.8544769975
  0
LWPOLYLINE
  5
5BD
330
1F
100
AcDbEntity
  8
0
  6
CONTINUOUS
 62
     7
100
AcDbPolyline
 90
        3
 70
   128
 43
0.0
 10
988.8381648241
 20
447.7226153173
 10
989.0566083966
 20
447.4948953062
 10
990.0015729843
 20
446.5098214492
  0
ARC
  5
5BE
330
1F
100
AcDbEntity
  8
0
  6
CONTINUOUS
 62
     7
100
AcDbCircle
 10
992.3719716845
 20
454.1505823068
 30
0.0
 40
7.999999999999958
100
AcDbArc
 50
72.7645257412
 51
104.8544769975
  0
LWPOLYLINE
  5
5BF
330
1F
100
AcDbEntity
  8
0
  6
CONTINUOUS
 62
     7
100
AcDbPolyline
 90
        3
 70
   128
 43
0.0
 10
997.4234911977
 20
458.9964222319
 10
995.6873345552
 20
460.8062693074
 10
994.7423699675
 20
461.7913431644
  0
LWPOLYLINE
  5
5C0
330
1F
100
AcDbEntity
  8
0
  6
CONTINUOUS
 62
     7
100
AcDbPolyline
 90
        3
 70
   128
 43
0.0
 10
990.3210538803
 20
461.883222793
 10
989.1483622967
 20
460.7582801178
 10
989.1082558213
 20
460.7198090449
  0
LWPOLYLINE
  5
5C1
330
1F
100
AcDbEntity
  8
0
  6
CONTINUOUS
 62
     7
100
AcDbPolyline
 90
        3
 70
   128
 43
0.0
 10
997.2178104697
 20
449.0990644477
 10
999.0276608048
 20
450.8352215558
 10
1000.0127318679
 20
451.780186842
  0
LWPOLYLINE
  5
5C2
330
1F
100
AcDbEntity
  8
0
  6
CONTINUOUS
 62
     7
100
AcDbPolyline
 90
        4
 70
   128
 43
0.0
 10
1000.1046124278
 20
456.2015015323
 10
998.9796716152
 20
457.3741917189
 10
997.7502587615
 20
458.6557802901
 10
997.4234911977
 20
458.9964222319
  0
ARC
  5
5C3
330
1F
100
AcDbEntity
  8
0
  6
CONTINUOUS
 62
     7
100
AcDbCircle
 10
992.3719716845
 20
454.1505823068
 30
0.0
 40
7.999999999999885
100
AcDbArc
 50
342.7645257412
 51
14.8544769975
  0
LINE
  5
5C4
330
1F
100
AcDbEntity
  8
0
  6
CONTINUOUS
 62
     8
100
AcDbLine
 10
974.3719685255
 20
299.1505811147
 30
0.0
 11
974.3719685255
 21
448.0232387938
 31
0.0
  0
LINE
  5
5C5
330
1F
100
AcDbEntity
  8
0
  6
CONTINUOUS
 62
     8
100
AcDbLine
 10
974.3719685255
 20
461.0260456026
 30
0.0
 11
974.3719685255
 21
609.1505834989
 31
0.0
  0
ENDSEC
  0
SECTION
  2
OBJECTS
  0
DICTIONARY
  5
C
330
0
100
AcDbDictionary
  3
ACAD_GROUP
350
D
  3
ACAD_MLINESTYLE
350
17
  0
DICTIONARY
  5
D
102
{ACAD_REACTORS
330
C
102
}
330
C
100
AcDbDictionary
  0
DICTIONARY
  5
17
102
{ACAD_REACTORS
330
C
102
}
330
C
100
AcDbDictionary
  3
STANDARD
350
18
  0
MLINESTYLE
  5
18
102
{ACAD_REACTORS
330
17
102
}
330
17
100
AcDbMlineStyle
  2
Standard
 70
     0
  3

 62
   256
 51
90.0
 52
90.0
 71
     2
 49
0.5
 62
   256
  6
BYLAYER
 49
-0.5
 62
   256
  6
BYLAYER
  0
ENDSEC
  0
EOF
