  0
SECTION
  2
HEADER
  9
$ACADVER
  1
AC1009
  9
$INSBASE
 10
-849.09028313729357
 20
183.39009975420339
 30
0.0
  9
$EXTMIN
 10
-893.67109823313024
 20
107.3369532779536
 30
0.0
  9
$EXTMAX
 10
-802.24829187566945
 20
261.97843031251642
 30
0.0
  9
$LIMMIN
 10
-5.0000000000000044
 20
2.5
  9
$LIMMAX
 10
415.0
 20
302.0
  9
$ORTHOMODE
 70
     1
  9
$REGENMODE
 70
     1
  9
$FILLMODE
 70
     1
  9
$QTEXTMODE
 70
     0
  9
$MIRRTEXT
 70
     1
  9
$DRAGMODE
 70
     2
  9
$LTSCALE
 40
7.5
  9
$OSMODE
 70
    37
  9
$ATTMODE
 70
     1
  9
$TEXTSIZE
 40
2.5
  9
$TRACEWID
 40
1.0
  9
$TEXTSTYLE
  7
SIMPLEX
  9
$CLAYER
  8
L45
  9
$CELTYPE
  6
BYLAYER
  9
$CECOLOR
 62
   256
  9
$DIMSCALE
 40
1.0
  9
$DIMASZ
 40
2.5
  9
$DIMEXO
 40
0.0625
  9
$DIMDLI
 40
10.0
  9
$DIMRND
 40
0.0
  9
$DIMDLE
 40
0.0
  9
$DIMEXE
 40
1.0
  9
$DIMTP
 40
0.0
  9
$DIMTM
 40
0.0
  9
$DIMTXT
 40
2.5
  9
$DIMCEN
 40
0.0
  9
$DIMTSZ
 40
0.0
  9
$DIMTOL
 70
     0
  9
$DIMLIM
 70
     0
  9
$DIMTIH
 70
     0
  9
$DIMTOH
 70
     0
  9
$DIMSE1
 70
     0
  9
$DIMSE2
 70
     0
  9
$DIMTAD
 70
     1
  9
$DIMZIN
 70
     0
  9
$DIMBLK
  1

  9
$DIMASO
 70
     1
  9
$DIMSHO
 70
     1
  9
$DIMPOST
  1

  9
$DIMAPOST
  1

  9
$DIMALT
 70
     0
  9
$DIMALTD
 70
     2
  9
$DIMALTF
 40
25.399999999999999
  9
$DIMLFAC
 40
1.0
  9
$DIMTOFL
 70
     1
  9
$DIMTVP
 40
0.0
  9
$DIMTIX
 70
     0
  9
$DIMSOXD
 70
     1
  9
$DIMSAH
 70
     1
  9
$DIMBLK1
  1

  9
$DIMBLK2
  1

  9
$DIMSTYLE
  2
STANDARD
  9
$DIMCLRD
 70
     0
  9
$DIMCLRE
 70
     0
  9
$DIMCLRT
 70
     0
  9
$DIMTFAC
 40
1.0
  9
$DIMGAP
 40
0.09
  9
$LUNITS
 70
     2
  9
$LUPREC
 70
     1
  9
$SKETCHINC
 40
0.1
  9
$FILLETRAD
 40
0.0
  9
$AUNITS
 70
     0
  9
$AUPREC
 70
     0
  9
$MENU
  1
TKK-ACAD
  9
$ELEVATION
 40
0.0
  9
$PELEVATION
 40
0.0
  9
$THICKNESS
 40
0.0
  9
$LIMCHECK
 70
     0
  9
$BLIPMODE
 70
     0
  9
$CHAMFERA
 40
2.0
  9
$CHAMFERB
 40
2.0
  9
$SKPOLY
 70
     0
  9
$TDCREATE
 40
2448649.3916443288
  9
$TDUPDATE
 40
2453689.5667948029
  9
$TDINDWG
 40
0.6593548264
  9
$TDUSRTIMER
 40
0.6593548264
  9
$USRTIMER
 70
     1
  9
$ANGBASE
 50
0.0
  9
$ANGDIR
 70
     0
  9
$PDMODE
 70
     0
  9
$PDSIZE
 40
0.0
  9
$PLINEWID
 40
1.0
  9
$COORDS
 70
     2
  9
$SPLFRAME
 70
     0
  9
$SPLINETYPE
 70
     6
  9
$SPLINESEGS
 70
     8
  9
$ATTDIA
 70
     0
  9
$ATTREQ
 70
     1
  9
$HANDLING
 70
-16383
  9
$HANDSEED
  5
78
  9
$SURFTAB1
 70
     6
  9
$SURFTAB2
 70
     6
  9
$SURFTYPE
 70
     6
  9
$SURFU
 70
     6
  9
$SURFV
 70
     6
  9
$UCSNAME
  2

  9
$UCSORG
 10
0.0
 20
0.0
 30
0.0
  9
$UCSXDIR
 10
1.0
 20
0.0
 30
0.0
  9
$UCSYDIR
 10
0.0
 20
1.0
 30
0.0
  9
$PUCSNAME
  2

  9
$PUCSORG
 10
0.0
 20
0.0
 30
0.0
  9
$PUCSXDIR
 10
1.0
 20
0.0
 30
0.0
  9
$PUCSYDIR
 10
0.0
 20
1.0
 30
0.0
  9
$USERI1
 70
   103
  9
$USERI2
 70
     0
  9
$USERI3
 70
     0
  9
$USERI4
 70
     0
  9
$USERI5
 70
     0
  9
$USERR1
 40
1.0
  9
$USERR2
 40
-2.0
  9
$USERR3
 40
0.5
  9
$USERR4
 40
0.0
  9
$USERR5
 40
0.0
  9
$WORLDVIEW
 70
     1
  9
$SHADEDGE
 70
     3
  9
$SHADEDIF
 70
    70
  9
$TILEMODE
 70
     1
  9
$MAXACTVP
 70
    48
  9
$PLIMCHECK
 70
     0
  9
$PEXTMIN
 10
1.0000000000000000E+020
 20
1.0000000000000000E+020
 30
1.0000000000000000E+020
  9
$PEXTMAX
 10
-1.0000000000000000E+020
 20
-1.0000000000000000E+020
 30
-1.0000000000000000E+020
  9
$PLIMMIN
 10
0.0
 20
0.0
  9
$PLIMMAX
 10
12.0
 20
9.0
  9
$UNITMODE
 70
     0
  9
$VISRETAIN
 70
     1
  9
$PLINEGEN
 70
     0
  9
$PSLTSCALE
 70
     0
  0
ENDSEC
  0
SECTION
  2
TABLES
  0
TABLE
  2
VPORT
 70
     3
  0
VPORT
  2
*ACTIVE
 70
     0
 10
0.0
 20
0.0
 11
1.0
 21
1.0
 12
-847.95969505439984
 22
184.657691795235
 13
0.0
 23
0.0
 14
5.0
 24
5.0
 15
10.0
 25
10.0
 16
0.0
 26
0.0
 36
1.0
 17
0.0
 27
0.0
 37
0.0
 40
155.57211781912389
 41
1.5552208835341359
 42
50.0
 43
0.0
 44
0.0
 50
0.0
 51
0.0
 71
     0
 72
  1000
 73
     1
 74
     0
 75
     0
 76
     0
 77
     0
 78
     0
  0
ENDTAB
  0
TABLE
  2
LTYPE
 70
     2
  0
LTYPE
  2
CONTINUOUS
 70
     0
  3
Solid line
 72
    65
 73
     0
 40
0.0
  0
LTYPE
  2
CENTER
 70
     0
  3
____ _ ____ _ ____ _ ____ _ ____ _ ____ _ ____
 72
    65
 73
     4
 40
2.0
 49
1.25
 49
-0.25
 49
0.25
 49
-0.25
  0
ENDTAB
  0
TABLE
  2
LAYER
 70
     4
  0
LAYER
  2
0
 70
     0
 62
     6
  6
CONTINUOUS
  0
LAYER
  2
L1
 70
     0
 62
     7
  6
CONTINUOUS
  0
LAYER
  2
L6
 70
     0
 62
     1
  6
CENTER
  0
LAYER
  2
L45
 70
     0
 62
     1
  6
CONTINUOUS
  0
ENDTAB
  0
TABLE
  2
STYLE
 70
     2
  0
STYLE
  2
STANDARD
 70
     0
 40
0.0
 41
1.0
 50
0.0
 71
     0
 42
9.5
  3
KIRJAIN
  4

  0
STYLE
  2
SIMPLEX
 70
     0
 40
2.5
 41
0.8
 50
0.0
 71
     0
 42
2.5
  3
KIRJAIN
  4

  0
ENDTAB
  0
TABLE
  2
VIEW
 70
     0
  0
ENDTAB
  0
TABLE
  2
UCS
 70
     0
  0
ENDTAB
  0
TABLE
  2
APPID
 70
     1
  0
APPID
  2
ACAD
 70
     0
  0
ENDTAB
  0
TABLE
  2
DIMSTYLE
 70
     1
  0
DIMSTYLE
  2
STANDARD
 70
     0
  3

  4

  5

  6

  7

 40
1.0
 41
0.18
 42
0.0625
 43
0.38
 44
0.18
 45
0.0
 46
0.0
 47
0.0
 48
0.0
140
0.18
141
0.09
142
0.0
143
25.399999999999999
144
1.0
145
0.0
146
1.0
147
0.09
 71
     0
 72
     0
 73
     1
 74
     1
 75
     0
 76
     0
 77
     0
 78
     0
170
     0
171
     2
172
     0
173
     0
174
     0
175
     0
176
     0
177
     0
178
     0
  0
ENDTAB
  0
ENDSEC
  0
SECTION
  2
BLOCKS
  0
BLOCK
  8
0
  2
$MODEL_SPACE
 70
     0
 10
0.0
 20
0.0
 30
0.0
  3
$MODEL_SPACE
  1

  0
ENDBLK
  5
B
  8
0
  0
BLOCK
 67
     1
  8
0
  2
$PAPER_SPACE
 70
     0
 10
0.0
 20
0.0
 30
0.0
  3
$PAPER_SPACE
  1

  0
ENDBLK
  5
11
 67
     1
  8
0
  0
ENDSEC
  0
SECTION
  2
ENTITIES
  0
LINE
  5
28
  8
L1
 10
-813.59028313729357
 20
248.39009975420339
 30
0.0
 11
-813.59028313729357
 21
118.3900997542034
 31
0.0
  0
LINE
  5
2A
  8
L1
 10
-884.59028313729368
 20
248.39009975420339
 30
0.0
 11
-884.59028313729368
 21
118.3900997542034
 31
0.0
  0
LINE
  5
2B
  8
L6
 10
-849.09028313729357
 20
107.3369532779536
 30
0.0
 11
-849.09028313729357
 21
261.97843031251642
 31
0.0
  0
LINE
  5
2E
  8
L6
 10
-870.30290495845838
 20
122.6400997542034
 30
0.0
 11
-885.87766131612875
 21
122.6400997542034
 31
0.0
  0
LINE
  5
2F
  8
L1
 10
-815.59028313729357
 20
116.3900997542034
 30
0.0
 11
-882.59028313729368
 21
116.3900997542034
 31
0.0
  0
LINE
  5
30
  8
L6
 10
-878.09028313729368
 20
130.42747793303781
 30
0.0
 11
-878.09028313729368
 21
114.85272157536841
 31
0.0
  0
LINE
  5
31
  8
L1
 10
-882.59028313729368
 20
116.3900997542034
 30
0.0
 11
-884.59028313729368
 21
118.3900997542034
 31
0.0
  0
CIRCLE
  5
32
  8
L1
 10
-878.09028313729368
 20
122.6400997542034
 30
0.0
 40
2.5
  0
LINE
  5
33
  8
L6
 10
-827.87766131612887
 20
122.6400997542034
 30
0.0
 11
-812.30290495845861
 21
122.6400997542034
 31
0.0
  0
CIRCLE
  5
34
  8
L1
 10
-820.09028313729368
 20
122.6400997542034
 30
0.0
 40
2.5
  0
LINE
  5
35
  8
L6
 10
-820.09028313729368
 20
130.42747793303781
 30
0.0
 11
-820.09028313729368
 21
114.85272157536841
 31
0.0
  0
LINE
  5
36
  8
L1
 10
-813.59028313729357
 20
118.3900997542034
 30
0.0
 11
-815.59028313729357
 21
116.3900997542034
 31
0.0
  0
LINE
  5
37
  8
L6
 10
-820.09028313729368
 20
236.35272157536889
 30
0.0
 11
-820.09028313729368
 21
251.9274779330384
 31
0.0
  0
LINE
  5
38
  8
L6
 10
-878.09028313729368
 20
236.35272157536889
 30
0.0
 11
-878.09028313729368
 21
251.9274779330384
 31
0.0
  0
LINE
  5
39
  8
L6
 10
-870.30290495845838
 20
244.14009975420339
 30
0.0
 11
-885.87766131612875
 21
244.14009975420339
 31
0.0
  0
LINE
  5
3A
  8
L1
 10
-815.59028313729368
 20
250.39009975420339
 30
0.0
 11
-882.59028313729368
 21
250.39009975420339
 31
0.0
  0
LINE
  5
3B
  8
L6
 10
-802.24829187566945
 20
183.39009975420339
 30
0.0
 11
-893.67109823313024
 21
183.39009975420339
 31
0.0
  0
CIRCLE
  5
3C
  8
L1
 10
-878.09028313729368
 20
244.14009975420339
 30
0.0
 40
2.5
  0
LINE
  5
3D
  8
L1
 10
-884.59028313729368
 20
248.39009975420339
 30
0.0
 11
-882.59028313729368
 21
250.39009975420339
 31
0.0
  0
CIRCLE
  5
3E
  8
L1
 10
-820.09028313729368
 20
244.14009975420339
 30
0.0
 40
2.5
  0
LINE
  5
3F
  8
L6
 10
-827.87766131612887
 20
244.14009975420339
 30
0.0
 11
-812.30290495845861
 21
244.14009975420339
 31
0.0
  0
LINE
  5
40
  8
L1
 10
-815.59028313729368
 20
250.39009975420339
 30
0.0
 11
-813.59028313729357
 21
248.39009975420339
 31
0.0
  0
ENDSEC
  0
EOF
