  0
SECTION
  2
HEADER
  9
$ACADVER
  1
AC1009
  9
$INSBASE
 10
-803.46204164619417
 20
767.80680689969563
 30
0.0
  9
$EXTMIN
 10
-923.06541315753179
 20
682.29954077256787
 30
-0.0015258207003583
  9
$EXTMAX
 10
-682.30461082456713
 20
861.82701327002985
 30
0.0000000349246037
  9
$LIMMIN
 10
-5.0000000000000044
 20
2.5
  9
$LIMMAX
 10
1000.0
 20
1000.0
  9
$ORTHOMODE
 70
     1
  9
$REGENMODE
 70
     1
  9
$FILLMODE
 70
     1
  9
$QTEXTMODE
 70
     0
  9
$MIRRTEXT
 70
     1
  9
$DRAGMODE
 70
     2
  9
$LTSCALE
 40
14.0
  9
$OSMODE
 70
    37
  9
$ATTMODE
 70
     1
  9
$TEXTSIZE
 40
5.0
  9
$TRACEWID
 40
1.0
  9
$TEXTSTYLE
  7
SIMPLEX
  9
$CLAYER
  8
L22
  9
$CELTYPE
  6
BYLAYER
  9
$CECOLOR
 62
   256
  9
$DIMSCALE
 40
1.0
  9
$DIMASZ
 40
5.0
  9
$DIMEXO
 40
0.1
  9
$DIMDLI
 40
0.4
  9
$DIMRND
 40
0.0
  9
$DIMDLE
 40
0.0
  9
$DIMEXE
 40
0.2
  9
$DIMTP
 40
0.0
  9
$DIMTM
 40
0.0
  9
$DIMTXT
 40
5.0
  9
$DIMCEN
 40
3.0
  9
$DIMTSZ
 40
0.0
  9
$DIMTOL
 70
     0
  9
$DIMLIM
 70
     0
  9
$DIMTIH
 70
     0
  9
$DIMTOH
 70
     0
  9
$DIMSE1
 70
     0
  9
$DIMSE2
 70
     0
  9
$DIMTAD
 70
     1
  9
$DIMZIN
 70
     8
  9
$DIMBLK
  1

  9
$DIMASO
 70
     1
  9
$DIMSHO
 70
     1
  9
$DIMPOST
  1

  9
$DIMAPOST
  1
"
  9
$DIMALT
 70
     0
  9
$DIMALTD
 70
     2
  9
$DIMALTF
 40
0.03937
  9
$DIMLFAC
 40
1.0
  9
$DIMTOFL
 70
     1
  9
$DIMTVP
 40
0.0
  9
$DIMTIX
 70
     0
  9
$DIMSOXD
 70
     0
  9
$DIMSAH
 70
     0
  9
$DIMBLK1
  1

  9
$DIMBLK2
  1

  9
$DIMSTYLE
  2
FIBOX
  9
$DIMCLRD
 70
     1
  9
$DIMCLRE
 70
     1
  9
$DIMCLRT
 70
     3
  9
$DIMTFAC
 40
1.0
  9
$DIMGAP
 40
2.0
  9
$LUNITS
 70
     2
  9
$LUPREC
 70
     1
  9
$SKETCHINC
 40
0.1
  9
$FILLETRAD
 40
0.0
  9
$AUNITS
 70
     0
  9
$AUPREC
 70
     0
  9
$MENU
  1
caesar
  9
$ELEVATION
 40
0.0
  9
$PELEVATION
 40
0.0
  9
$THICKNESS
 40
0.0
  9
$LIMCHECK
 70
     0
  9
$BLIPMODE
 70
     0
  9
$CHAMFERA
 40
5.0
  9
$CHAMFERB
 40
5.0
  9
$SKPOLY
 70
     0
  9
$TDCREATE
 40
2448651.5947530088
  9
$TDUPDATE
 40
2453689.579421272
  9
$TDINDWG
 40
0.4654309375
  9
$TDUSRTIMER
 40
0.4654309375
  9
$USRTIMER
 70
     1
  9
$ANGBASE
 50
0.0
  9
$ANGDIR
 70
     0
  9
$PDMODE
 70
     0
  9
$PDSIZE
 40
0.0
  9
$PLINEWID
 40
1.0
  9
$COORDS
 70
     2
  9
$SPLFRAME
 70
     0
  9
$SPLINETYPE
 70
     6
  9
$SPLINESEGS
 70
     8
  9
$ATTDIA
 70
     0
  9
$ATTREQ
 70
     1
  9
$HANDLING
 70
-16383
  9
$HANDSEED
  5
8A
  9
$SURFTAB1
 70
     6
  9
$SURFTAB2
 70
     6
  9
$SURFTYPE
 70
     6
  9
$SURFU
 70
     6
  9
$SURFV
 70
     6
  9
$UCSNAME
  2

  9
$UCSORG
 10
0.0
 20
0.0
 30
0.0
  9
$UCSXDIR
 10
1.0
 20
0.0
 30
0.0
  9
$UCSYDIR
 10
0.0
 20
1.0
 30
0.0
  9
$PUCSNAME
  2

  9
$PUCSORG
 10
0.0
 20
0.0
 30
0.0
  9
$PUCSXDIR
 10
1.0
 20
0.0
 30
0.0
  9
$PUCSYDIR
 10
0.0
 20
1.0
 30
0.0
  9
$USERI1
 70
   103
  9
$USERI2
 70
     0
  9
$USERI3
 70
     0
  9
$USERI4
 70
     0
  9
$USERI5
 70
     0
  9
$USERR1
 40
2.0
  9
$USERR2
 40
5.0
  9
$USERR3
 40
2.5
  9
$USERR4
 40
0.0
  9
$USERR5
 40
0.0
  9
$WORLDVIEW
 70
     1
  9
$SHADEDGE
 70
     3
  9
$SHADEDIF
 70
    70
  9
$TILEMODE
 70
     1
  9
$MAXACTVP
 70
    16
  9
$PLIMCHECK
 70
     0
  9
$PEXTMIN
 10
1.0000000000000000E+020
 20
1.0000000000000000E+020
 30
1.0000000000000000E+020
  9
$PEXTMAX
 10
-1.0000000000000000E+020
 20
-1.0000000000000000E+020
 30
-1.0000000000000000E+020
  9
$PLIMMIN
 10
0.0
 20
0.0
  9
$PLIMMAX
 10
12.0
 20
9.0
  9
$UNITMODE
 70
     0
  9
$VISRETAIN
 70
     0
  9
$PLINEGEN
 70
     0
  9
$PSLTSCALE
 70
     0
  0
ENDSEC
  0
SECTION
  2
TABLES
  0
TABLE
  2
VPORT
 70
     3
  0
VPORT
  2
*ACTIVE
 70
     0
 10
0.0
 20
0.0
 11
1.0
 21
1.0
 12
-1049.574495458573
 22
9.7245155636583132
 13
0.0
 23
0.0
 14
5.0
 24
5.0
 15
20.0
 25
20.0
 16
0.0
 26
0.0
 36
1.0
 17
246.88948346752369
 27
762.33876145764054
 37
0.0
 40
180.6078785506061
 41
1.5552208835341359
 42
50.0
 43
0.0
 44
0.0
 50
0.0
 51
0.0
 71
     0
 72
  1000
 73
     1
 74
     0
 75
     0
 76
     0
 77
     0
 78
     0
  0
ENDTAB
  0
TABLE
  2
LTYPE
 70
     2
  0
LTYPE
  2
CONTINUOUS
 70
     0
  3
Solid line
 72
    65
 73
     0
 40
0.0
  0
LTYPE
  2
CENTER
 70
     0
  3
____ _ ____ _ ____ _ ____ _ ____ _ ____ _ ____
 72
    65
 73
     4
 40
2.0
 49
1.25
 49
-0.25
 49
0.25
 49
-0.25
  0
ENDTAB
  0
TABLE
  2
LAYER
 70
     4
  0
LAYER
  2
0
 70
     0
 62
     7
  6
CONTINUOUS
  0
LAYER
  2
L1
 70
     0
 62
     7
  6
CONTINUOUS
  0
LAYER
  2
L6
 70
     0
 62
     1
  6
CENTER
  0
LAYER
  2
L22
 70
     0
 62
     3
  6
CONTINUOUS
  0
ENDTAB
  0
TABLE
  2
STYLE
 70
     2
  0
STYLE
  2
STANDARD
 70
     0
 40
0.0
 41
1.0
 50
0.0
 71
     0
 42
9.5
  3
KIRJAIN
  4

  0
STYLE
  2
SIMPLEX
 70
     0
 40
5.0
 41
0.8
 50
0.0
 71
     0
 42
5.0
  3
KIRJAIN
  4

  0
ENDTAB
  0
TABLE
  2
VIEW
 70
     0
  0
ENDTAB
  0
TABLE
  2
UCS
 70
     0
  0
ENDTAB
  0
TABLE
  2
APPID
 70
     1
  0
APPID
  2
ACAD
 70
     0
  0
ENDTAB
  0
TABLE
  2
DIMSTYLE
 70
     1
  0
DIMSTYLE
  2
FIBOX
 70
     0
  3

  4
"
  5

  6

  7

 40
1.0
 41
5.0
 42
0.1
 43
0.4
 44
0.2
 45
0.0
 46
0.0
 47
0.0
 48
0.0
140
5.0
141
3.0
142
0.0
143
0.03937
144
1.0
145
0.0
146
1.0
147
2.0
 71
     0
 72
     0
 73
     0
 74
     0
 75
     0
 76
     0
 77
     1
 78
     8
170
     0
171
     2
172
     1
173
     0
174
     0
175
     0
176
     1
177
     1
178
     3
  0
ENDTAB
  0
ENDSEC
  0
SECTION
  2
BLOCKS
  0
BLOCK
  8
0
  2
$MODEL_SPACE
 70
     0
 10
0.0
 20
0.0
 30
0.0
  3
$MODEL_SPACE
  1

  0
ENDBLK
  5
B
  8
0
  0
BLOCK
 67
     1
  8
0
  2
$PAPER_SPACE
 70
     0
 10
0.0
 20
0.0
 30
0.0
  3
$PAPER_SPACE
  1

  0
ENDBLK
  5
11
 67
     1
  8
0
  0
ENDSEC
  0
SECTION
  2
ENTITIES
  0
LINE
  5
28
  8
L6
 10
-923.02826534968779
 20
767.80680689969563
 30
0.0
 11
-682.33797212936815
 21
767.80680689969563
 31
0.0
  0
LINE
  5
2B
  8
L1
 10
-698.46204164619405
 20
692.3068068996954
 30
0.0
 11
-791.46204164619405
 21
692.30680689969552
 31
0.0
  0
LINE
  5
2D
  8
L1
 10
-698.46204164619405
 20
843.30680689969574
 30
0.0
 11
-791.46204164619405
 21
843.30680689969563
 31
0.0
  0
LINE
  5
2E
  8
L6
 10
-803.46204164619417
 20
682.33094304119174
 30
0.0
 11
-803.46204164619417
 21
861.75591581128447
 31
0.0
  0
LINE
  5
2F
  8
L1
 10
-910.46204164619405
 20
694.3068068996954
 30
0.0
 11
-908.46204164619405
 21
692.3068068996954
 31
0.0
  0
LINE
  5
30
  8
L1
 10
-813.46204164619417
 20
694.30680689969563
 30
0.0
 11
-815.46204164619405
 21
692.30680689969563
 31
0.0
  0
LINE
  5
31
  8
L1
 10
-793.46204164619405
 20
694.30680689969563
 30
0.0
 11
-791.46204164619405
 21
692.30680689969563
 31
0.0
  0
LINE
  5
32
  8
L6
 10
-904.21204164619405
 20
684.5019937348959
 30
0.0
 11
-904.21204164619405
 21
712.61162006449524
 31
0.0
  0
LINE
  5
33
  8
L1
 10
-908.46204164619405
 20
692.3068068996954
 30
0.0
 11
-815.46204164619405
 21
692.30680689969552
 31
0.0
  0
TEXT
  5
34
  8
L22
 10
-858.9507727530987
 20
701.28130047767456
 30
0.0
 40
5.0
  1
TM1624
 41
0.8
  7
SIMPLEX
  0
LINE
  5
35
  8
L1
 10
-908.46204164619405
 20
843.30680689969574
 30
0.0
 11
-815.46204164619405
 21
843.30680689969563
 31
0.0
  0
LINE
  5
36
  8
L1
 10
-910.46204164619405
 20
841.30680689969574
 30
0.0
 11
-910.46204164619371
 21
767.80680689969563
 31
0.0
  0
LINE
  5
37
  8
L1
 10
-910.46204164619405
 20
694.3068068996954
 30
0.0
 11
-910.46204164619371
 21
767.80680689969563
 31
0.0
  0
LINE
  5
38
  8
L6
 10
-913.26685481099355
 20
698.55680689969563
 30
0.0
 11
-890.15722848139535
 21
698.55680689969563
 31
0.0
  0
CIRCLE
  5
39
  8
L1
 10
-904.21204164619405
 20
698.55680689969563
 30
0.0
 40
2.5
  0
TEXT
  5
3A
  8
L22
 10
-898.17398147406607
 20
793.12589580199256
 30
0.0
 40
5.0
  1
s=1.5
 41
0.8
  7
SIMPLEX
  0
LINE
  5
3B
  8
L6
 10
-913.26685481099355
 20
837.05680689969563
 30
0.0
 11
-890.15722848139535
 21
837.05680689969563
 31
0.0
  0
LINE
  5
3C
  8
L6
 10
-904.21204164619405
 20
851.11162006449536
 30
0.0
 11
-904.21204164619405
 21
823.0019937348959
 31
0.0
  0
CIRCLE
  5
3D
  8
L1
 10
-904.21204164619405
 20
837.05680689969563
 30
0.0
 40
2.5
  0
LINE
  5
3E
  8
L1
 10
-910.46204164619405
 20
841.30680689969574
 30
0.0
 11
-908.46204164619405
 21
843.30680689969574
 31
0.0
  0
ARC
  5
3F
  8
L1
 10
-803.46204164619405
 20
696.80680689969552
 30
0.0
 40
10.0
 50
0.0
 51
179.99999999999929
  0
LINE
  5
40
  8
L22
 62
     1
 10
-806.46204164619405
 20
696.80680689969552
 30
0.0
 11
-800.46204164619405
 21
696.80680689969552
 31
0.0
  0
LINE
  5
41
  8
L1
 10
-813.46204164619405
 20
696.80680689969563
 30
0.0
 11
-813.46204164619417
 21
694.30680689969563
 31
0.0
  0
LINE
  5
42
  8
L22
 62
     1
 10
-803.46204164619405
 20
693.80680689969552
 30
0.0
 11
-803.46204164619405
 21
699.80680689969552
 31
0.0
  0
LINE
  5
43
  8
L22
 62
     1
 10
-803.46204164619417
 20
695.80680689969552
 30
0.0
 11
-803.46204164619417
 21
697.80680689969552
 31
0.0
  0
LINE
  5
44
  8
L22
 62
     1
 10
-804.46204164619417
 20
696.80680689969552
 30
0.0
 11
-802.46204164619405
 21
696.80680689969552
 31
0.0
  0
LINE
  5
45
  8
L1
 10
-793.46204164619405
 20
696.80680689969552
 30
0.0
 11
-793.46204164619405
 21
694.30680689969563
 31
0.0
  0
ARC
  5
46
  8
L1
 10
-803.46204164619405
 20
838.80680689969574
 30
0.0
 40
10.0
 50
180.0000000000006
 51
0.0
  0
LINE
  5
47
  8
L22
 62
     1
 10
-806.46204164619405
 20
838.80680689969574
 30
0.0
 11
-800.46204164619405
 21
838.80680689969574
 31
0.0
  0
LINE
  5
48
  8
L22
 62
     1
 10
-803.46204164619405
 20
835.80680689969563
 30
0.0
 11
-803.46204164619405
 21
841.80680689969574
 31
0.0
  0
LINE
  5
49
  8
L1
 10
-813.46204164619405
 20
838.80680689969563
 30
0.0
 11
-813.46204164619417
 21
841.30680689969563
 31
0.0
  0
LINE
  5
4A
  8
L1
 10
-813.46204164619417
 20
841.30680689969563
 30
0.0
 11
-815.46204164619405
 21
843.30680689969563
 31
0.0
  0
LINE
  5
4B
  8
L1
 10
-793.46204164619405
 20
838.80680689969574
 30
0.0
 11
-793.46204164619405
 21
841.30680689969563
 31
0.0
  0
LINE
  5
4C
  8
L1
 10
-793.46204164619405
 20
841.30680689969563
 30
0.0
 11
-791.46204164619405
 21
843.30680689969563
 31
0.0
  0
LINE
  5
4D
  8
L1
 10
-696.46204164619405
 20
694.3068068996954
 30
0.0
 11
-698.46204164619405
 21
692.3068068996954
 31
0.0
  0
LINE
  5
4E
  8
L6
 10
-702.71204164619405
 20
684.5019937348959
 30
0.0
 11
-702.71204164619405
 21
712.61162006449524
 31
0.0
  0
LINE
  5
4F
  8
L1
 10
-696.46204164619405
 20
841.30680689969574
 30
0.0
 11
-696.46204164619439
 21
767.80680689969563
 31
0.0
  0
LINE
  5
50
  8
L1
 10
-696.46204164619405
 20
694.3068068996954
 30
0.0
 11
-696.46204164619439
 21
767.80680689969563
 31
0.0
  0
LINE
  5
51
  8
L6
 10
-693.65722848139455
 20
698.55680689969563
 30
0.0
 11
-716.76685481099275
 21
698.55680689969563
 31
0.0
  0
CIRCLE
  5
52
  8
L1
 10
-702.71204164619405
 20
698.55680689969563
 30
0.0
 40
2.5
  0
LINE
  5
53
  8
L6
 10
-693.65722848139455
 20
837.05680689969563
 30
0.0
 11
-716.76685481099275
 21
837.05680689969563
 31
0.0
  0
CIRCLE
  5
54
  8
L1
 10
-702.71204164619405
 20
837.05680689969563
 30
0.0
 40
2.5
  0
LINE
  5
55
  8
L6
 10
-702.71204164619405
 20
851.11162006449536
 30
0.0
 11
-702.71204164619405
 21
823.0019937348959
 31
0.0
  0
LINE
  5
56
  8
L1
 10
-696.46204164619405
 20
841.30680689969574
 30
0.0
 11
-698.46204164619405
 21
843.30680689969574
 31
0.0
  0
ENDSEC
  0
EOF
